  0
SECTION
  2
HEADER
  9
$ACADVER
  1
AC1009
  9
$INSBASE
 10
0
 20
0
  9
$EXTMIN
 10
-1154.084633558903
 20
-222.0000000000007
  9
$EXTMAX
 10
6
 20
300.9642455868759
  9
$LIMMIN
 10
-1154.084633558903
 20
-222.0000000000007
  9
$LIMMAX
 10
6
 20
300.9642455868759
  9
$VIEWCTR
 10
10
 20
10
  9
$VIEWSIZE
 40
10
  9
$SNAPMODE
 70
0
  9
$SNAPUNIT
 10
1
 20
1
  9
$SNAPBASE
 10
0
 20
0
  9
$SNAPANG
 50
0
  9
$SNAPSTYLE
 70
0
  9
$SNAPISOPAIR
 70
0
  9
$GRIDMODE
 70
0
  9
$GRIDUNIT
 10
0
 20
0
  9
$ORTHOMODE
 70
0
  9
$REGENMODE
 70
1
  9
$FILLMODE
 70
1
  9
$QTEXTMODE
 70
0
  9
$DRAGMODE
 70
2
  9
$LTSCALE
 40
1
  9
$OSMODE
 70
0
  9
$ATTMODE
 70
1
  9
$TEXTSIZE
 40
3.5
  9
$TRACEWID
 40
0.5
  9
$TEXTSTYLE
  7
STANDARD
  9
$CLAYER
  8
0
  9
$CELTYPE
  6
BYLAYER
  9
$CECOLOR
 62
256
  9
$DIMSCALE
 40
1
  9
$DIMASZ
 40
0.18
  9
$DIMEXO
 40
0.0625
  9
$DIMDLI
 40
0.38
  9
$DIMRND
 40
0
  9
$DIMDLE
 40
0
  9
$DIMEXE
 40
0.18
  9
$DIMTP
 40
0
  9
$DIMTM
 40
0
  9
$DIMTXT
 40
0.18
  9
$DIMCEN
 40
0.09
  9
$DIMTSZ
 40
0
  9
$DIMTOL
 70
0
  9
$DIMLIM
 70
0
  9
$DIMTIH
 70
1
  9
$DIMTOH
 70
1
  9
$DIMSE1
 70
0
  9
$DIMSE2
 70
0
  9
$DIMTAD
 70
0
  9
$DIMZIN
 70
0
  9
$DIMBLK
  1

  9
$DIMASO
 70
1
  9
$DIMSHO
 70
1
  9
$DIMPOST
  1

  9
$DIMAPOST
  1

  9
$DIMALT
 70
0
  9
$DIMALTD
 70
2
  9
$DIMALTF
 40
25.4
  9
$DIMLFAC
 40
1
  9
$DIMTOFL
 70
0
  9
$DIMTVP
 40
0
  9
$DIMTIX
 70
0
  9
$DIMSOXD
 70
0
  9
$DIMSAH
 70
0
  9
$DIMBLK1
  1

  9
$DIMBLK2
  1

  9
$DIMSTYLE
  2
*UNNAMED
  9
$DIMCLRD
 70
0
  9
$DIMCLRE
 70
0
  9
$DIMCLRT
 70
0
  9
$DIMTFAC
 40
1
  9
$DIMGAP
 40
0.09
  9
$LUNITS
 70
2
  9
$LUPREC
 70
4
  9
$AXISMODE
 70
0
  9
$AXISUNIT
 10
0
 20
0
  9
$SKETCHINC
 40
0.1
  9
$FILLETRAD
 40
2
  9
$AUNITS
 70
0
  9
$AUPREC
 70
0
  9
$MENU
  1
ACAD
  9
$ELEVATION
 40
0
  9
$THICKNESS
 40
0
  9
$VIEWDIR
 10
0
 20
0
 30
1
  9
$LIMCHECK
 70
0
  9
$BLIPMODE
 70
1
  9
$CHAMFERA
 40
0
  9
$CHAMFERB
 40
0
  9
$FASTZOOM
 70
1
  9
$SKPOLY
 70
0
  9
$ANGBASE
 50
0
  9
$ANGDIR
 70
0
  9
$PDMODE
 70
0
  9
$PDSIZE
 40
0
  9
$PLINEWID
 40
0
  9
$COORDS
 70
2
  0
ENDSEC
  0
SECTION
  2
TABLES
  0
TABLE
  2
DIMSTYLE
 70
0
  0
ENDTAB
  0
TABLE
  2
LTYPE
 70
9
  0
LTYPE
  2
CONTINUOUS
 70
64
  3
Solid line
 72
65
 73
0
 40
0
  0
LTYPE
  2
BORDER
 70
64
  3
__ __ . __ __ .
 72
65
 73
6
 40
53.42495022968632
 49
15.26427149419609
 49
-7.632135747098046
 49
15.26427149419609
 49
-7.632135747098046
 49
0
 49
-7.632135747098046
  0
LTYPE
  2
CENTER
 70
64
  3
____ _ ____ _
 72
65
 73
4
 40
61.05708597678437
 49
38.16067873549023
 49
-7.632135747098046
 49
7.632135747098046
 49
-7.632135747098046
  0
LTYPE
  2
DASHDOT
 70
64
  3
__ . __ . __ .
 72
65
 73
4
 40
30.52854298839219
 49
15.26427149419609
 49
-7.632135747098046
 49
0
 49
-7.632135747098046
  0
LTYPE
  2
DASHED
 70
64
  3
__ __ __ __ __
 72
65
 73
2
 40
22.89640724129414
 49
15.26427149419609
 49
-7.632135747098046
  0
LTYPE
  2
DIVIDE
 70
64
  3
__ . . __ . . 
 72
65
 73
6
 40
38.16067873549023
 49
15.26427149419609
 49
-7.632135747098046
 49
0
 49
-7.632135747098046
 49
0
 49
-7.632135747098046
  0
LTYPE
  2
DOT
 70
64
  3
..............
 72
65
 73
4
 40
15.26427149419609
 49
0
 49
-7.632135747098046
 49
0
 49
-7.632135747098046
  0
LTYPE
  2
HIDDEN
 70
64
  3
_ _ _ _ _ _ _
 72
65
 73
2
 40
11.44820362064707
 49
7.632135747098046
 49
-3.816067873549023
  0
LTYPE
  2
PHANTOM
 70
64
  3
_____ _ _ _____ _ _ 
 72
65
 73
6
 40
76.32135747098046
 49
38.16067873549023
 49
-7.632135747098046
 49
7.632135747098046
 49
-7.632135747098046
 49
7.632135747098046
 49
-7.632135747098046
  0
ENDTAB
  0
TABLE
  2
LAYER
 70
3
  0
LAYER
  2
1
 70
0
 62
7
  6
CONTINUOUS
  0
LAYER
  2
0
 70
0
 62
7
  6
CONTINUOUS
  0
ENDTAB
  0
TABLE
  2
STYLE
 70
4
  0
STYLE
  2
STANDARD
 70
0
 40
0
 41
1
 50
0
 71
0
 42
3.5
  3
txt
  4

  0
STYLE
  2
SIMPLEX
 70
0
 40
0
 41
1
 50
0
 71
0
 42
3.5
  3
simplex
  4

  0
STYLE
  2
COMPLEX
 70
0
 40
0
 41
1
 50
0
 71
0
 42
3.5
  3
complex
  4

  0
STYLE
  2
ITALIC
 70
0
 40
0
 41
1
 50
0
 71
0
 42
3.5
  3
italic
  4

  0
ENDTAB
  0
TABLE
  2
VIEW
 70
0
  0
ENDTAB
  0
ENDSEC
  0
SECTION
  2
BLOCKS
  0
ENDSEC
  0
SECTION
  2
ENTITIES
  0
LINE
  8
1
 62
7
 10
-453.7778936099539
 20
25
 30
0
 11
-453.7778936099539
 21
-25
 31
0
  0
LINE
  8
1
 62
7
 10
-391.7778936099539
 20
-25
 30
0
 11
-453.7778936099539
 21
-25
 31
0
  0
LINE
  8
1
 62
7
 10
-391.7778936099539
 20
220.0000000000008
 30
0
 11
-453.7778936099539
 21
220.0000000000008
 31
0
  0
LINE
  8
1
 62
7
 10
-447.777893609946
 20
-202.0000000000001
 30
0
 11
-391.7778936099539
 21
-202.0000000000001
 31
0
  0
LINE
  8
1
 62
7
 10
-381.7778936099539
 20
-210.0000000000007
 30
0
 11
-381.7778936099539
 21
-183.6568348050299
 31
0
  0
LINE
  8
1
 62
7
 10
-451.7778936099539
 20
-173.6568348050299
 30
0
 11
-391.7778936099539
 21
-173.6568348050299
 31
0
  0
LINE
  8
1
 62
7
 10
-451.7778936099539
 20
-138.3014957457025
 30
0
 11
-391.7778936099539
 21
-138.3014957457025
 31
0
  0
LINE
  8
1
 62
7
 10
-447.777893609948
 20
-124.0597637757268
 30
0
 11
-391.7778936099539
 21
-124.0597637757268
 31
0
  0
LINE
  8
1
 62
7
 10
-957.0846335589029
 20
220.5878509800573
 30
0
 11
-957.0846335589029
 21
201.9585353482242
 31
0
  0
LINE
  8
1
 62
7
 10
-907.0846335589029
 20
220.5878509800573
 30
0
 11
-907.0846335589029
 21
201.9585353482242
 31
0
  0
LINE
  8
1
 62
7
 10
-957.0846335589029
 20
201.9585353482242
 30
0
 11
-955.5846335589029
 21
200.6283878218632
 31
0
  0
LINE
  8
1
 62
7
 10
-907.0846335589029
 20
201.9585353482242
 30
0
 11
-908.5846335589029
 21
200.6283878218632
 31
0
  0
LINE
  8
1
 62
7
 10
-1070.386129304606
 20
173.6568348050298
 30
0
 11
-1057.213213892472
 21
160.4839193928962
 31
0
  0
LINE
  8
1
 62
7
 10
-1152.67248453896
 20
25
 30
0
 11
-1134.043168907127
 21
24.99999999999989
 31
0
  0
LINE
  8
1
 62
7
 10
-1105.741468363933
 20
-138.3014957457025
 30
0
 11
-1092.568552951799
 21
-125.1285803335688
 31
0
  0
LINE
  8
1
 62
7
 10
-957.0846335589029
 20
-220.5878509800573
 30
0
 11
-957.0846335589029
 21
-201.9585353482242
 31
0
  0
LINE
  8
1
 62
7
 10
-793.7831378132009
 20
-173.6568348050298
 30
0
 11
-806.956053225334
 21
-160.4839193928961
 31
0
  0
LINE
  8
1
 62
7
 10
-711.496782578846
 20
-25
 30
0
 11
-730.126098210679
 21
-24.99999999999989
 31
0
  0
LINE
  8
1
 62
7
 10
-758.4277987538728
 20
138.3014957457024
 30
0
 11
-771.600714166007
 21
125.1285803335687
 31
0
  0
LINE
  8
1
 62
7
 10
-1070.386129304606
 20
173.6568348050298
 30
0
 11
-1057.213213892472
 21
160.4839193928962
 31
0
  0
LINE
  8
1
 62
7
 10
-1057.213213892472
 20
160.4839193928962
 30
0
 11
-1057.333317728383
 21
158.4827028852479
 31
0
  0
LINE
  8
1
 62
7
 10
-1152.67248453896
 20
25
 30
0
 11
-1134.043168907127
 21
24.99999999999989
 31
0
  0
LINE
  8
1
 62
7
 10
-1134.043168907127
 20
24.99999999999989
 30
0
 11
-1132.713021380766
 21
23.49999999999989
 31
0
  0
LINE
  8
1
 62
7
 10
-1105.741468363933
 20
-138.3014957457025
 30
0
 11
-1092.568552951799
 21
-125.1285803335688
 31
0
  0
LINE
  8
1
 62
7
 10
-1092.568552951799
 20
-125.1285803335688
 30
0
 11
-1090.567336444151
 21
-125.2486841694803
 31
0
  0
LINE
  8
1
 62
7
 10
-957.0846335589029
 20
-220.5878509800573
 30
0
 11
-957.0846335589029
 21
-201.9585353482242
 31
0
  0
LINE
  8
1
 62
7
 10
-957.0846335589029
 20
-201.9585353482242
 30
0
 11
-955.5846335589029
 21
-200.6283878218631
 31
0
  0
LINE
  8
1
 62
7
 10
-793.7831378132009
 20
-173.6568348050298
 30
0
 11
-806.956053225334
 21
-160.4839193928961
 31
0
  0
LINE
  8
1
 62
7
 10
-806.956053225334
 20
-160.4839193928961
 30
0
 11
-806.8359493894229
 21
-158.4827028852479
 31
0
  0
LINE
  8
1
 62
7
 10
-711.496782578846
 20
-25
 30
0
 11
-730.126098210679
 21
-24.99999999999989
 31
0
  0
LINE
  8
1
 62
7
 10
-730.126098210679
 20
-24.99999999999989
 30
0
 11
-731.45624573704
 21
-23.49999999999989
 31
0
  0
LINE
  8
1
 62
7
 10
-758.4277987538728
 20
138.3014957457024
 30
0
 11
-771.600714166007
 21
125.1285803335687
 31
0
  0
LINE
  8
1
 62
7
 10
-771.600714166007
 20
125.1285803335687
 30
0
 11
-773.601930673655
 21
125.24868416948
 31
0
  0
LINE
  8
1
 62
7
 10
-1105.741468363933
 20
138.3014957457024
 30
0
 11
-1092.568552951799
 21
125.1285803335687
 31
0
  0
LINE
  8
1
 62
7
 10
-1152.67248453896
 20
-25
 30
0
 11
-1134.043168907127
 21
-25.00000000000011
 31
0
  0
LINE
  8
1
 62
7
 10
-1070.386129304605
 20
-173.6568348050299
 30
0
 11
-1057.213213892472
 21
-160.4839193928963
 31
0
  0
LINE
  8
1
 62
7
 10
-907.0846335589029
 20
-220.5878509800573
 30
0
 11
-907.0846335589029
 21
-201.9585353482242
 31
0
  0
LINE
  8
1
 62
7
 10
-758.4277987538728
 20
-138.3014957457025
 30
0
 11
-771.600714166007
 21
-125.1285803335687
 31
0
  0
LINE
  8
1
 62
7
 10
-711.496782578846
 20
25
 30
0
 11
-730.126098210679
 21
25.00000000000011
 31
0
  0
LINE
  8
1
 62
7
 10
-793.7831378132009
 20
173.6568348050298
 30
0
 11
-806.956053225334
 21
160.4839193928962
 31
0
  0
LINE
  8
1
 62
7
 10
-1105.741468363933
 20
138.3014957457024
 30
0
 11
-1092.568552951799
 21
125.1285803335687
 31
0
  0
LINE
  8
1
 62
7
 10
-1092.568552951799
 20
125.1285803335687
 30
0
 11
-1090.567336444151
 21
125.2486841694802
 31
0
  0
LINE
  8
1
 62
7
 10
-1152.67248453896
 20
-25
 30
0
 11
-1134.043168907127
 21
-25.00000000000011
 31
0
  0
LINE
  8
1
 62
7
 10
-1134.043168907127
 20
-25.00000000000011
 30
0
 11
-1132.713021380766
 21
-23.50000000000011
 31
0
  0
LINE
  8
1
 62
7
 10
-1070.386129304605
 20
-173.6568348050299
 30
0
 11
-1057.213213892472
 21
-160.4839193928963
 31
0
  0
LINE
  8
1
 62
7
 10
-1057.213213892472
 20
-160.4839193928963
 30
0
 11
-1057.333317728383
 21
-158.482702885248
 31
0
  0
LINE
  8
1
 62
7
 10
-907.0846335589029
 20
-220.5878509800573
 30
0
 11
-907.0846335589029
 21
-201.9585353482242
 31
0
  0
LINE
  8
1
 62
7
 10
-907.0846335589029
 20
-201.9585353482242
 30
0
 11
-908.5846335589029
 21
-200.6283878218631
 31
0
  0
LINE
  8
1
 62
7
 10
-758.4277987538728
 20
-138.3014957457025
 30
0
 11
-771.600714166007
 21
-125.1285803335687
 31
0
  0
LINE
  8
1
 62
7
 10
-771.600714166007
 20
-125.1285803335687
 30
0
 11
-773.601930673655
 21
-125.2486841694801
 31
0
  0
LINE
  8
1
 62
7
 10
-711.496782578846
 20
25
 30
0
 11
-730.126098210679
 21
25.00000000000011
 31
0
  0
LINE
  8
1
 62
7
 10
-730.126098210679
 20
25.00000000000011
 30
0
 11
-731.45624573704
 21
23.50000000000011
 31
0
  0
LINE
  8
1
 62
7
 10
-793.7831378132009
 20
173.6568348050298
 30
0
 11
-806.956053225334
 21
160.4839193928962
 31
0
  0
LINE
  8
1
 62
7
 10
-806.956053225334
 20
160.4839193928962
 30
0
 11
-806.8359493894229
 21
158.4827028852479
 31
0
  0
LINE
  8
1
 62
7
 10
-452.2778936099539
 20
-222.0000000000007
 30
0
 11
-339.7778936099539
 21
-222.0000000000007
 31
0
  0
LINE
  8
1
 62
7
 10
-339.7778936099539
 20
-222.0000000000007
 30
0
 11
-331.7778936099539
 21
-214.0000000000007
 31
0
  0
LINE
  8
1
 62
7
 10
-453.7778936099539
 20
-172.233484690401
 30
0
 11
-453.7778936099539
 21
-128.3343162797212
 31
0
  0
LINE
  8
1
 62
7
 10
-453.7778936099539
 20
-128.3343162797212
 30
0
 11
-447.777893609948
 21
-124.0597637757268
 31
0
  0
LINE
  8
1
 62
7
 10
-451.7778936099539
 20
-138.3014957457025
 30
0
 11
-453.7778936099539
 21
-136.8781456310736
 31
0
  0
LINE
  8
1
 62
7
 10
-451.7778936099539
 20
-173.6568348050299
 30
0
 11
-451.7778936099539
 21
-138.3014957457025
 31
0
  0
LINE
  8
1
 62
7
 10
-453.7778936099539
 20
-208.0000000000003
 30
0
 11
-447.777893609946
 21
-202.0000000000001
 31
0
  0
LINE
  8
1
 62
7
 10
-452.2778936099539
 20
-222.0000000000007
 30
0
 11
-453.7778936099539
 21
-220.0000000000007
 31
0
  0
LINE
  8
1
 62
7
 10
-453.7778936099539
 20
-220.0000000000007
 30
0
 11
-453.7778936099539
 21
-208.0000000000003
 31
0
  0
LINE
  8
1
 62
7
 10
-451.7778936099539
 20
-173.6568348050299
 30
0
 11
-453.7778936099539
 21
-172.233484690401
 31
0
  0
LINE
  8
1
 62
7
 10
-381.7778936099539
 20
-128.3014957457025
 30
0
 11
-381.7778936099539
 21
-35
 31
0
  0
LINE
  8
1
 62
7
 10
-453.7778936099539
 20
-220.0000000000007
 30
0
 11
-391.7778936099539
 21
-220.0000000000007
 31
0
  0
LINE
  8
1
 62
3
  6
DASHDOT
 10
-932.0846335589029
 20
-161.777703895783
 30
0
 11
-932.0846335589029
 21
-195.573659793786
 31
0
  0
LINE
  8
1
 62
3
  6
DASHDOT
 10
-817.6905220894049
 20
114.3941114694973
 30
0
 11
-793.7931724972459
 21
138.2914610616566
 31
0
  0
LINE
  8
1
 62
7
 10
-116
 20
25.00000000000011
 30
0
 11
-116
 21
-25.00000000000011
 31
0
  0
LINE
  8
1
 62
7
 10
-122
 20
25.00000000000011
 30
0
 11
-60
 21
25.00000000000011
 31
0
  0
LINE
  8
1
 62
7
 10
-50
 20
34.65442414039683
 30
0
 11
-50
 21
114.0597637757268
 31
0
  0
LINE
  8
1
 62
7
 10
-115.999999999998
 20
124.0597637757268
 30
0
 11
-60
 21
124.0597637757268
 31
0
  0
LINE
  8
1
 62
7
 10
-115.999999999998
 20
159.4151028350542
 30
0
 11
-60
 21
159.4151028350542
 31
0
  0
LINE
  8
1
 62
7
 10
-50
 20
191.9999999999999
 30
0
 11
-50
 21
169.4151028350542
 31
0
  0
LINE
  8
1
 62
7
 10
0
 20
213.9999999999999
 30
0
 11
0
 21
-213.9999999999999
 31
0
  0
LINE
  8
1
 62
7
 10
-122
 20
207.9999999999999
 30
0
 11
-121.9999999999989
 21
219.9999999999999
 31
0
  0
LINE
  8
1
 62
3
  6
DASHDOT
 10
-30.60807383368888
 20
179.9999999999999
 30
0
 11
0.6668449097210214
 21
179.9999999999999
 31
0
  0
LINE
  8
1
 62
7
 10
-122
 20
128.3343162797211
 30
0
 11
-115.999999999998
 21
124.0597637757268
 31
0
  0
LINE
  8
1
 62
7
 10
-122
 20
163.6896553390485
 30
0
 11
-115.999999999998
 21
159.4151028350542
 31
0
  0
LINE
  8
1
 62
7
 10
-115.999999999998
 20
124.0597637757268
 30
0
 11
-115.999999999998
 21
159.4151028350542
 31
0
  0
LINE
  8
1
 62
7
 10
-27
 20
154.9999999999999
 30
0
 11
0
 21
154.9999999999999
 31
0
  0
LINE
  8
1
 62
7
 10
-8
 20
221.9999999999999
 30
0
 11
-120
 21
221.9999999999999
 31
0
  0
LINE
  8
1
 62
7
 10
-27
 20
154.9999999999999
 30
0
 11
-27
 21
-154.9999999999999
 31
0
  0
LINE
  8
1
 62
3
 10
-30
 20
189.9999999999999
 30
0
 11
0
 21
189.9999999999999
 31
0
  0
LINE
  8
1
 62
7
 10
-30
 20
188.4999999999999
 30
0
 11
0
 21
188.4999999999999
 31
0
  0
LINE
  8
1
 62
7
 10
0
 20
171.4999999999999
 30
0
 11
-29.02606583442389
 21
171.4999999999999
 31
0
  0
LINE
  8
1
 62
3
 10
0
 20
169.9999999999999
 30
0
 11
-28.84052355198992
 21
169.9999999999999
 31
0
  0
LINE
  8
1
 62
7
 10
-122
 20
172.6493144842664
 30
0
 11
-120
 21
173.6568348050298
 31
0
  0
LINE
  8
1
 62
7
 10
-60
 20
173.6568348050298
 30
0
 11
-120
 21
173.6568348050298
 31
0
  0
LINE
  8
1
 62
7
 10
-122
 20
128.3343162797211
 30
0
 11
-122
 21
172.6493144842664
 31
0
  0
LINE
  8
1
 62
7
 10
0
 20
213.9999999999999
 30
0
 11
-8
 21
221.9999999999999
 31
0
  0
LINE
  8
1
 62
7
 10
-121.9999999999989
 20
219.9999999999999
 30
0
 11
-120
 21
221.9999999999999
 31
0
  0
LINE
  8
1
 62
7
 10
-122
 20
207.9999999999999
 30
0
 11
-116
 21
201.9999999999999
 31
0
  0
LINE
  8
1
 62
7
 10
-38
 20
201.9999999999999
 30
0
 11
-116
 21
201.9999999999999
 31
0
  0
LINE
  8
1
 62
7
 10
-27
 20
154.9999999999999
 30
0
 11
-30
 21
179.4330392839237
 31
0
  0
LINE
  8
1
 62
7
 10
-30
 20
193.9999999999999
 30
0
 11
-30
 21
-193.9999999999999
 31
0
  0
LINE
  8
1
 62
7
 10
-122
 20
25.00000000000011
 30
0
 11
-122
 21
-25.00000000000011
 31
0
  0
LINE
  8
1
 62
7
 10
-391.7778936099539
 20
25
 30
0
 11
-453.7778936099539
 21
25
 31
0
  0
LINE
  8
1
 62
7
 10
-391.7778936099539
 20
202.0000000000001
 30
0
 11
-447.777893609946
 21
202.0000000000001
 31
0
  0
LINE
  8
1
 62
7
 10
-381.7778936099539
 20
183.6568348050298
 30
0
 11
-381.7778936099539
 21
210.0000000000008
 31
0
  0
LINE
  8
1
 62
7
 10
-391.7778936099539
 20
173.6568348050299
 30
0
 11
-451.7778936099539
 21
173.6568348050299
 31
0
  0
LINE
  8
1
 62
7
 10
-391.7778936099539
 20
138.3014957457025
 30
0
 11
-451.7778936099539
 21
138.3014957457025
 31
0
  0
LINE
  8
1
 62
7
 10
-391.7778936099539
 20
124.0597637757268
 30
0
 11
-447.777893609948
 21
124.0597637757268
 31
0
  0
LINE
  8
1
 62
7
 10
-339.7778936099539
 20
222.0000000000008
 30
0
 11
-452.2778936099539
 21
222.0000000000008
 31
0
  0
LINE
  8
1
 62
7
 10
-331.7778936099539
 20
213.9999999999999
 30
0
 11
-339.7778936099539
 21
222.0000000000008
 31
0
  0
LINE
  8
1
 62
7
 10
-453.7778936099539
 20
128.3343162797213
 30
0
 11
-453.7778936099539
 21
172.233484690401
 31
0
  0
LINE
  8
1
 62
7
 10
-447.777893609948
 20
124.0597637757268
 30
0
 11
-453.7778936099539
 21
128.3343162797213
 31
0
  0
LINE
  8
1
 62
7
 10
-453.7778936099539
 20
136.8781456310736
 30
0
 11
-451.7778936099539
 21
138.3014957457025
 31
0
  0
LINE
  8
1
 62
7
 10
-451.7778936099539
 20
138.3014957457025
 30
0
 11
-451.7778936099539
 21
173.6568348050299
 31
0
  0
LINE
  8
1
 62
7
 10
-447.777893609946
 20
202.0000000000001
 30
0
 11
-453.7778936099539
 21
208.0000000000003
 31
0
  0
LINE
  8
1
 62
7
 10
-453.7778936099539
 20
220.0000000000008
 30
0
 11
-452.2778936099539
 21
222.0000000000008
 31
0
  0
LINE
  8
1
 62
7
 10
-453.7778936099539
 20
208.0000000000003
 30
0
 11
-453.7778936099539
 21
220.0000000000008
 31
0
  0
LINE
  8
1
 62
7
 10
-453.7778936099539
 20
172.233484690401
 30
0
 11
-451.7778936099539
 21
173.6568348050299
 31
0
  0
LINE
  8
1
 62
7
 10
-381.7778936099539
 20
35
 30
0
 11
-381.7778936099539
 21
128.3014957457025
 31
0
  0
LINE
  8
1
 62
7
 10
-451.7778936099539
 20
25
 30
0
 11
-451.7778936099539
 21
-25
 31
0
  0
LINE
  8
1
 62
7
 10
-339.7778936099539
 20
222.0000000000008
 30
0
 11
-339.7778936099539
 21
-222.0000000000007
 31
0
  0
LINE
  8
1
 62
7
 10
-331.7778936099539
 20
213.9999999999999
 30
0
 11
-331.7778936099539
 21
-214.0000000000007
 31
0
  0
LINE
  8
1
 62
7
 10
-60
 20
-25.00000000000011
 30
0
 11
-122
 21
-25.00000000000011
 31
0
  0
LINE
  8
1
 62
7
 10
-50
 20
-114.0597637757268
 30
0
 11
-50
 21
-34.65442414039683
 31
0
  0
LINE
  8
1
 62
7
 10
-60
 20
-124.0597637757268
 30
0
 11
-115.999999999998
 21
-124.0597637757268
 31
0
  0
LINE
  8
1
 62
7
 10
-60
 20
-159.4151028350542
 30
0
 11
-115.999999999998
 21
-159.4151028350542
 31
0
  0
LINE
  8
1
 62
7
 10
-50
 20
-169.4151028350542
 30
0
 11
-50
 21
-191.9999999999999
 31
0
  0
LINE
  8
1
 62
7
 10
-121.9999999999989
 20
-219.9999999999999
 30
0
 11
-122
 21
-207.9999999999999
 31
0
  0
LINE
  8
1
 62
7
 10
-115.999999999998
 20
-124.0597637757268
 30
0
 11
-122
 21
-128.3343162797211
 31
0
  0
LINE
  8
1
 62
7
 10
-115.999999999998
 20
-159.4151028350542
 30
0
 11
-122
 21
-163.6896553390485
 31
0
  0
LINE
  8
1
 62
7
 10
-115.999999999998
 20
-159.4151028350542
 30
0
 11
-115.999999999998
 21
-124.0597637757268
 31
0
  0
LINE
  8
1
 62
7
 10
-27
 20
-154.9999999999999
 30
0
 11
0
 21
-154.9999999999999
 31
0
  0
LINE
  8
1
 62
7
 10
-120
 20
-221.9999999999999
 30
0
 11
-8
 21
-221.9999999999999
 31
0
  0
LINE
  8
1
 62
7
 10
-120
 20
-173.6568348050298
 30
0
 11
-122
 21
-172.6493144842664
 31
0
  0
LINE
  8
1
 62
7
 10
-120
 20
-173.6568348050298
 30
0
 11
-60
 21
-173.6568348050298
 31
0
  0
LINE
  8
1
 62
7
 10
-122
 20
-172.6493144842664
 30
0
 11
-122
 21
-128.3343162797211
 31
0
  0
LINE
  8
1
 62
7
 10
-8
 20
-221.9999999999999
 30
0
 11
0
 21
-213.9999999999999
 31
0
  0
LINE
  8
1
 62
7
 10
-120
 20
-221.9999999999999
 30
0
 11
-121.9999999999989
 21
-219.9999999999999
 31
0
  0
LINE
  8
1
 62
7
 10
-116
 20
-201.9999999999999
 30
0
 11
-122
 21
-207.9999999999999
 31
0
  0
LINE
  8
1
 62
7
 10
-116
 20
-201.9999999999999
 30
0
 11
-38
 21
-201.9999999999999
 31
0
  0
LINE
  8
1
 62
7
 10
-30
 20
-179.4330392839237
 30
0
 11
-27
 21
-154.9999999999999
 31
0
  0
LINE
  8
1
 62
3
 10
-128
 20
0
 30
0
 11
-122
 21
0
 31
0
  0
LINE
  8
1
 62
3
 10
0
 20
0
 30
0
 11
6
 21
0
 31
0
  0
LINE
  8
1
 62
3
 10
-331.7778936099539
 20
0
 30
0
 11
-325.7778936099539
 21
0
 31
0
  0
LINE
  8
1
 62
3
 10
-457.7778936099539
 20
0
 30
0
 11
-451.7778936099539
 21
0
 31
0
  0
LINE
  8
1
 62
3
  6
DASHDOT
 10
-917.199333744548
 20
-1.13686837721616e-013
 30
0
 11
-946.9699333732577
 21
-1.13686837721616e-013
 31
0
  0
LINE
  8
1
 62
3
  6
DASHDOT
 10
-932.0846335589029
 20
14.88529981435477
 30
0
 11
-932.0846335589029
 21
-14.88529981435499
 31
0
  0
LINE
  8
1
 62
3
  6
DASHDOT
 10
-932.0846335589025
 20
161.7777038957831
 30
0
 11
-932.0846335589027
 21
195.5736597937857
 31
0
  0
LINE
  8
1
 62
3
  6
DASHDOT
 10
-1046.4787450284
 20
114.3941114694978
 30
0
 11
-1070.37609462056
 21
138.2914610616568
 31
0
  0
LINE
  8
1
 62
3
  6
DASHDOT
 10
-1093.862337454686
 20
2.273736754432321e-013
 30
0
 11
-1127.658293352689
 21
0
 31
0
  0
LINE
  8
1
 62
3
  6
DASHDOT
 10
-1046.478745028401
 20
-114.3941114694976
 30
0
 11
-1070.37609462056
 21
-138.2914610616569
 31
0
  0
LINE
  8
1
 62
3
  6
DASHDOT
 10
-932.0846335589029
 20
-161.777703895783
 30
0
 11
-932.0846335589029
 21
-195.573659793786
 31
0
  0
LINE
  8
1
 62
3
  6
DASHDOT
 10
-817.6905220894049
 20
-114.3941114694983
 30
0
 11
-793.7931724972459
 21
-138.2914610616574
 31
0
  0
LINE
  8
1
 62
3
  6
DASHDOT
 10
-770.3069296631199
 20
-6.821210263296962e-013
 30
0
 11
-736.5109737651169
 21
-4.547473508864641e-013
 31
0
  0
ARC
  8
1
 62
7
 10
-391.7778936099539
 20
-35
 30
0
 40
10
 50
0
 51
90
  0
ARC
  8
1
 62
7
 10
-60
 20
35.00000000000011
 30
0
 40
9.999999999999996
 50
270
 51
0
  0
ARC
  8
1
 62
7
 10
-391.7778936099539
 20
35
 30
0
 40
10
 50
270
 51
0
  0
ARC
  8
1
 62
7
 10
-60
 20
-35.00000000000011
 30
0
 40
10
 50
0
 51
90
  0
ARC
  8
1
 62
7
 10
-391.7778936099539
 20
-210.0000000000007
 30
0
 40
10
 50
270
 51
0
  0
ARC
  8
1
 62
7
 10
-391.7778936099539
 20
-192.0000000000001
 30
0
 40
10
 50
270
 51
0
  0
ARC
  8
1
 62
7
 10
-391.7778936099539
 20
-183.6568348050299
 30
0
 40
10
 50
0
 51
90
  0
ARC
  8
1
 62
7
 10
-391.7778936099539
 20
-128.3014957457025
 30
0
 40
10
 50
270
 51
0
  0
ARC
  8
1
 62
7
 10
-391.7778936099539
 20
-114.0597637757268
 30
0
 40
10
 50
270
 51
0
  0
ARC
  8
1
 62
7
 10
-932.0846335589029
 20
-1.13686837721616e-013
 30
0
 40
220.0000000000001
 50
83.47502115585621
 51
96.5249788441438
  0
ARC
  8
1
 62
7
 10
-932.0846335589029
 20
-1.13686837721616e-013
 30
0
 40
208
 50
83.09679867168921
 51
96.90320132831079
  0
ARC
  8
1
 62
7
 10
-932.0846335589029
 20
-1.13686837721616e-013
 30
0
 40
220.0000000000005
 50
128.4750211558563
 51
141.5249788441438
  0
ARC
  8
1
 62
7
 10
-932.0846335589029
 20
-1.13686837721616e-013
 30
0
 40
220.0000000000003
 50
173.4750211558562
 51
186.5249788441438
  0
ARC
  8
1
 62
7
 10
-932.0846335589029
 20
-1.13686837721616e-013
 30
0
 40
220.0000000000001
 50
218.4750211558562
 51
231.5249788441439
  0
ARC
  8
1
 62
7
 10
-932.0846335589029
 20
-1.13686837721616e-013
 30
0
 40
219.9999999999996
 50
263.4750211558562
 51
276.5249788441438
  0
ARC
  8
1
 62
7
 10
-932.0846335589029
 20
-1.13686837721616e-013
 30
0
 40
220
 50
308.4750211558563
 51
321.5249788441438
  0
ARC
  8
1
 62
7
 10
-932.0846335589029
 20
-1.13686837721616e-013
 30
0
 40
220.0000000000001
 50
353.4750211558562
 51
6.524978844143828
  0
ARC
  8
1
 62
7
 10
-932.0846335589029
 20
-1.13686837721616e-013
 30
0
 40
219.9999999999999
 50
38.47502115585621
 51
51.52497884414393
  0
ARC
  8
1
 62
7
 10
-932.0846335589029
 20
-1.13686837721616e-013
 30
0
 40
208.0000000000001
 50
128.0967986716892
 51
141.903201328311
  0
ARC
  8
1
 62
7
 10
-932.0846335589029
 20
-1.13686837721616e-013
 30
0
 40
208.0000000000002
 50
173.0967986716892
 51
186.9032013283108
  0
ARC
  8
1
 62
7
 10
-932.0846335589029
 20
-1.13686837721616e-013
 30
0
 40
207.9999999999997
 50
218.0967986716893
 51
231.9032013283107
  0
ARC
  8
1
 62
7
 10
-932.0846335589029
 20
-1.13686837721616e-013
 30
0
 40
207.9999999999997
 50
263.0967986716892
 51
276.9032013283108
  0
ARC
  8
1
 62
7
 10
-932.0846335589029
 20
-1.13686837721616e-013
 30
0
 40
207.9999999999997
 50
308.0967986716892
 51
321.9032013283107
  0
ARC
  8
1
 62
7
 10
-932.0846335589029
 20
-1.13686837721616e-013
 30
0
 40
207.9999999999998
 50
353.0967986716893
 51
6.903201328310848
  0
ARC
  8
1
 62
7
 10
-932.0846335589029
 20
-1.13686837721616e-013
 30
0
 40
207.9999999999996
 50
38.09679867168933
 51
51.90320132831084
  0
ARC
  8
1
 62
7
 10
-932.0846335589029
 20
-1.13686837721616e-013
 30
0
 40
176.2876509427252
 50
47.9869280154068
 51
87.01307198459318
  0
ARC
  8
1
 62
7
 10
-932.0846335589029
 20
-1.13686837721616e-013
 30
0
 40
176.2876509427252
 50
137.9869280154069
 51
177.0130719845932
  0
ARC
  8
1
 62
7
 10
-932.0846335589029
 20
-1.13686837721616e-013
 30
0
 40
176.2876509427253
 50
182.9869280154068
 51
222.0130719845928
  0
ARC
  8
1
 62
7
 10
-932.0846335589029
 20
-1.13686837721616e-013
 30
0
 40
176.2876509427253
 50
227.9869280154067
 51
267.0130719845931
  0
ARC
  8
1
 62
7
 10
-932.0846335589029
 20
-1.13686837721616e-013
 30
0
 40
176.2876509427252
 50
272.9869280154068
 51
312.0130719845928
  0
ARC
  8
1
 62
7
 10
-932.0846335589029
 20
-1.13686837721616e-013
 30
0
 40
176.2876509427251
 50
317.9869280154069
 51
357.0130719845931
  0
ARC
  8
1
 62
7
 10
-932.0846335589029
 20
-1.13686837721616e-013
 30
0
 40
176.2876509427251
 50
2.986928015406746
 51
42.01307198459308
  0
ARC
  8
1
 62
7
 10
-932.0846335589029
 20
-1.13686837721616e-013
 30
0
 40
176.2876509427253
 50
92.98692801540688
 51
132.0130719845928
  0
ARC
  8
1
 62
7
 10
-60
 20
114.0597637757268
 30
0
 40
10
 50
0
 51
90
  0
ARC
  8
1
 62
7
 10
-60
 20
169.4151028350542
 30
0
 40
10
 50
270
 51
0
  0
ARC
  8
1
 62
7
 10
-60
 20
183.6568348050298
 30
0
 40
10
 50
270
 51
0
  0
ARC
  8
1
 62
7
 10
-60
 20
191.9999999999999
 30
0
 40
10
 50
0
 51
90
  0
ARC
  8
1
 62
7
 10
-38
 20
193.9999999999999
 30
0
 40
8
 50
0
 51
90
  0
ARC
  8
1
 62
7
 10
-391.7778936099539
 20
210.0000000000008
 30
0
 40
10
 50
0
 51
90
  0
ARC
  8
1
 62
7
 10
-391.7778936099539
 20
192.0000000000001
 30
0
 40
10
 50
0
 51
90
  0
ARC
  8
1
 62
7
 10
-391.7778936099539
 20
183.6568348050299
 30
0
 40
10
 50
270
 51
0
  0
ARC
  8
1
 62
7
 10
-391.7778936099539
 20
128.3014957457025
 30
0
 40
10
 50
0
 51
90
  0
ARC
  8
1
 62
7
 10
-391.7778936099539
 20
114.0597637757268
 30
0
 40
10
 50
0
 51
90
  0
ARC
  8
1
 62
7
 10
-60
 20
-114.0597637757268
 30
0
 40
10
 50
270
 51
0
  0
ARC
  8
1
 62
7
 10
-60
 20
-169.4151028350542
 30
0
 40
10
 50
0
 51
90
  0
ARC
  8
1
 62
7
 10
-60
 20
-183.6568348050298
 30
0
 40
10
 50
0
 51
90
  0
ARC
  8
1
 62
7
 10
-60
 20
-191.9999999999999
 30
0
 40
10
 50
270
 51
0
  0
ARC
  8
1
 62
7
 10
-38
 20
-193.9999999999999
 30
0
 40
8
 50
270
 51
0
  0
ARC
  8
1
 62
3
  6
DASHDOT
 10
-932.0846335589029
 20
-1.13686837721616e-013
 30
0
 40
179.9999999999998
 50
40.0232618303582
 51
49.79149415908145
  0
ARC
  8
1
 62
3
  6
DASHDOT
 10
-932.0846335589029
 20
-1.13686837721616e-013
 30
0
 40
180.0000000000002
 50
85.02326183035811
 51
94.79149415908147
  0
ARC
  8
1
 62
3
  6
DASHDOT
 10
-932.0846335589029
 20
-1.13686837721616e-013
 30
0
 40
180.0000000000005
 50
130.0232618303583
 51
139.7914941590816
  0
ARC
  8
1
 62
3
  6
DASHDOT
 10
-932.0846335589029
 20
-1.13686837721616e-013
 30
0
 40
180.0000000000005
 50
175.0232618303581
 51
184.7914941590815
  0
ARC
  8
1
 62
3
  6
DASHDOT
 10
-932.0846335589029
 20
-1.13686837721616e-013
 30
0
 40
180
 50
220.0232618303582
 51
229.7914941590814
  0
ARC
  8
1
 62
3
  6
DASHDOT
 10
-932.0846335589029
 20
-1.13686837721616e-013
 30
0
 40
180.0000000000005
 50
265.0232618303581
 51
274.7914941590814
  0
ARC
  8
1
 62
3
  6
DASHDOT
 10
-932.0846335589029
 20
-1.13686837721616e-013
 30
0
 40
180.0000000000006
 50
310.023261830358
 51
319.7914941590814
  0
ARC
  8
1
 62
3
  6
DASHDOT
 10
-932.0846335589029
 20
-1.13686837721616e-013
 30
0
 40
180.0000000000003
 50
355.023261830358
 51
4.791494159081382
  0
CIRCLE
  8
1
 62
7
 10
-932.0846335589029
 20
-1.13686837721616e-013
 30
0
 40
222.0000000000002
  0
CIRCLE
  8
1
 62
7
 10
-932.0846335589029
 20
-1.13686837721616e-013
 30
0
 40
155.0000000000002
  0
CIRCLE
  8
1
 62
7
 10
-932.0846335589029
 20
-1.13686837721616e-013
 30
0
 40
202.0000000000002
  0
CIRCLE
  8
1
 62
3
 10
-932.0846335589029
 20
179.9999999999999
 30
0
 40
10
  0
CIRCLE
  8
1
 62
3
 10
-1059.363854172481
 20
127.2792206135786
 30
0
 40
10
  0
CIRCLE
  8
1
 62
3
 10
-1112.084633558903
 20
-1.13686837721616e-013
 30
0
 40
10
  0
CIRCLE
  8
1
 62
3
 10
-1059.363854172482
 20
-127.2792206135784
 30
0
 40
10
  0
CIRCLE
  8
1
 62
3
 10
-932.0846335589029
 20
-180.0000000000001
 30
0
 40
10
  0
CIRCLE
  8
1
 62
3
 10
-804.8054129453249
 20
-127.2792206135788
 30
0
 40
10.00000000000046
  0
CIRCLE
  8
1
 62
3
 10
-752.0846335589029
 20
-3.410605131648481e-013
 30
0
 40
10
  0
CIRCLE
  8
1
 62
3
 10
-804.805412945324
 20
127.2792206135783
 30
0
 40
10.00000000000034
  0
CIRCLE
  8
1
 62
7
 10
-932.0846335589029
 20
179.9999999999999
 30
0
 40
8.5
  0
CIRCLE
  8
1
 62
7
 10
-1059.363854172481
 20
127.2792206135786
 30
0
 40
8.5
  0
CIRCLE
  8
1
 62
7
 10
-1112.084633558903
 20
-1.13686837721616e-013
 30
0
 40
8.5
  0
CIRCLE
  8
1
 62
7
 10
-1059.363854172482
 20
-127.2792206135784
 30
0
 40
8.5
  0
CIRCLE
  8
1
 62
7
 10
-932.0846335589029
 20
-180.0000000000001
 30
0
 40
8.5
  0
CIRCLE
  8
1
 62
7
 10
-804.8054129453249
 20
-127.2792206135788
 30
0
 40
8.500000000000227
  0
CIRCLE
  8
1
 62
7
 10
-752.0846335589029
 20
-3.410605131648481e-013
 30
0
 40
8.5
  0
CIRCLE
  8
1
 62
7
 10
-804.805412945324
 20
127.2792206135783
 30
0
 40
8.500000000000341
  0
TEXT
  8
1
 62
7
 10
-976.227875017431
 20
263.4642455868759
 30
0
 40
15
  1
DC4412
 41
0.9
  7
SIMPLEX
  0
TEXT
  8
1
 62
7
 10
-976.227875017431
 20
285.9642455868759
 30
0
 40
15
  1
UN 600
 41
0.9
  7
SIMPLEX
  0
ENDSEC
  0
EOF
