  0
SECTION
  2
HEADER
  9
$ACADVER
  1
AC1009
  9
$INSBASE
 10
0.0
 20
0.0
 30
0.0
  9
$EXTMIN
 10
-731.5
 20
-71.91978312141147
 30
0.0
  9
$EXTMAX
 10
-276.5
 20
96.189847877222192
 30
0.0
  9
$LIMMIN
 10
-731.5
 20
-68.428505957836791
  9
$LIMMAX
 10
-276.5
 20
96.189847877222192
  9
$ORTHOMODE
 70
     0
  9
$REGENMODE
 70
     1
  9
$FILLMODE
 70
     1
  9
$QTEXTMODE
 70
     0
  9
$MIRRTEXT
 70
     1
  9
$DRAGMODE
 70
     2
  9
$LTSCALE
 40
1.0
  9
$OSMODE
 70
    37
  9
$ATTMODE
 70
     1
  9
$TEXTSIZE
 40
3.5
  9
$TRACEWID
 40
0.5
  9
$TEXTSTYLE
  7
STANDARD
  9
$CLAYER
  8
0
  9
$CELTYPE
  6
BYLAYER
  9
$CECOLOR
 62
   256
  9
$DIMSCALE
 40
1.0
  9
$DIMASZ
 40
0.18
  9
$DIMEXO
 40
0.0625
  9
$DIMDLI
 40
0.38
  9
$DIMRND
 40
0.0
  9
$DIMDLE
 40
0.0
  9
$DIMEXE
 40
0.18
  9
$DIMTP
 40
0.0
  9
$DIMTM
 40
0.0
  9
$DIMTXT
 40
0.18
  9
$DIMCEN
 40
0.09
  9
$DIMTSZ
 40
0.0
  9
$DIMTOL
 70
     0
  9
$DIMLIM
 70
     0
  9
$DIMTIH
 70
     1
  9
$DIMTOH
 70
     1
  9
$DIMSE1
 70
     0
  9
$DIMSE2
 70
     0
  9
$DIMTAD
 70
     0
  9
$DIMZIN
 70
     0
  9
$DIMBLK
  1

  9
$DIMASO
 70
     1
  9
$DIMSHO
 70
     1
  9
$DIMPOST
  1

  9
$DIMAPOST
  1

  9
$DIMALT
 70
     0
  9
$DIMALTD
 70
     2
  9
$DIMALTF
 40
25.399999999999999
  9
$DIMLFAC
 40
1.0
  9
$DIMTOFL
 70
     0
  9
$DIMTVP
 40
0.0
  9
$DIMTIX
 70
     0
  9
$DIMSOXD
 70
     0
  9
$DIMSAH
 70
     0
  9
$DIMBLK1
  1

  9
$DIMBLK2
  1

  9
$DIMSTYLE
  2
STANDARD
  9
$DIMCLRD
 70
     0
  9
$DIMCLRE
 70
     0
  9
$DIMCLRT
 70
     0
  9
$DIMTFAC
 40
1.0
  9
$DIMGAP
 40
0.09
  9
$LUNITS
 70
     2
  9
$LUPREC
 70
     4
  9
$SKETCHINC
 40
0.1
  9
$FILLETRAD
 40
2.0
  9
$AUNITS
 70
     0
  9
$AUPREC
 70
     0
  9
$MENU
  1
ACAD
  9
$ELEVATION
 40
0.0
  9
$PELEVATION
 40
0.0
  9
$THICKNESS
 40
0.0
  9
$LIMCHECK
 70
     0
  9
$BLIPMODE
 70
     0
  9
$CHAMFERA
 40
0.0
  9
$CHAMFERB
 40
0.0
  9
$SKPOLY
 70
     0
  9
$TDCREATE
 40
2452095.0280748839
  9
$TDUPDATE
 40
2452095.0285668978
  9
$TDINDWG
 40
0.0005054398
  9
$TDUSRTIMER
 40
0.0005054398
  9
$USRTIMER
 70
     1
  9
$ANGBASE
 50
0.0
  9
$ANGDIR
 70
     0
  9
$PDMODE
 70
     0
  9
$PDSIZE
 40
0.0
  9
$PLINEWID
 40
0.0
  9
$COORDS
 70
     1
  9
$SPLFRAME
 70
     0
  9
$SPLINETYPE
 70
     6
  9
$SPLINESEGS
 70
     8
  9
$ATTDIA
 70
     0
  9
$ATTREQ
 70
     1
  9
$HANDLING
 70
 10241
  9
$HANDSEED
  5
18B
  9
$SURFTAB1
 70
     6
  9
$SURFTAB2
 70
     6
  9
$SURFTYPE
 70
     6
  9
$SURFU
 70
     6
  9
$SURFV
 70
     6
  9
$UCSNAME
  2

  9
$UCSORG
 10
0.0
 20
0.0
 30
0.0
  9
$UCSXDIR
 10
1.0
 20
0.0
 30
0.0
  9
$UCSYDIR
 10
0.0
 20
1.0
 30
0.0
  9
$PUCSNAME
  2

  9
$PUCSORG
 10
0.0
 20
0.0
 30
0.0
  9
$PUCSXDIR
 10
1.0
 20
0.0
 30
0.0
  9
$PUCSYDIR
 10
0.0
 20
1.0
 30
0.0
  9
$USERI1
 70
     0
  9
$USERI2
 70
     0
  9
$USERI3
 70
     0
  9
$USERI4
 70
     0
  9
$USERI5
 70
     0
  9
$USERR1
 40
0.0
  9
$USERR2
 40
0.0
  9
$USERR3
 40
0.0
  9
$USERR4
 40
0.0
  9
$USERR5
 40
0.0
  9
$WORLDVIEW
 70
     1
  9
$SHADEDGE
 70
     3
  9
$SHADEDIF
 70
    70
  9
$TILEMODE
 70
     1
  9
$MAXACTVP
 70
    64
  9
$PLIMCHECK
 70
     0
  9
$PEXTMIN
 10
1.0000000000000000E+020
 20
1.0000000000000000E+020
 30
1.0000000000000000E+020
  9
$PEXTMAX
 10
-1.0000000000000000E+020
 20
-1.0000000000000000E+020
 30
-1.0000000000000000E+020
  9
$PLIMMIN
 10
0.0
 20
0.0
  9
$PLIMMAX
 10
12.0
 20
9.0
  9
$UNITMODE
 70
     0
  9
$VISRETAIN
 70
     1
  9
$PLINEGEN
 70
     0
  9
$PSLTSCALE
 70
     1
  0
ENDSEC
  0
SECTION
  2
TABLES
  0
TABLE
  2
VPORT
 70
     2
  0
VPORT
  2
*ACTIVE
 70
     0
 10
0.0
 20
0.0
 11
1.0
 21
1.0
 12
-707.32264082536028
 22
83.725091879489383
 13
0.0
 23
0.0
 14
1.0
 24
1.0
 15
0.0
 25
0.0
 16
0.0
 26
0.0
 36
1.0
 17
0.0
 27
0.0
 37
0.0
 40
8.9999999297129385
 41
2.4144144144144142
 42
50.0
 43
0.0
 44
0.0
 50
0.0
 51
0.0
 71
     0
 72
   100
 73
     1
 74
     1
 75
     0
 76
     0
 77
     0
 78
     0
  0
ENDTAB
  0
TABLE
  2
LTYPE
 70
     9
  0
LTYPE
  2
CONTINUOUS
 70
     0
  3
Solid line
 72
    65
 73
     0
 40
0.0
  0
LTYPE
  2
BORDER
 70
     0
  3
__ __ . __ __ .
 72
    65
 73
     6
 40
20.953947368421051
 49
5.9868421052631557
 49
-2.9934210526315779
 49
5.9868421052631557
 49
-2.9934210526315779
 49
0.0
 49
-2.9934210526315779
  0
LTYPE
  2
CENTER
 70
     0
  3
____ _ ____ _
 72
    65
 73
     4
 40
23.947368421052619
 49
14.96710526315789
 49
-2.9934210526315779
 49
2.9934210526315779
 49
-2.9934210526315779
  0
LTYPE
  2
DASHDOT
 70
     0
  3
__ . __ . __ .
 72
    65
 73
     4
 40
11.97368421052632
 49
5.9868421052631557
 49
-2.9934210526315779
 49
0.0
 49
-2.9934210526315779
  0
LTYPE
  2
DASHED
 70
     0
  3
__ __ __ __ __
 72
    65
 73
     2
 40
8.9802631578947363
 49
5.9868421052631557
 49
-2.9934210526315779
  0
LTYPE
  2
DIVIDE
 70
     0
  3
__ . . __ . . 
 72
    65
 73
     6
 40
14.96710526315789
 49
5.9868421052631557
 49
-2.9934210526315779
 49
0.0
 49
-2.9934210526315779
 49
0.0
 49
-2.9934210526315779
  0
LTYPE
  2
DOT
 70
     0
  3
..............
 72
    65
 73
     4
 40
5.9868421052631557
 49
0.0
 49
-2.9934210526315779
 49
0.0
 49
-2.9934210526315779
  0
LTYPE
  2
HIDDEN
 70
     0
  3
_ _ _ _ _ _ _
 72
    65
 73
     2
 40
4.4901315789473681
 49
2.9934210526315779
 49
-1.496710526315788
  0
LTYPE
  2
PHANTOM
 70
     0
  3
_____ _ _ _____ _ _ 
 72
    65
 73
     6
 40
29.93421052631578
 49
14.96710526315789
 49
-2.9934210526315779
 49
2.9934210526315779
 49
-2.9934210526315779
 49
2.9934210526315779
 49
-2.9934210526315779
  0
ENDTAB
  0
TABLE
  2
LAYER
 70
     2
  0
LAYER
  2
0
 70
     0
 62
     7
  6
CONTINUOUS
  0
LAYER
  2
1
 70
     0
 62
     7
  6
CONTINUOUS
  0
ENDTAB
  0
TABLE
  2
STYLE
 70
     4
  0
STYLE
  2
STANDARD
 70
     0
 40
0.0
 41
1.0
 50
0.0
 71
     0
 42
3.5
  3
txt
  4

  0
STYLE
  2
SIMPLEX
 70
     0
 40
0.0
 41
1.0
 50
0.0
 71
     0
 42
3.5
  3
simplex
  4

  0
STYLE
  2
COMPLEX
 70
     0
 40
0.0
 41
1.0
 50
0.0
 71
     0
 42
3.5
  3
complex
  4

  0
STYLE
  2
ITALIC
 70
     0
 40
0.0
 41
1.0
 50
0.0
 71
     0
 42
3.5
  3
italic
  4

  0
ENDTAB
  0
TABLE
  2
VIEW
 70
     0
  0
ENDTAB
  0
TABLE
  2
UCS
 70
     0
  0
ENDTAB
  0
TABLE
  2
APPID
 70
     1
  0
APPID
  2
ACAD
 70
     0
  0
ENDTAB
  0
TABLE
  2
DIMSTYLE
 70
     1
  0
DIMSTYLE
  2
STANDARD
 70
     0
  3

  4

  5

  6

  7

 40
1.0
 41
0.18
 42
0.0625
 43
0.38
 44
0.18
 45
0.0
 46
0.0
 47
0.0
 48
0.0
140
0.18
141
0.09
142
0.0
143
25.399999999999999
144
1.0
145
0.0
146
1.0
147
0.09
 71
     0
 72
     0
 73
     1
 74
     1
 75
     0
 76
     0
 77
     0
 78
     0
170
     0
171
     2
172
     0
173
     0
174
     0
175
     0
176
     0
177
     0
178
     0
  0
ENDTAB
  0
ENDSEC
  0
SECTION
  2
BLOCKS
  0
BLOCK
  8
0
  2
$MODEL_SPACE
 70
     0
 10
0.0
 20
0.0
 30
0.0
  3
$MODEL_SPACE
  1

  0
ENDBLK
  5
20
  8
0
  0
BLOCK
 67
     1
  8
0
  2
$PAPER_SPACE
 70
     0
 10
0.0
 20
0.0
 30
0.0
  3
$PAPER_SPACE
  1

  0
ENDBLK
  5
1C
 67
     1
  8
0
  0
ENDSEC
  0
SECTION
  2
ENTITIES
  0
LINE
  5
33
  8
1
  6
DASHDOT
 62
     3
 10
-476.0
 20
-52.928505957836791
 30
0.0
 11
-492.5003549182926
 21
-52.928505957836791
 31
0.0
  0
LINE
  5
34
  8
1
 62
     3
 10
-483.46112443375131
 20
-50.528505957836792
 30
0.0
 11
-484.50035491829249
 21
-49.928505957836791
 31
0.0
  0
LINE
  5
35
  8
1
 62
     3
 10
-483.46112443375131
 20
-55.328505957836789
 30
0.0
 11
-484.50035491829249
 21
-55.928505957836791
 31
0.0
  0
LINE
  5
36
  8
1
 62
     3
 10
-490.5003549182926
 20
-49.928505957836791
 30
0.0
 11
-484.50035491829249
 21
-49.928505957836791
 31
0.0
  0
LINE
  5
37
  8
1
 62
     3
 10
-484.50035491829249
 20
-49.928505957836791
 30
0.0
 11
-484.50035491829249
 21
-55.928505957836791
 31
0.0
  0
LINE
  5
38
  8
1
 62
     3
 10
-484.50035491829249
 20
-55.928505957836791
 30
0.0
 11
-490.5003549182926
 21
-55.928505957836791
 31
0.0
  0
LINE
  5
39
  8
1
 62
     7
 10
-479.70035491829248
 20
-50.528505957836792
 30
0.0
 11
-477.96830411072369
 21
-52.928505957836791
 31
0.0
  0
LINE
  5
3A
  8
1
 62
     7
 10
-477.96830411072369
 20
-52.928505957836791
 30
0.0
 11
-479.70035491829248
 21
-55.328505957836789
 31
0.0
  0
LINE
  5
3B
  8
1
 62
     7
 10
-490.5003549182926
 20
-50.528505957836792
 30
0.0
 11
-479.70035491829248
 21
-50.528505957836792
 31
0.0
  0
LINE
  5
3C
  8
1
 62
     7
 10
-479.70035491829248
 20
-50.528505957836792
 30
0.0
 11
-479.70035491829248
 21
-55.328505957836789
 31
0.0
  0
LINE
  5
3D
  8
1
 62
     7
 10
-479.70035491829248
 20
-55.328505957836789
 30
0.0
 11
-490.5003549182926
 21
-55.328505957836789
 31
0.0
  0
LINE
  5
3E
  8
1
  6
DASHDOT
 62
     3
 10
-492.5003549182926
 20
51.071494042163209
 30
0.0
 11
-476.0
 21
51.071494042163209
 31
0.0
  0
LINE
  5
3F
  8
1
 62
     3
 10
-484.50035491829249
 20
48.071494042163209
 30
0.0
 11
-483.46112443375131
 21
48.671494042163211
 31
0.0
  0
LINE
  5
40
  8
1
 62
     3
 10
-484.50035491829249
 20
54.071494042163209
 30
0.0
 11
-483.46112443375131
 21
53.471494042163201
 31
0.0
  0
LINE
  5
41
  8
1
 62
     3
 10
-484.50035491829249
 20
48.071494042163209
 30
0.0
 11
-490.5003549182926
 21
48.071494042163209
 31
0.0
  0
LINE
  5
42
  8
1
 62
     3
 10
-484.50035491829249
 20
54.071494042163209
 30
0.0
 11
-484.50035491829249
 21
48.071494042163209
 31
0.0
  0
LINE
  5
43
  8
1
 62
     3
 10
-490.5003549182926
 20
54.071494042163209
 30
0.0
 11
-484.50035491829249
 21
54.071494042163209
 31
0.0
  0
LINE
  5
44
  8
1
 62
     7
 10
-477.96830411072369
 20
51.071494042163209
 30
0.0
 11
-479.70035491829248
 21
48.671494042163211
 31
0.0
  0
LINE
  5
45
  8
1
 62
     7
 10
-479.70035491829248
 20
53.471494042163201
 30
0.0
 11
-477.96830411072369
 21
51.071494042163209
 31
0.0
  0
LINE
  5
46
  8
1
 62
     7
 10
-479.70035491829248
 20
48.671494042163211
 30
0.0
 11
-490.5003549182926
 21
48.671494042163211
 31
0.0
  0
LINE
  5
47
  8
1
 62
     7
 10
-479.70035491829248
 20
53.471494042163201
 30
0.0
 11
-479.70035491829248
 21
48.671494042163211
 31
0.0
  0
LINE
  5
48
  8
1
 62
     7
 10
-490.5003549182926
 20
53.471494042163201
 30
0.0
 11
-479.70035491829248
 21
53.471494042163201
 31
0.0
  0
LINE
  5
49
  8
1
 62
     7
 10
-350.0
 20
21.571494042163199
 30
0.0
 11
-338.0
 21
21.571494042163199
 31
0.0
  0
LINE
  5
4A
  8
1
 62
     7
 10
-338.0
 20
21.571494042163199
 30
0.0
 11
-338.0
 21
18.150278070502129
 31
0.0
  0
LINE
  5
4B
  8
1
 62
     7
 10
-350.0
 20
21.571494042163199
 30
0.0
 11
-350.0
 21
18.150278070502129
 31
0.0
  0
LINE
  5
4C
  8
1
 62
     7
 10
-344.0
 20
66.571494042163209
 30
0.0
 11
-344.0
 21
73.763089141564706
 31
0.0
  0
LINE
  5
4D
  8
1
 62
     7
 10
-343.0
 20
86.571494042163195
 30
0.0
 11
-343.0
 21
81.571494042163195
 31
0.0
  0
LINE
  5
4E
  8
1
 62
     7
 10
-345.0
 20
86.571494042163195
 30
0.0
 11
-345.0
 21
81.571494042163195
 31
0.0
  0
LINE
  5
4F
  8
1
 62
     7
 10
-342.80000000000001
 20
86.571494042163195
 30
0.0
 11
-342.80000000000001
 21
81.571494042163195
 31
0.0
  0
LINE
  5
50
  8
1
 62
     7
 10
-342.60000000000002
 20
86.571494042163195
 30
0.0
 11
-342.60000000000002
 21
81.571494042163195
 31
0.0
  0
LINE
  5
51
  8
1
 62
     7
 10
-343.2000000000001
 20
86.571494042163195
 30
0.0
 11
-343.2000000000001
 21
81.571494042163195
 31
0.0
  0
LINE
  5
52
  8
1
 62
     7
 10
-343.39999999999992
 20
86.571494042163195
 30
0.0
 11
-343.39999999999992
 21
81.571494042163195
 31
0.0
  0
LINE
  5
53
  8
1
 62
     7
 10
-344.80000000000001
 20
86.571494042163195
 30
0.0
 11
-344.80000000000001
 21
81.571494042163195
 31
0.0
  0
LINE
  5
54
  8
1
 62
     7
 10
-344.60000000000002
 20
86.571494042163195
 30
0.0
 11
-344.60000000000002
 21
81.571494042163195
 31
0.0
  0
LINE
  5
55
  8
1
 62
     7
 10
-345.2000000000001
 20
86.571494042163195
 30
0.0
 11
-345.2000000000001
 21
81.571494042163195
 31
0.0
  0
LINE
  5
56
  8
1
 62
     7
 10
-345.39999999999992
 20
86.571494042163195
 30
0.0
 11
-345.39999999999992
 21
81.571494042163195
 31
0.0
  0
LINE
  5
57
  8
1
 62
     7
 10
-346.0
 20
81.571494042163195
 30
0.0
 11
-342.0
 21
81.571494042163195
 31
0.0
  0
LINE
  5
58
  8
1
 62
     7
 10
-342.0
 20
81.571494042163195
 30
0.0
 11
-342.0
 21
75.380834659615005
 31
0.0
  0
LINE
  5
59
  8
1
 62
     7
 10
-346.0
 20
66.522684501049753
 30
0.0
 11
-346.0
 21
73.763089141564706
 31
0.0
  0
LINE
  5
5A
  8
1
 62
     7
 10
-344.0
 20
81.571494042163195
 30
0.0
 11
-344.0
 21
75.380834659615005
 31
0.0
  0
LINE
  5
5B
  8
1
 62
     7
 10
-342.0
 20
73.763089141564706
 30
0.0
 11
-342.0
 21
66.522684501049753
 31
0.0
  0
LINE
  5
5C
  8
1
 62
     7
 10
-346.0
 20
75.380834659615005
 30
0.0
 11
-346.0
 21
81.571494042163195
 31
0.0
  0
LINE
  5
5D
  8
1
 62
     7
 10
-664.0
 20
66.571494042163209
 30
0.0
 11
-664.0
 21
73.763089141564706
 31
0.0
  0
LINE
  5
5E
  8
1
  6
DASHDOT
 62
     3
 10
-395.09549882328179
 20
-30.428505957836791
 30
0.0
 11
-403.32274015923412
 21
-35.178505957836776
 31
0.0
  0
LINE
  5
5F
  8
1
  6
DASHDOT
 62
     3
 10
-284.67725984076588
 20
-35.178505957836776
 30
0.0
 11
-292.9045011767181
 21
-30.428505957836791
 31
0.0
  0
LINE
  5
60
  8
1
  6
DASHDOT
 62
     3
 10
-403.32274015923412
 20
33.321494042163202
 30
0.0
 11
-395.09549882328179
 21
28.571494042163199
 31
0.0
  0
LINE
  5
61
  8
1
  6
DASHDOT
 62
     3
 10
-292.9045011767181
 20
28.571494042163199
 30
0.0
 11
-284.67725984076588
 21
33.321494042163202
 31
0.0
  0
LINE
  5
62
  8
1
 62
     7
 10
-294.17245036914932
 20
34.767646464869728
 30
0.0
 11
-288.17245036914932
 21
24.37534161945646
 31
0.0
  0
LINE
  5
63
  8
1
 62
     7
 10
-288.77468334135062
 20
37.884048711392289
 30
0.0
 11
-294.17245036914932
 21
34.767646464869728
 31
0.0
  0
LINE
  5
64
  8
1
 62
     7
 10
-282.77468334135062
 20
27.491743865979029
 30
0.0
 11
-288.17245036914932
 21
24.37534161945646
 31
0.0
  0
LINE
  5
65
  8
1
 62
     7
 10
-288.17245036914932
 20
-26.232353535130191
 30
0.0
 11
-294.17245036914932
 21
-36.624658380543451
 31
0.0
  0
LINE
  5
66
  8
1
 62
     7
 10
-282.77468334135062
 20
-29.348755781652589
 30
0.0
 11
-288.17245036914932
 21
-26.232353535130191
 31
0.0
  0
LINE
  5
67
  8
1
 62
     7
 10
-288.77468334135062
 20
-39.741060627065849
 30
0.0
 11
-294.17245036914932
 21
-36.624658380543451
 31
0.0
  0
LINE
  5
68
  8
1
 62
     7
 10
-338.00000000000011
 20
-61.928505957836713
 30
0.0
 11
-350.00000000000011
 21
-61.928505957836713
 31
0.0
  0
LINE
  5
69
  8
1
 62
     7
 10
-338.0
 20
-68.161310450881672
 30
0.0
 11
-338.00000000000011
 21
-61.928505957836713
 31
0.0
  0
LINE
  5
6A
  8
1
 62
     7
 10
-350.0
 20
-68.161310450881672
 30
0.0
 11
-350.00000000000011
 21
-61.928505957836713
 31
0.0
  0
LINE
  5
6B
  8
1
 62
     7
 10
-393.82754963085063
 20
-36.624658380543337
 30
0.0
 11
-399.82754963085063
 21
-26.23235353513007
 31
0.0
  0
LINE
  5
6C
  8
1
 62
     7
 10
-399.22531665864932
 20
-39.741060627065849
 30
0.0
 11
-393.82754963085063
 21
-36.624658380543337
 31
0.0
  0
LINE
  5
6D
  8
1
 62
     7
 10
-405.22531665864938
 20
-29.348755781652589
 30
0.0
 11
-399.82754963085063
 21
-26.23235353513007
 31
0.0
  0
LINE
  5
6E
  8
1
 62
     7
 10
-399.82754963085063
 20
24.375341619456609
 30
0.0
 11
-393.82754963085063
 21
34.76764646486987
 31
0.0
  0
LINE
  5
6F
  8
1
 62
     7
 10
-405.22531665864938
 20
27.49174386597905
 30
0.0
 11
-399.82754963085063
 21
24.375341619456609
 31
0.0
  0
LINE
  5
70
  8
1
 62
     7
 10
-399.22531665864932
 20
37.884048711392317
 30
0.0
 11
-393.82754963085063
 21
34.76764646486987
 31
0.0
  0
LINE
  5
71
  8
1
 62
     7
 10
-350.0
 20
60.071494042163202
 30
0.0
 11
-338.0
 21
60.071494042163202
 31
0.0
  0
LINE
  5
72
  8
1
 62
     7
 10
-350.0
 20
66.304298535208119
 30
0.0
 11
-350.0
 21
60.071494042163202
 31
0.0
  0
LINE
  5
73
  8
1
 62
     7
 10
-338.0
 20
66.304298535208119
 30
0.0
 11
-338.0
 21
60.071494042163202
 31
0.0
  0
LINE
  5
74
  8
1
 62
     7
 10
-572.50035491829237
 20
65.571494042163209
 30
0.0
 11
-572.50035491829237
 21
-0.9285059578367908
 31
0.0
  0
LINE
  5
75
  8
1
 62
     7
 10
-521.70035491829231
 20
59.071494042163209
 30
0.0
 11
-515.30035491829233
 21
59.071494042163209
 31
0.0
  0
LINE
  5
76
  8
1
 62
     7
 10
-513.30035491829233
 20
42.782801186214023
 30
0.0
 11
-515.30035491829233
 21
59.071494042163209
 31
0.0
  0
LINE
  5
77
  8
1
 62
     7
 10
-512.50035491829249
 20
31.071494042163302
 30
0.0
 11
-513.30035491829233
 21
31.071494042163302
 31
0.0
  0
LINE
  5
78
  8
1
 62
     7
 10
-535.50035491829237
 20
57.521494042163219
 30
0.0
 11
-534.50035491829249
 21
57.521494042163219
 31
0.0
  0
LINE
  5
79
  8
1
 62
     7
 10
-534.50035491829249
 20
26.738695069766759
 30
0.0
 11
-534.50035491829249
 21
-0.9285059578367908
 31
0.0
  0
LINE
  5
7A
  8
1
 62
     7
 10
-520.30035491829221
 20
59.071494042163209
 30
0.0
 11
-520.30035491829221
 21
-0.9285059578367908
 31
0.0
  0
LINE
  5
7B
  8
1
 62
     7
 10
-515.30035491829233
 20
59.071494042163209
 30
0.0
 11
-515.30035491829233
 21
-0.9285059578367908
 31
0.0
  0
LINE
  5
7C
  8
1
 62
     7
 10
-513.30035491829233
 20
42.782801186214023
 30
0.0
 11
-513.30035491829233
 21
-0.9285059578367908
 31
0.0
  0
LINE
  5
7D
  8
1
 62
     7
 10
-512.50035491829249
 20
31.071494042163302
 30
0.0
 11
-512.50035491829249
 21
-0.9285059578367908
 31
0.0
  0
LINE
  5
7E
  8
1
 62
     7
 10
-535.50035491829237
 20
66.571494042163209
 30
0.0
 11
-571.50035491829249
 21
66.571494042163209
 31
0.0
  0
LINE
  5
7F
  8
1
 62
     7
 10
-535.50035491829237
 20
37.884048711392381
 30
0.0
 11
-535.50035491829237
 21
66.571494042163209
 31
0.0
  0
LINE
  5
80
  8
1
 62
     7
 10
-520.30035491829221
 20
66.571494042163209
 30
0.0
 11
-535.50035491829237
 21
66.571494042163209
 31
0.0
  0
LINE
  5
81
  8
1
 62
     7
 10
-534.50035491829249
 20
60.278111331472708
 30
0.0
 11
-535.50035491829237
 21
60.278111331472708
 31
0.0
  0
LINE
  5
82
  8
1
 62
     7
 10
-520.30035491829221
 20
60.278111331472708
 30
0.0
 11
-521.70035491829231
 21
60.278111331472708
 31
0.0
  0
LINE
  5
83
  8
1
 62
     7
 10
-534.50035491829249
 20
65.071494042163195
 30
0.0
 11
-521.70035491829231
 21
65.071494042163224
 31
0.0
  0
LINE
  5
84
  8
1
 62
     7
 10
-534.50035491829249
 20
24.72983886053969
 30
0.0
 11
-535.50035491829237
 21
24.72983886053969
 31
0.0
  0
LINE
  5
85
  8
1
 62
     7
 10
-520.30035491829221
 20
27.491743865979089
 30
0.0
 11
-535.50035491829237
 21
27.491743865979089
 31
0.0
  0
LINE
  5
86
  8
1
 62
     7
 10
-520.30035491829221
 20
37.884048711392381
 30
0.0
 11
-535.50035491829237
 21
37.884048711392381
 31
0.0
  0
LINE
  5
87
  8
1
 62
     7
 10
-520.30035491829221
 20
24.72983886053969
 30
0.0
 11
-521.70035491829231
 21
24.72983886053969
 31
0.0
  0
LINE
  5
88
  8
1
 62
     7
 10
-534.50035491829249
 20
65.071494042163195
 30
0.0
 11
-534.50035491829249
 21
37.884048711392381
 31
0.0
  0
LINE
  5
89
  8
1
 62
     7
 10
-521.70035491829231
 20
26.738695069766759
 30
0.0
 11
-534.50035491829249
 21
26.738695069766759
 31
0.0
  0
LINE
  5
8A
  8
1
 62
     7
 10
-521.70035491829231
 20
-0.9285059578367908
 30
0.0
 11
-521.70035491829231
 21
26.738695069766759
 31
0.0
  0
LINE
  5
8B
  8
1
 62
     7
 10
-521.70035491829231
 20
65.071494042163224
 30
0.0
 11
-521.70035491829231
 21
37.884048711392381
 31
0.0
  0
LINE
  5
8C
  8
1
 62
     7
 10
-520.30035491829221
 20
66.571494042163209
 30
0.0
 11
-520.30035491829221
 21
60.278111331472708
 31
0.0
  0
LINE
  5
8D
  8
1
 62
     3
 10
-534.50035491829249
 20
65.071494042163195
 30
0.0
 11
-521.70035491829231
 21
37.884048711392381
 31
0.0
  0
LINE
  5
8E
  8
1
 62
     3
 10
-521.70035491829231
 20
65.071494042163224
 30
0.0
 11
-534.50035491829249
 21
37.884048711392381
 31
0.0
  0
LINE
  5
8F
  8
1
 62
     7
 10
-535.50035491829237
 20
-0.9285059578367908
 30
0.0
 11
-535.50035491829237
 21
27.491743865979089
 31
0.0
  0
LINE
  5
90
  8
1
 62
     7
 10
-572.50035491829237
 20
65.571494042163209
 30
0.0
 11
-571.50035491829249
 21
66.571494042163209
 31
0.0
  0
LINE
  5
91
  8
1
 62
     7
 10
-571.50035491829249
 20
-0.9285059578367908
 30
0.0
 11
-571.50035491829249
 21
66.571494042163209
 31
0.0
  0
LINE
  5
92
  8
1
 62
     7
 10
-572.50035491829237
 20
-0.9285059578367908
 30
0.0
 11
-572.50035491829237
 21
-67.428505957836791
 31
0.0
  0
LINE
  5
93
  8
1
 62
     7
 10
-469.00035491829249
 20
-24.428505957836791
 30
0.0
 11
-469.00035491829249
 21
-29.428505957836791
 31
0.0
  0
LINE
  5
94
  8
1
 62
     3
 10
-438.30035491829233
 20
-28.428505957836791
 30
0.0
 11
-452.50035491829249
 21
-66.928505957836791
 31
0.0
  0
LINE
  5
95
  8
1
 62
     3
 10
-452.50035491829249
 20
-28.428505957836791
 30
0.0
 11
-439.70035491829231
 21
-66.928505957836805
 31
0.0
  0
LINE
  5
96
  8
1
 62
     7
 10
-430.50035491829249
 20
-28.428505957836791
 30
0.0
 11
-452.50035491829249
 21
-28.428505957836791
 31
0.0
  0
LINE
  5
97
  8
1
 62
     7
 10
-434.50035491829249
 20
-32.928505957836791
 30
0.0
 11
-452.50035491829249
 21
-32.928505957836791
 31
0.0
  0
LINE
  5
98
  8
1
 62
     7
 10
-433.0003549182926
 20
-31.178505957836791
 30
0.0
 11
-434.50035491829249
 21
-31.178505957836791
 31
0.0
  0
LINE
  5
99
  8
1
 62
     7
 10
-430.50035491829249
 20
-0.9285059578367908
 30
0.0
 11
-430.50035491829249
 21
-32.928505957836883
 31
0.0
  0
LINE
  5
9A
  8
1
 62
     7
 10
-430.50035491829249
 20
-32.928505957836883
 30
0.0
 11
-433.0003549182926
 21
-32.928505957836791
 31
0.0
  0
LINE
  5
9B
  8
1
 62
     7
 10
-433.0003549182926
 20
-33.478505957836788
 30
0.0
 11
-433.0003549182926
 21
-31.178505957836791
 31
0.0
  0
LINE
  5
9C
  8
1
 62
     7
 10
-469.00035491829249
 20
-26.928505957836791
 30
0.0
 11
-452.50035491829249
 21
-26.928505957836791
 31
0.0
  0
LINE
  5
9D
  8
1
 62
     7
 10
-452.50035491829249
 20
-66.928505957836791
 30
0.0
 11
-452.50035491829249
 21
-26.928505957836791
 31
0.0
  0
LINE
  5
9E
  8
1
 62
     7
 10
-452.50035491829249
 20
-59.378505957836801
 30
0.0
 11
-461.0003549182926
 21
-59.378505957836822
 31
0.0
  0
LINE
  5
9F
  8
1
 62
     7
 10
-439.70035491829231
 20
-60.928505957836791
 30
0.0
 11
-433.30035491829233
 21
-60.928505957836791
 31
0.0
  0
LINE
  5
A0
  8
1
 62
     7
 10
-433.30035491829233
 20
-60.928505957836791
 30
0.0
 11
-431.30035491829238
 21
-44.63981310188759
 31
0.0
  0
LINE
  5
A1
  8
1
 62
     7
 10
-431.30035491829238
 20
-44.63981310188759
 30
0.0
 11
-431.30035491829238
 21
-34.085196605318792
 31
0.0
  0
LINE
  5
A2
  8
1
 62
     7
 10
-431.30035491829238
 20
-35.928505957836791
 30
0.0
 11
-434.50035491829249
 21
-35.928505957836791
 31
0.0
  0
LINE
  5
A3
  8
1
 62
     7
 10
-434.50035491829249
 20
-35.928505957836791
 30
0.0
 11
-434.50035491829249
 21
-29.178505957836791
 31
0.0
  0
LINE
  5
A4
  8
1
 62
     7
 10
-434.50035491829249
 20
-29.178505957836791
 30
0.0
 11
-438.30035491829233
 21
-29.178505957836791
 31
0.0
  0
LINE
  5
A5
  8
1
 62
     7
 10
-434.50035491829249
 20
-33.428505957836791
 30
0.0
 11
-438.30035491829233
 21
-33.428505957836791
 31
0.0
  0
LINE
  5
A6
  8
1
 62
     7
 10
-439.70035491829231
 20
-66.928505957836805
 30
0.0
 11
-452.50035491829249
 21
-66.928505957836791
 31
0.0
  0
LINE
  5
A7
  8
1
 62
     7
 10
-433.0003549182926
 20
-33.478505957836788
 30
0.0
 11
-434.50035491829249
 21
-33.478505957836788
 31
0.0
  0
LINE
  5
A8
  8
1
 62
     7
 10
-473.5003549182926
 20
-23.428505957836791
 30
0.0
 11
-430.50035491829249
 21
-23.428505957836791
 31
0.0
  0
LINE
  5
A9
  8
1
 62
     7
 10
-461.0003549182926
 20
-53.928505957836791
 30
0.0
 11
-461.0003549182926
 21
-59.378505957836822
 31
0.0
  0
LINE
  5
AA
  8
1
 62
     7
 10
-459.50035491829249
 20
-53.928505957836791
 30
0.0
 11
-461.0003549182926
 21
-53.928505957836791
 31
0.0
  0
LINE
  5
AB
  8
1
 62
     7
 10
-459.50035491829249
 20
-38.128505957836794
 30
0.0
 11
-459.50035491829249
 21
-53.928505957836791
 31
0.0
  0
LINE
  5
AC
  8
1
 62
     7
 10
-467.5003549182926
 20
-38.128505957836794
 30
0.0
 11
-459.50035491829249
 21
-38.128505957836794
 31
0.0
  0
LINE
  5
AD
  8
1
 62
     7
 10
-467.5003549182926
 20
-28.928505957836791
 30
0.0
 11
-467.5003549182926
 21
-38.128505957836794
 31
0.0
  0
LINE
  5
AE
  8
1
 62
     7
 10
-469.00035491829249
 20
-28.928505957836791
 30
0.0
 11
-467.5003549182926
 21
-28.928505957836791
 31
0.0
  0
LINE
  5
AF
  8
1
 62
     7
 10
-469.00035491829249
 20
-29.428505957836791
 30
0.0
 11
-471.0003549182926
 21
-29.428505957836791
 31
0.0
  0
LINE
  5
B0
  8
1
 62
     7
 10
-471.0003549182926
 20
-24.428505957836791
 30
0.0
 11
-469.00035491829249
 21
-24.428505957836791
 31
0.0
  0
LINE
  5
B1
  8
1
 62
     7
 10
-471.0003549182926
 20
-29.428505957836791
 30
0.0
 11
-471.0003549182926
 21
-24.428505957836791
 31
0.0
  0
LINE
  5
B2
  8
1
 62
     7
 10
-473.5003549182926
 20
-25.928505957836791
 30
0.0
 11
-471.0003549182926
 21
-25.928505957836791
 31
0.0
  0
LINE
  5
B3
  8
1
 62
     7
 10
-473.5003549182926
 20
-0.9285059578367908
 30
0.0
 11
-473.5003549182926
 21
-25.928505957836791
 31
0.0
  0
LINE
  5
B4
  8
1
 62
     7
 10
-430.50035491829249
 20
-20.928505957836791
 30
0.0
 11
-473.5003549182926
 21
-20.928505957836791
 31
0.0
  0
LINE
  5
B5
  8
1
 62
     7
 10
-438.30035491829233
 20
-28.428505957836791
 30
0.0
 11
-438.30035491829233
 21
-60.928505957836791
 31
0.0
  0
LINE
  5
B6
  8
1
 62
     7
 10
-439.70035491829231
 20
-66.928505957836805
 30
0.0
 11
-439.70035491829231
 21
-60.928505957836791
 31
0.0
  0
LINE
  5
B7
  8
1
 62
     7
 10
-489.50035491829249
 20
-68.428505957836791
 30
0.0
 11
-438.30035491829233
 21
-68.428505957836791
 31
0.0
  0
LINE
  5
B8
  8
1
 62
     7
 10
-438.30035491829233
 20
-62.428505957836791
 30
0.0
 11
-438.30035491829233
 21
-68.428505957836791
 31
0.0
  0
LINE
  5
B9
  8
1
 62
     7
 10
-438.30035491829233
 20
-62.428505957836791
 30
0.0
 11
-453.5003549182926
 21
-62.428505957836791
 31
0.0
  0
LINE
  5
BA
  8
1
 62
     7
 10
-453.5003549182926
 20
-68.428505957836791
 30
0.0
 11
-453.5003549182926
 21
-60.928505957836791
 31
0.0
  0
LINE
  5
BB
  8
1
 62
     7
 10
-453.5003549182926
 20
-60.928505957836791
 30
0.0
 11
-462.5003549182926
 21
-60.928505957836791
 31
0.0
  0
LINE
  5
BC
  8
1
 62
     7
 10
-462.5003549182926
 20
-44.928505957836791
 30
0.0
 11
-462.5003549182926
 21
-60.928505957836791
 31
0.0
  0
LINE
  5
BD
  8
1
 62
     7
 10
-461.0003549182926
 20
-43.428505957836791
 30
0.0
 11
-462.5003549182926
 21
-44.928505957836791
 31
0.0
  0
LINE
  5
BE
  8
1
 62
     7
 10
-461.0003549182926
 20
-38.428505957836791
 30
0.0
 11
-461.0003549182926
 21
-43.428505957836791
 31
0.0
  0
LINE
  5
BF
  8
1
 62
     7
 10
-490.5003549182926
 20
-38.428505957836791
 30
0.0
 11
-461.0003549182926
 21
-38.428505957836791
 31
0.0
  0
LINE
  5
C0
  8
1
 62
     7
 10
-485.50035491829249
 20
-0.9285059578367908
 30
0.0
 11
-485.50035491829249
 21
-38.428505957836791
 31
0.0
  0
LINE
  5
C1
  8
1
 62
     7
 10
-490.5003549182926
 20
-0.9285059578367908
 30
0.0
 11
-490.5003549182926
 21
-67.428505957836791
 31
0.0
  0
LINE
  5
C2
  8
1
 62
     7
 10
-489.50035491829249
 20
-68.428505957836791
 30
0.0
 11
-490.5003549182926
 21
-67.428505957836791
 31
0.0
  0
LINE
  5
C3
  8
1
 62
     7
 10
-561.00035491829237
 20
66.571494042163209
 30
0.0
 11
-561.00035491829237
 21
73.763089141564706
 31
0.0
  0
LINE
  5
C4
  8
1
  6
DASHDOT
 62
     3
 10
-578.6928847074762
 20
-0.9285059578367908
 30
0.0
 11
-572.50035491829237
 21
-0.9285059578367908
 31
0.0
  0
LINE
  5
C5
  8
1
 62
     7
 10
-515.30035491829233
 20
-60.928505957836791
 30
0.0
 11
-521.70035491829231
 21
-60.928505957836791
 31
0.0
  0
LINE
  5
C6
  8
1
 62
     7
 10
-515.30035491829233
 20
-60.928505957836791
 30
0.0
 11
-513.30035491829233
 21
-44.63981310188759
 31
0.0
  0
LINE
  5
C7
  8
1
 62
     7
 10
-513.30035491829233
 20
-32.928505957836883
 30
0.0
 11
-512.50035491829249
 21
-32.928505957836883
 31
0.0
  0
LINE
  5
C8
  8
1
 62
     7
 10
-534.50035491829249
 20
-59.378505957836801
 30
0.0
 11
-535.50035491829237
 21
-59.378505957836801
 31
0.0
  0
LINE
  5
C9
  8
1
 62
     7
 10
-534.50035491829249
 20
-0.9285059578367908
 30
0.0
 11
-534.50035491829249
 21
-28.595706985440341
 31
0.0
  0
LINE
  5
CA
  8
1
 62
     7
 10
-520.30035491829221
 20
-0.9285059578367908
 30
0.0
 11
-520.30035491829221
 21
-60.928505957836791
 31
0.0
  0
LINE
  5
CB
  8
1
 62
     7
 10
-515.30035491829233
 20
-0.9285059578367908
 30
0.0
 11
-515.30035491829233
 21
-60.928505957836791
 31
0.0
  0
LINE
  5
CC
  8
1
 62
     7
 10
-513.30035491829233
 20
-0.9285059578367908
 30
0.0
 11
-513.30035491829233
 21
-44.63981310188759
 31
0.0
  0
LINE
  5
CD
  8
1
 62
     7
 10
-512.50035491829249
 20
-0.9285059578367908
 30
0.0
 11
-512.50035491829249
 21
-32.928505957836883
 31
0.0
  0
LINE
  5
CE
  8
1
 62
     7
 10
-571.50035491829249
 20
-68.428505957836791
 30
0.0
 11
-535.50035491829237
 21
-68.428505957836791
 31
0.0
  0
LINE
  5
CF
  8
1
 62
     7
 10
-535.50035491829237
 20
-68.428505957836791
 30
0.0
 11
-535.50035491829237
 21
-39.741060627065949
 31
0.0
  0
LINE
  5
D0
  8
1
 62
     7
 10
-535.50035491829237
 20
-68.428505957836791
 30
0.0
 11
-520.30035491829221
 21
-68.428505957836791
 31
0.0
  0
LINE
  5
D1
  8
1
 62
     7
 10
-535.50035491829237
 20
-62.135123247146282
 30
0.0
 11
-534.50035491829249
 21
-62.135123247146282
 31
0.0
  0
LINE
  5
D2
  8
1
 62
     7
 10
-521.70035491829231
 20
-62.135123247146282
 30
0.0
 11
-520.30035491829221
 21
-62.135123247146282
 31
0.0
  0
LINE
  5
D3
  8
1
 62
     7
 10
-521.70035491829231
 20
-66.928505957836805
 30
0.0
 11
-534.50035491829249
 21
-66.928505957836791
 31
0.0
  0
LINE
  5
D4
  8
1
 62
     7
 10
-535.50035491829237
 20
-26.586850776213279
 30
0.0
 11
-534.50035491829249
 21
-26.586850776213279
 31
0.0
  0
LINE
  5
D5
  8
1
 62
     7
 10
-535.50035491829237
 20
-29.34875578165267
 30
0.0
 11
-520.30035491829221
 21
-29.34875578165267
 31
0.0
  0
LINE
  5
D6
  8
1
 62
     7
 10
-535.50035491829237
 20
-39.741060627065949
 30
0.0
 11
-520.30035491829221
 21
-39.741060627065949
 31
0.0
  0
LINE
  5
D7
  8
1
 62
     7
 10
-521.70035491829231
 20
-26.586850776213279
 30
0.0
 11
-520.30035491829221
 21
-26.586850776213279
 31
0.0
  0
LINE
  5
D8
  8
1
 62
     7
 10
-534.50035491829249
 20
-39.741060627065949
 30
0.0
 11
-534.50035491829249
 21
-66.928505957836791
 31
0.0
  0
LINE
  5
D9
  8
1
 62
     7
 10
-534.50035491829249
 20
-28.595706985440341
 30
0.0
 11
-521.70035491829231
 21
-28.595706985440341
 31
0.0
  0
LINE
  5
DA
  8
1
 62
     7
 10
-521.70035491829231
 20
-28.595706985440341
 30
0.0
 11
-521.70035491829231
 21
-0.9285059578367908
 31
0.0
  0
LINE
  5
DB
  8
1
 62
     7
 10
-521.70035491829231
 20
-39.741060627065949
 30
0.0
 11
-521.70035491829231
 21
-66.928505957836805
 31
0.0
  0
LINE
  5
DC
  8
1
 62
     7
 10
-520.30035491829221
 20
-62.135123247146282
 30
0.0
 11
-520.30035491829221
 21
-68.428505957836791
 31
0.0
  0
LINE
  5
DD
  8
1
 62
     3
 10
-521.70035491829231
 20
-39.741060627065949
 30
0.0
 11
-534.50035491829249
 21
-66.928505957836791
 31
0.0
  0
LINE
  5
DE
  8
1
 62
     3
 10
-534.50035491829249
 20
-39.741060627065949
 30
0.0
 11
-521.70035491829231
 21
-66.928505957836805
 31
0.0
  0
LINE
  5
DF
  8
1
 62
     7
 10
-535.50035491829237
 20
-29.34875578165267
 30
0.0
 11
-535.50035491829237
 21
-0.9285059578367908
 31
0.0
  0
LINE
  5
E0
  8
1
 62
     7
 10
-560.00035491829237
 20
86.571494042163195
 30
0.0
 11
-560.00035491829237
 21
81.571494042163195
 31
0.0
  0
LINE
  5
E1
  8
1
 62
     7
 10
-559.80035491829256
 20
86.571494042163195
 30
0.0
 11
-559.80035491829256
 21
81.571494042163195
 31
0.0
  0
LINE
  5
E2
  8
1
 62
     7
 10
-559.60035491829262
 20
86.571494042163195
 30
0.0
 11
-559.60035491829262
 21
81.571494042163195
 31
0.0
  0
LINE
  5
E3
  8
1
 62
     7
 10
-560.20035491829231
 20
86.571494042163195
 30
0.0
 11
-560.20035491829231
 21
81.571494042163195
 31
0.0
  0
LINE
  5
E4
  8
1
 62
     7
 10
-560.40035491829258
 20
86.571494042163195
 30
0.0
 11
-560.40035491829258
 21
81.571494042163195
 31
0.0
  0
LINE
  5
E5
  8
1
 62
     7
 10
-561.00035491829237
 20
81.571494042163195
 30
0.0
 11
-559.00035491829249
 21
81.571494042163195
 31
0.0
  0
LINE
  5
E6
  8
1
 62
     7
 10
-559.00035491829249
 20
81.571494042163195
 30
0.0
 11
-559.00035491829249
 21
75.380834659615005
 31
0.0
  0
LINE
  5
E7
  8
1
 62
     7
 10
-559.00035491829249
 20
73.763089141564706
 30
0.0
 11
-559.00035491829249
 21
66.571494042163209
 31
0.0
  0
LINE
  5
E8
  8
1
 62
     7
 10
-561.00035491829237
 20
75.380834659615005
 30
0.0
 11
-561.00035491829237
 21
81.571494042163195
 31
0.0
  0
LINE
  5
E9
  8
1
 62
     7
 10
-571.50035491829249
 20
-68.428505957836791
 30
0.0
 11
-572.50035491829237
 21
-67.428505957836791
 31
0.0
  0
LINE
  5
EA
  8
1
 62
     7
 10
-571.50035491829249
 20
-68.428505957836791
 30
0.0
 11
-571.50035491829249
 21
-0.9285059578367908
 31
0.0
  0
LINE
  5
EB
  8
1
 62
     7
 10
-469.00035491829249
 20
27.571494042163199
 30
0.0
 11
-469.00035491829249
 21
22.571494042163199
 31
0.0
  0
LINE
  5
EC
  8
1
 62
     7
 10
-479.0003549182926
 20
66.571494042163209
 30
0.0
 11
-479.0003549182926
 21
73.763089141564706
 31
0.0
  0
LINE
  5
ED
  8
1
  6
DASHDOT
 62
     3
 10
-496.69288470747648
 20
-0.9285059578367908
 30
0.0
 11
-490.5003549182926
 21
-0.9285059578367908
 31
0.0
  0
LINE
  5
EE
  8
1
 62
     3
 10
-452.50035491829249
 20
65.071494042163195
 30
0.0
 11
-438.30035491829233
 21
26.571494042163209
 31
0.0
  0
LINE
  5
EF
  8
1
 62
     7
 10
-670.0
 20
21.571494042163199
 30
0.0
 11
-658.0
 21
21.571494042163199
 31
0.0
  0
LINE
  5
F0
  8
1
 62
     7
 10
-658.0
 20
21.571494042163199
 30
0.0
 11
-658.0
 21
18.150278070502129
 31
0.0
  0
LINE
  5
F1
  8
1
 62
     7
 10
-670.0
 20
21.571494042163199
 30
0.0
 11
-670.0
 21
18.150278070502129
 31
0.0
  0
LINE
  5
F2
  8
1
 62
     3
 10
-439.70035491829231
 20
65.071494042163195
 30
0.0
 11
-452.50035491829249
 21
26.571494042163209
 31
0.0
  0
LINE
  5
F3
  8
1
 62
     7
 10
-452.50035491829249
 20
26.571494042163209
 30
0.0
 11
-430.50035491829249
 21
26.571494042163209
 31
0.0
  0
LINE
  5
F4
  8
1
 62
     7
 10
-452.50035491829249
 20
31.071494042163209
 30
0.0
 11
-434.50035491829249
 21
31.071494042163209
 31
0.0
  0
LINE
  5
F5
  8
1
 62
     7
 10
-434.50035491829249
 20
29.321494042163209
 30
0.0
 11
-433.0003549182926
 21
29.321494042163209
 31
0.0
  0
LINE
  5
F6
  8
1
 62
     7
 10
-430.50035491829249
 20
31.07149404216322
 30
0.0
 11
-430.50035491829249
 21
-0.9285059578367908
 31
0.0
  0
LINE
  5
F7
  8
1
 62
     7
 10
-433.0003549182926
 20
31.071494042163209
 30
0.0
 11
-430.50035491829249
 21
31.07149404216322
 31
0.0
  0
LINE
  5
F8
  8
1
 62
     7
 10
-433.0003549182926
 20
29.321494042163209
 30
0.0
 11
-433.0003549182926
 21
31.62149404216321
 31
0.0
  0
LINE
  5
F9
  8
1
 62
     7
 10
-452.50035491829249
 20
25.071494042163199
 30
0.0
 11
-469.00035491829249
 21
25.071494042163199
 31
0.0
  0
LINE
  5
FA
  8
1
 62
     7
 10
-452.50035491829249
 20
25.071494042163199
 30
0.0
 11
-452.50035491829249
 21
65.071494042163195
 31
0.0
  0
LINE
  5
FB
  8
1
 62
     7
 10
-461.0003549182926
 20
57.521494042163219
 30
0.0
 11
-452.50035491829249
 21
57.521494042163212
 31
0.0
  0
LINE
  5
FC
  8
1
 62
     7
 10
-433.30035491829233
 20
59.071494042163209
 30
0.0
 11
-439.70035491829231
 21
59.071494042163209
 31
0.0
  0
LINE
  5
FD
  8
1
 62
     7
 10
-431.30035491829238
 20
42.782801186214023
 30
0.0
 11
-433.30035491829233
 21
59.071494042163209
 31
0.0
  0
LINE
  5
FE
  8
1
 62
     7
 10
-431.30035491829238
 20
32.228184689645218
 30
0.0
 11
-431.30035491829238
 21
42.782801186214023
 31
0.0
  0
LINE
  5
FF
  8
1
 62
     7
 10
-434.50035491829249
 20
34.071494042163209
 30
0.0
 11
-431.30035491829238
 21
34.071494042163209
 31
0.0
  0
LINE
  5
100
  8
1
 62
     7
 10
-434.50035491829249
 20
27.321494042163209
 30
0.0
 11
-434.50035491829249
 21
34.071494042163209
 31
0.0
  0
LINE
  5
101
  8
1
 62
     7
 10
-438.30035491829233
 20
27.321494042163209
 30
0.0
 11
-434.50035491829249
 21
27.321494042163209
 31
0.0
  0
LINE
  5
102
  8
1
 62
     7
 10
-438.30035491829233
 20
31.571494042163209
 30
0.0
 11
-434.50035491829249
 21
31.571494042163209
 31
0.0
  0
LINE
  5
103
  8
1
 62
     7
 10
-452.50035491829249
 20
65.071494042163195
 30
0.0
 11
-439.70035491829231
 21
65.071494042163195
 31
0.0
  0
LINE
  5
104
  8
1
 62
     7
 10
-434.50035491829249
 20
31.62149404216321
 30
0.0
 11
-433.0003549182926
 21
31.62149404216321
 31
0.0
  0
LINE
  5
105
  8
1
 62
     7
 10
-430.50035491829249
 20
21.571494042163199
 30
0.0
 11
-473.5003549182926
 21
21.571494042163199
 31
0.0
  0
LINE
  5
106
  8
1
 62
     7
 10
-461.0003549182926
 20
57.521494042163219
 30
0.0
 11
-461.0003549182926
 21
52.071494042163209
 31
0.0
  0
LINE
  5
107
  8
1
 62
     7
 10
-461.0003549182926
 20
52.071494042163209
 30
0.0
 11
-459.50035491829249
 21
52.071494042163209
 31
0.0
  0
LINE
  5
108
  8
1
 62
     7
 10
-459.50035491829249
 20
52.071494042163209
 30
0.0
 11
-459.50035491829249
 21
36.271494042163212
 31
0.0
  0
LINE
  5
109
  8
1
 62
     7
 10
-459.50035491829249
 20
36.271494042163212
 30
0.0
 11
-467.5003549182926
 21
36.271494042163212
 31
0.0
  0
LINE
  5
10A
  8
1
 62
     7
 10
-467.5003549182926
 20
36.271494042163212
 30
0.0
 11
-467.5003549182926
 21
27.071494042163209
 31
0.0
  0
LINE
  5
10B
  8
1
 62
     7
 10
-467.5003549182926
 20
27.071494042163209
 30
0.0
 11
-469.00035491829249
 21
27.071494042163209
 31
0.0
  0
LINE
  5
10C
  8
1
 62
     7
 10
-471.0003549182926
 20
27.571494042163199
 30
0.0
 11
-469.00035491829249
 21
27.571494042163199
 31
0.0
  0
LINE
  5
10D
  8
1
 62
     7
 10
-469.00035491829249
 20
22.571494042163199
 30
0.0
 11
-471.0003549182926
 21
22.571494042163199
 31
0.0
  0
LINE
  5
10E
  8
1
 62
     7
 10
-471.0003549182926
 20
22.571494042163199
 30
0.0
 11
-471.0003549182926
 21
27.571494042163199
 31
0.0
  0
LINE
  5
10F
  8
1
 62
     7
 10
-471.0003549182926
 20
24.071494042163209
 30
0.0
 11
-473.5003549182926
 21
24.071494042163209
 31
0.0
  0
LINE
  5
110
  8
1
 62
     7
 10
-473.5003549182926
 20
24.071494042163209
 30
0.0
 11
-473.5003549182926
 21
-0.9285059578367908
 31
0.0
  0
LINE
  5
111
  8
1
 62
     7
 10
-473.5003549182926
 20
18.150278070502129
 30
0.0
 11
-430.50035491829249
 21
18.150278070502129
 31
0.0
  0
LINE
  5
112
  8
1
 62
     7
 10
-438.30035491829233
 20
59.071494042163209
 30
0.0
 11
-438.30035491829233
 21
26.571494042163209
 31
0.0
  0
LINE
  5
113
  8
1
 62
     7
 10
-439.70035491829231
 20
59.071494042163209
 30
0.0
 11
-439.70035491829231
 21
65.071494042163195
 31
0.0
  0
LINE
  5
114
  8
1
 62
     7
 10
-438.30035491829233
 20
66.571494042163209
 30
0.0
 11
-489.50035491829249
 21
66.571494042163209
 31
0.0
  0
LINE
  5
115
  8
1
 62
     7
 10
-438.30035491829233
 20
66.571494042163209
 30
0.0
 11
-438.30035491829233
 21
60.571494042163209
 31
0.0
  0
LINE
  5
116
  8
1
 62
     7
 10
-453.5003549182926
 20
60.571494042163209
 30
0.0
 11
-438.30035491829233
 21
60.571494042163209
 31
0.0
  0
LINE
  5
117
  8
1
 62
     7
 10
-453.5003549182926
 20
59.071494042163209
 30
0.0
 11
-453.5003549182926
 21
66.571494042163209
 31
0.0
  0
LINE
  5
118
  8
1
 62
     7
 10
-462.5003549182926
 20
59.071494042163209
 30
0.0
 11
-453.5003549182926
 21
59.071494042163209
 31
0.0
  0
LINE
  5
119
  8
1
 62
     7
 10
-462.5003549182926
 20
59.071494042163209
 30
0.0
 11
-462.5003549182926
 21
43.071494042163202
 31
0.0
  0
LINE
  5
11A
  8
1
 62
     7
 10
-462.5003549182926
 20
43.071494042163202
 30
0.0
 11
-461.0003549182926
 21
41.571494042163209
 31
0.0
  0
LINE
  5
11B
  8
1
 62
     7
 10
-461.0003549182926
 20
41.571494042163209
 30
0.0
 11
-461.0003549182926
 21
36.571494042163209
 31
0.0
  0
LINE
  5
11C
  8
1
 62
     7
 10
-461.0003549182926
 20
36.571494042163209
 30
0.0
 11
-490.5003549182926
 21
36.571494042163209
 31
0.0
  0
LINE
  5
11D
  8
1
 62
     7
 10
-485.50035491829249
 20
36.571494042163209
 30
0.0
 11
-485.50035491829249
 21
-0.9285059578367908
 31
0.0
  0
LINE
  5
11E
  8
1
 62
     7
 10
-490.5003549182926
 20
65.571494042163209
 30
0.0
 11
-490.5003549182926
 21
-0.9285059578367908
 31
0.0
  0
LINE
  5
11F
  8
1
  6
DASHDOT
 62
     3
 10
-614.792418699417
 20
27.481504352225201
 30
0.0
 11
-622.97374761171989
 21
22.758011902378239
 31
0.0
  0
LINE
  5
120
  8
1
  6
DASHDOT
 62
     3
 10
-622.98144317625838
 20
-24.6105807817939
 30
0.0
 11
-614.72182387805185
 21
-29.379274207017261
 31
0.0
  0
LINE
  5
121
  8
1
  6
DASHDOT
 62
     3
 10
-704.73171200530976
 20
-24.444970848656819
 30
0.0
 11
-713.5388165836697
 21
-29.52975504775404
 31
0.0
  0
LINE
  5
122
  8
1
  6
DASHDOT
 62
     3
 10
-705.12017526533702
 20
22.812238300730229
 30
0.0
 11
-712.86963450705525
 21
27.286390680010211
 31
0.0
  0
LINE
  5
123
  8
1
 62
     7
 10
-663.0
 20
86.571494042163195
 30
0.0
 11
-663.0
 21
81.571494042163195
 31
0.0
  0
LINE
  5
124
  8
1
 62
     7
 10
-665.0
 20
86.571494042163195
 30
0.0
 11
-665.0
 21
81.571494042163195
 31
0.0
  0
LINE
  5
125
  8
1
 62
     7
 10
-662.79999999999995
 20
86.571494042163195
 30
0.0
 11
-662.79999999999995
 21
81.571494042163195
 31
0.0
  0
LINE
  5
126
  8
1
 62
     7
 10
-662.60000000000002
 20
86.571494042163195
 30
0.0
 11
-662.60000000000002
 21
81.571494042163195
 31
0.0
  0
LINE
  5
127
  8
1
 62
     7
 10
-663.20000000000005
 20
86.571494042163195
 30
0.0
 11
-663.20000000000005
 21
81.571494042163195
 31
0.0
  0
LINE
  5
128
  8
1
 62
     7
 10
-663.39999999999998
 20
86.571494042163195
 30
0.0
 11
-663.39999999999998
 21
81.571494042163195
 31
0.0
  0
LINE
  5
129
  8
1
 62
     7
 10
-664.79999999999995
 20
86.571494042163195
 30
0.0
 11
-664.79999999999995
 21
81.571494042163195
 31
0.0
  0
LINE
  5
12A
  8
1
 62
     7
 10
-664.60000000000002
 20
86.571494042163195
 30
0.0
 11
-664.60000000000002
 21
81.571494042163195
 31
0.0
  0
LINE
  5
12B
  8
1
 62
     7
 10
-665.20000000000005
 20
86.571494042163195
 30
0.0
 11
-665.20000000000005
 21
81.571494042163195
 31
0.0
  0
LINE
  5
12C
  8
1
 62
     7
 10
-665.39999999999986
 20
86.571494042163195
 30
0.0
 11
-665.39999999999986
 21
81.571494042163195
 31
0.0
  0
LINE
  5
12D
  8
1
 62
     7
 10
-666.0
 20
81.571494042163195
 30
0.0
 11
-662.0
 21
81.571494042163195
 31
0.0
  0
LINE
  5
12E
  8
1
 62
     7
 10
-662.0
 20
81.571494042163195
 30
0.0
 11
-662.0
 21
75.380834659615005
 31
0.0
  0
LINE
  5
12F
  8
1
 62
     7
 10
-666.0
 20
66.522684501049753
 30
0.0
 11
-666.0
 21
73.763089141564706
 31
0.0
  0
LINE
  5
130
  8
1
 62
     7
 10
-664.0
 20
81.571494042163195
 30
0.0
 11
-664.0
 21
75.380834659615005
 31
0.0
  0
LINE
  5
131
  8
1
 62
     7
 10
-662.0
 20
73.763089141564706
 30
0.0
 11
-662.0
 21
66.522684501049753
 31
0.0
  0
LINE
  5
132
  8
1
 62
     7
 10
-666.0
 20
75.380834659615005
 30
0.0
 11
-666.0
 21
81.571494042163195
 31
0.0
  0
LINE
  5
133
  8
1
 62
     7
 10
-478.0003549182926
 20
86.571494042163195
 30
0.0
 11
-478.0003549182926
 21
81.571494042163195
 31
0.0
  0
LINE
  5
134
  8
1
 62
     7
 10
-477.80035491829261
 20
86.571494042163195
 30
0.0
 11
-477.80035491829261
 21
81.571494042163195
 31
0.0
  0
LINE
  5
135
  8
1
 62
     7
 10
-477.60035491829262
 20
86.571494042163195
 30
0.0
 11
-477.60035491829262
 21
81.571494042163195
 31
0.0
  0
LINE
  5
136
  8
1
 62
     7
 10
-478.20035491829242
 20
86.571494042163195
 30
0.0
 11
-478.20035491829242
 21
81.571494042163195
 31
0.0
  0
LINE
  5
137
  8
1
 62
     7
 10
-478.40035491829258
 20
86.571494042163195
 30
0.0
 11
-478.40035491829258
 21
81.571494042163195
 31
0.0
  0
LINE
  5
138
  8
1
 62
     7
 10
-479.0003549182926
 20
81.571494042163195
 30
0.0
 11
-477.00035491829249
 21
81.571494042163195
 31
0.0
  0
LINE
  5
139
  8
1
 62
     7
 10
-477.00035491829249
 20
81.571494042163195
 30
0.0
 11
-477.00035491829249
 21
75.380834659615005
 31
0.0
  0
LINE
  5
13A
  8
1
 62
     7
 10
-477.00035491829249
 20
73.763089141564706
 30
0.0
 11
-477.00035491829249
 21
66.571494042163209
 31
0.0
  0
LINE
  5
13B
  8
1
 62
     7
 10
-479.0003549182926
 20
75.380834659615005
 30
0.0
 11
-479.0003549182926
 21
81.571494042163195
 31
0.0
  0
LINE
  5
13C
  8
1
 62
     7
 10
-490.5003549182926
 20
65.571494042163209
 30
0.0
 11
-489.50035491829249
 21
66.571494042163209
 31
0.0
  0
LINE
  5
13D
  8
1
 62
     3
 10
-534.50035491829249
 20
26.738695069766759
 30
0.0
 11
-521.70035491829231
 21
-28.595706985440341
 31
0.0
  0
LINE
  5
13E
  8
1
 62
     3
 10
-534.50035491829249
 20
-28.595706985440341
 30
0.0
 11
-521.70035491829231
 21
26.738695069766759
 31
0.0
  0
LINE
  5
13F
  8
1
  6
DASHDOT
 62
     3
 10
-344.0
 20
16.071494042163209
 30
0.0
 11
-344.0
 21
-17.928505957836791
 31
0.0
  0
LINE
  5
140
  8
1
  6
DASHDOT
 62
     3
 10
-361.0
 20
-0.9285059578367908
 30
0.0
 11
-327.0
 21
-0.9285059578367908
 31
0.0
  0
LINE
  5
141
  8
1
  6
DASHDOT
 62
     3
 10
-430.50035491829249
 20
-0.9285059578367908
 30
0.0
 11
-426.22230725559751
 21
-0.9285059578367908
 31
0.0
  0
LINE
  5
142
  8
1
  6
DASHDOT
 62
     3
 10
-512.50035491829249
 20
-0.9285059578367908
 30
0.0
 11
-508.22230725559763
 21
-0.9285059578367908
 31
0.0
  0
LINE
  5
143
  8
1
  6
DASHDOT
 62
     3
 10
-664.0
 20
16.071494042163209
 30
0.0
 11
-664.0
 21
-17.928505957836791
 31
0.0
  0
LINE
  5
144
  8
1
  6
DASHDOT
 62
     3
 10
-647.0
 20
-0.9285059578367908
 30
0.0
 11
-681.0
 21
-0.9285059578367908
 31
0.0
  0
ARC
  5
145
  8
1
 62
     7
 10
-344.0
 20
-0.9285059578367908
 30
0.0
 40
20.0
 50
107.45760312372209
 51
72.54239687627792
  0
ARC
  5
146
  8
1
 62
     7
 10
-343.0
 20
73.013089141564706
 30
0.0
 40
1.25
 50
36.86989764584402
 51
143.13010235415601
  0
ARC
  5
147
  8
1
 62
     7
 10
-343.0
 20
74.513089141564706
 30
0.0
 40
1.25
 50
216.86989764584391
 51
323.13010235415601
  0
ARC
  5
148
  8
1
 62
     7
 10
-345.0
 20
73.013089141564706
 30
0.0
 40
1.25
 50
36.86989764584402
 51
143.13010235415601
  0
ARC
  5
149
  8
1
 62
     7
 10
-345.0
 20
76.130834659615005
 30
0.0
 40
1.25
 50
216.86989764584391
 51
323.13010235415601
  0
ARC
  5
14A
  8
1
 62
     7
 10
-345.0
 20
74.630834659615005
 30
0.0
 40
1.25
 50
36.86989764584402
 51
143.13010235415601
  0
ARC
  5
14B
  8
1
 62
     7
 10
-343.0
 20
76.130834659615005
 30
0.0
 40
1.25
 50
216.86989764584391
 51
323.13010235415601
  0
ARC
  5
14C
  8
1
 62
     7
 10
-344.0
 20
-0.9285059578367908
 30
0.0
 40
65.999999999999972
 50
335.21590857045408
 51
24.784091429545871
  0
ARC
  5
14D
  8
1
 62
     7
 10
-344.0
 20
-0.9285059578367908
 30
0.0
 40
66.0
 50
275.21590857045402
 51
324.78409142954581
  0
ARC
  5
14E
  8
1
 62
     7
 10
-344.0
 20
-0.9285059578367908
 30
0.0
 40
66.000000000000043
 50
215.21590857045399
 51
264.78409142954592
  0
ARC
  5
14F
  8
1
 62
     7
 10
-344.0
 20
-0.9285059578367908
 30
0.0
 40
66.0
 50
180.0
 51
204.78409142954581
  0
ARC
  5
150
  8
1
 62
     7
 10
-344.0
 20
-0.9285059578367908
 30
0.0
 40
66.0
 50
95.215908570454118
 51
144.78409142954581
  0
ARC
  5
151
  8
1
 62
     7
 10
-344.0
 20
-0.9285059578367908
 30
0.0
 40
65.999999999999986
 50
155.2159085704541
 51
180.0
  0
ARC
  5
152
  8
1
 62
     7
 10
-344.0
 20
-0.9285059578367908
 30
0.0
 40
65.999999999999957
 50
35.215908570454133
 51
84.784091429545867
  0
ARC
  5
153
  8
1
 62
     7
 10
-344.0
 20
-0.9285059578367908
 30
0.0
 40
61.500000000000057
 50
24.401262183771401
 51
35.598737816228592
  0
ARC
  5
154
  8
1
 62
     7
 10
-344.0
 20
-0.9285059578367908
 30
0.0
 40
61.500000000000028
 50
324.40126218377151
 51
335.59873781622861
  0
ARC
  5
155
  8
1
 62
     7
 10
-344.0
 20
-0.9285059578367908
 30
0.0
 40
61.5
 50
264.40126218377128
 51
275.59873781622861
  0
ARC
  5
156
  8
1
 62
     7
 10
-344.0
 20
-0.9285059578367908
 30
0.0
 40
61.500000000000028
 50
204.40126218377139
 51
215.59873781622861
  0
ARC
  5
157
  8
1
 62
     7
 10
-344.0
 20
-0.9285059578367908
 30
0.0
 40
61.50000000000005
 50
144.40126218377139
 51
155.59873781622861
  0
ARC
  5
158
  8
1
 62
     7
 10
-344.0
 20
-0.9285059578367908
 30
0.0
 40
61.5
 50
84.401262183771408
 51
95.598737816228606
  0
ARC
  5
159
  8
1
 62
     7
 10
-560.50035491829237
 20
75.56297751675784
 30
0.0
 40
0.5321428571428547
 50
200.01595960288179
 51
339.98404039711812
  0
ARC
  5
15A
  8
1
 62
     7
 10
-559.50035491829249
 20
75.56297751675784
 30
0.0
 40
0.5321428571428547
 50
200.01595960288179
 51
339.98404039711812
  0
ARC
  5
15B
  8
1
 62
     7
 10
-560.50035491829237
 20
73.58094628442187
 30
0.0
 40
0.5321428571428547
 50
20.015959602881939
 51
159.98404039711801
  0
ARC
  5
15C
  8
1
 62
     7
 10
-559.50035491829249
 20
73.58094628442187
 30
0.0
 40
0.5321428571428547
 50
20.015959602881939
 51
159.98404039711801
  0
ARC
  5
15D
  8
1
 62
     7
 10
-559.50035491829249
 20
73.945231998707555
 30
0.0
 40
0.5321428571428547
 50
200.01595960288179
 51
339.98404039711812
  0
ARC
  5
15E
  8
1
 62
     7
 10
-560.50035491829237
 20
75.198691802472155
 30
0.0
 40
0.5321428571428547
 50
20.015959602881939
 51
159.98404039711801
  0
ARC
  5
15F
  8
1
 62
     7
 10
-664.0
 20
-0.9285059578367908
 30
0.0
 40
20.0
 50
107.45760312372209
 51
72.54239687627792
  0
ARC
  5
160
  8
1
 62
     7
 10
-663.0
 20
73.013089141564706
 30
0.0
 40
1.25
 50
36.86989764584402
 51
143.13010235415601
  0
ARC
  5
161
  8
1
 62
     7
 10
-663.0
 20
74.513089141564706
 30
0.0
 40
1.25
 50
216.86989764584391
 51
323.13010235415601
  0
ARC
  5
162
  8
1
 62
     7
 10
-665.0
 20
73.013089141564706
 30
0.0
 40
1.25
 50
36.86989764584402
 51
143.13010235415601
  0
ARC
  5
163
  8
1
 62
     7
 10
-665.0
 20
76.130834659615005
 30
0.0
 40
1.25
 50
216.86989764584391
 51
323.13010235415601
  0
ARC
  5
164
  8
1
 62
     7
 10
-665.0
 20
74.630834659615005
 30
0.0
 40
1.25
 50
36.86989764584402
 51
143.13010235415601
  0
ARC
  5
165
  8
1
 62
     7
 10
-663.0
 20
76.130834659615005
 30
0.0
 40
1.25
 50
216.86989764584391
 51
323.13010235415601
  0
ARC
  5
166
  8
1
 62
     7
 10
-478.5003549182926
 20
75.56297751675784
 30
0.0
 40
0.5321428571428547
 50
200.01595960288179
 51
339.98404039711812
  0
ARC
  5
167
  8
1
 62
     7
 10
-477.50035491829249
 20
75.56297751675784
 30
0.0
 40
0.5321428571428547
 50
200.01595960288179
 51
339.98404039711812
  0
ARC
  5
168
  8
1
 62
     7
 10
-478.5003549182926
 20
73.58094628442187
 30
0.0
 40
0.5321428571428547
 50
20.015959602881939
 51
159.98404039711801
  0
ARC
  5
169
  8
1
 62
     7
 10
-477.50035491829249
 20
73.58094628442187
 30
0.0
 40
0.5321428571428547
 50
20.015959602881939
 51
159.98404039711801
  0
ARC
  5
16A
  8
1
 62
     7
 10
-477.50035491829249
 20
73.945231998707555
 30
0.0
 40
0.5321428571428547
 50
200.01595960288179
 51
339.98404039711812
  0
ARC
  5
16B
  8
1
 62
     7
 10
-478.5003549182926
 20
75.198691802472155
 30
0.0
 40
0.5321428571428547
 50
20.015959602881939
 51
159.98404039711801
  0
CIRCLE
  5
16C
  8
1
 62
     7
 10
-344.0
 20
-0.9285059578367908
 30
0.0
 40
35.0
  0
CIRCLE
  5
16D
  8
1
 62
     7
 10
-344.0
 20
-0.9285059578367908
 30
0.0
 40
32.0
  0
CIRCLE
  5
16E
  8
1
 62
     7
 10
-344.0
 20
-0.9285059578367908
 30
0.0
 40
43.711307144050799
  0
CIRCLE
  5
16F
  8
1
 62
     7
 10
-344.0
 20
-0.9285059578367908
 30
0.0
 40
60.0
  0
CIRCLE
  5
170
  8
1
 62
     7
 10
-344.0
 20
-0.9285059578367908
 30
0.0
 40
67.5
  0
CIRCLE
  5
171
  8
1
 62
     7
 10
-664.0
 20
-0.9285059578367908
 30
0.0
 40
25.0
  0
CIRCLE
  5
172
  8
1
 62
     7
 10
-664.0
 20
-0.9285059578367908
 30
0.0
 40
37.5
  0
CIRCLE
  5
173
  8
1
 62
     7
 10
-664.0
 20
-0.9285059578367908
 30
0.0
 40
67.5
  0
CIRCLE
  5
174
  8
1
  6
DASHDOT
 62
     3
 10
-664.0
 20
-0.9285059578367908
 30
0.0
 40
52.0
  0
CIRCLE
  5
175
  8
1
 62
     3
 10
-664.0
 20
51.071494042163209
 30
0.0
 40
3.0
  0
CIRCLE
  5
176
  8
1
 62
     7
 10
-664.0
 20
51.071494042163209
 30
0.0
 40
2.5
  0
CIRCLE
  5
177
  8
1
 62
     3
 10
-709.03332099679074
 20
25.07149404216322
 30
0.0
 40
2.9999999999999929
  0
CIRCLE
  5
178
  8
1
 62
     7
 10
-709.03332099679074
 20
25.07149404216322
 30
0.0
 40
2.5000000000000022
  0
CIRCLE
  5
179
  8
1
 62
     3
 10
-709.03332099679074
 20
-26.928505957836791
 30
0.0
 40
3.0000000000000031
  0
CIRCLE
  5
17A
  8
1
 62
     7
 10
-709.03332099679074
 20
-26.928505957836791
 30
0.0
 40
2.5000000000000111
  0
CIRCLE
  5
17B
  8
1
 62
     3
 10
-664.0
 20
-52.928505957836812
 30
0.0
 40
3.0
  0
CIRCLE
  5
17C
  8
1
 62
     7
 10
-664.0
 20
-52.928505957836812
 30
0.0
 40
2.5
  0
CIRCLE
  5
17D
  8
1
 62
     3
 10
-618.96667900320915
 20
-26.928505957836801
 30
0.0
 40
2.999999999999996
  0
CIRCLE
  5
17E
  8
1
 62
     7
 10
-618.96667900320915
 20
-26.928505957836801
 30
0.0
 40
2.500000000000004
  0
CIRCLE
  5
17F
  8
1
 62
     3
 10
-618.96667900320915
 20
25.07149404216317
 30
0.0
 40
3.0000000000000222
  0
CIRCLE
  5
180
  8
1
 62
     7
 10
-618.96667900320915
 20
25.07149404216317
 30
0.0
 40
2.5000000000000022
  0
CIRCLE
  5
181
  8
1
 62
     7
 10
-664.0
 20
-0.9285059578367908
 30
0.0
 40
66.5
  0
TEXT
  5
182
  8
1
 62
     7
 10
-729.61191770849734
 20
90.189847877222192
 30
0.0
 40
6.0
  1
MDB 10
 41
0.9
  7
SIMPLEX
 72
     1
 11
-714.82620342278301
 21
90.189847877222192
 31
0.0
  0
ENDSEC
  0
EOF
