  0
SECTION
  2
HEADER
  9
$ACADVER
  1
AC1009
  9
$INSBASE
 10
0
 20
0
  9
$EXTMIN
 10
-731.5
 20
-68.42850595783679
  9
$EXTMAX
 10
-276.5
 20
96.18984787722219
  9
$LIMMIN
 10
-731.5
 20
-68.42850595783679
  9
$LIMMAX
 10
-276.5
 20
96.18984787722219
  9
$VIEWCTR
 10
10
 20
10
  9
$VIEWSIZE
 40
10
  9
$SNAPMODE
 70
0
  9
$SNAPUNIT
 10
1
 20
1
  9
$SNAPBASE
 10
0
 20
0
  9
$SNAPANG
 50
0
  9
$SNAPSTYLE
 70
0
  9
$SNAPISOPAIR
 70
0
  9
$GRIDMODE
 70
0
  9
$GRIDUNIT
 10
0
 20
0
  9
$ORTHOMODE
 70
0
  9
$REGENMODE
 70
1
  9
$FILLMODE
 70
1
  9
$QTEXTMODE
 70
0
  9
$DRAGMODE
 70
2
  9
$LTSCALE
 40
1
  9
$OSMODE
 70
0
  9
$ATTMODE
 70
1
  9
$TEXTSIZE
 40
3.5
  9
$TRACEWID
 40
0.5
  9
$TEXTSTYLE
  7
STANDARD
  9
$CLAYER
  8
0
  9
$CELTYPE
  6
BYLAYER
  9
$CECOLOR
 62
256
  9
$DIMSCALE
 40
1
  9
$DIMASZ
 40
0.18
  9
$DIMEXO
 40
0.0625
  9
$DIMDLI
 40
0.38
  9
$DIMRND
 40
0
  9
$DIMDLE
 40
0
  9
$DIMEXE
 40
0.18
  9
$DIMTP
 40
0
  9
$DIMTM
 40
0
  9
$DIMTXT
 40
0.18
  9
$DIMCEN
 40
0.09
  9
$DIMTSZ
 40
0
  9
$DIMTOL
 70
0
  9
$DIMLIM
 70
0
  9
$DIMTIH
 70
1
  9
$DIMTOH
 70
1
  9
$DIMSE1
 70
0
  9
$DIMSE2
 70
0
  9
$DIMTAD
 70
0
  9
$DIMZIN
 70
0
  9
$DIMBLK
  1

  9
$DIMASO
 70
1
  9
$DIMSHO
 70
1
  9
$DIMPOST
  1

  9
$DIMAPOST
  1

  9
$DIMALT
 70
0
  9
$DIMALTD
 70
2
  9
$DIMALTF
 40
25.4
  9
$DIMLFAC
 40
1
  9
$DIMTOFL
 70
0
  9
$DIMTVP
 40
0
  9
$DIMTIX
 70
0
  9
$DIMSOXD
 70
0
  9
$DIMSAH
 70
0
  9
$DIMBLK1
  1

  9
$DIMBLK2
  1

  9
$DIMSTYLE
  2
*UNNAMED
  9
$DIMCLRD
 70
0
  9
$DIMCLRE
 70
0
  9
$DIMCLRT
 70
0
  9
$DIMTFAC
 40
1
  9
$DIMGAP
 40
0.09
  9
$LUNITS
 70
2
  9
$LUPREC
 70
4
  9
$AXISMODE
 70
0
  9
$AXISUNIT
 10
0
 20
0
  9
$SKETCHINC
 40
0.1
  9
$FILLETRAD
 40
2
  9
$AUNITS
 70
0
  9
$AUPREC
 70
0
  9
$MENU
  1
ACAD
  9
$ELEVATION
 40
0
  9
$THICKNESS
 40
0
  9
$VIEWDIR
 10
0
 20
0
 30
1
  9
$LIMCHECK
 70
0
  9
$BLIPMODE
 70
1
  9
$CHAMFERA
 40
0
  9
$CHAMFERB
 40
0
  9
$FASTZOOM
 70
1
  9
$SKPOLY
 70
0
  9
$ANGBASE
 50
0
  9
$ANGDIR
 70
0
  9
$PDMODE
 70
0
  9
$PDSIZE
 40
0
  9
$PLINEWID
 40
0
  9
$COORDS
 70
2
  0
ENDSEC
  0
SECTION
  2
TABLES
  0
TABLE
  2
DIMSTYLE
 70
0
  0
ENDTAB
  0
TABLE
  2
LTYPE
 70
9
  0
LTYPE
  2
CONTINUOUS
 70
64
  3
Solid line
 72
65
 73
0
 40
0
  0
LTYPE
  2
BORDER
 70
64
  3
__ __ . __ __ .
 72
65
 73
6
 40
20.95394736842105
 49
5.986842105263158
 49
-2.993421052631579
 49
5.986842105263158
 49
-2.993421052631579
 49
0
 49
-2.993421052631579
  0
LTYPE
  2
CENTER
 70
64
  3
____ _ ____ _
 72
65
 73
4
 40
23.94736842105263
 49
14.96710526315789
 49
-2.993421052631579
 49
2.993421052631579
 49
-2.993421052631579
  0
LTYPE
  2
DASHDOT
 70
64
  3
__ . __ . __ .
 72
65
 73
4
 40
11.97368421052632
 49
5.986842105263158
 49
-2.993421052631579
 49
0
 49
-2.993421052631579
  0
LTYPE
  2
DASHED
 70
64
  3
__ __ __ __ __
 72
65
 73
2
 40
8.980263157894736
 49
5.986842105263158
 49
-2.993421052631579
  0
LTYPE
  2
DIVIDE
 70
64
  3
__ . . __ . . 
 72
65
 73
6
 40
14.96710526315789
 49
5.986842105263158
 49
-2.993421052631579
 49
0
 49
-2.993421052631579
 49
0
 49
-2.993421052631579
  0
LTYPE
  2
DOT
 70
64
  3
..............
 72
65
 73
4
 40
5.986842105263158
 49
0
 49
-2.993421052631579
 49
0
 49
-2.993421052631579
  0
LTYPE
  2
HIDDEN
 70
64
  3
_ _ _ _ _ _ _
 72
65
 73
2
 40
4.490131578947368
 49
2.993421052631579
 49
-1.496710526315789
  0
LTYPE
  2
PHANTOM
 70
64
  3
_____ _ _ _____ _ _ 
 72
65
 73
6
 40
29.93421052631579
 49
14.96710526315789
 49
-2.993421052631579
 49
2.993421052631579
 49
-2.993421052631579
 49
2.993421052631579
 49
-2.993421052631579
  0
ENDTAB
  0
TABLE
  2
LAYER
 70
3
  0
LAYER
  2
1
 70
0
 62
7
  6
CONTINUOUS
  0
LAYER
  2
0
 70
0
 62
7
  6
CONTINUOUS
  0
ENDTAB
  0
TABLE
  2
STYLE
 70
4
  0
STYLE
  2
STANDARD
 70
0
 40
0
 41
1
 50
0
 71
0
 42
3.5
  3
txt
  4

  0
STYLE
  2
SIMPLEX
 70
0
 40
0
 41
1
 50
0
 71
0
 42
3.5
  3
simplex
  4

  0
STYLE
  2
COMPLEX
 70
0
 40
0
 41
1
 50
0
 71
0
 42
3.5
  3
complex
  4

  0
STYLE
  2
ITALIC
 70
0
 40
0
 41
1
 50
0
 71
0
 42
3.5
  3
italic
  4

  0
ENDTAB
  0
TABLE
  2
VIEW
 70
0
  0
ENDTAB
  0
ENDSEC
  0
SECTION
  2
BLOCKS
  0
ENDSEC
  0
SECTION
  2
ENTITIES
  0
LINE
  8
1
 62
3
  6
DASHDOT
 10
-476
 20
-52.92850595783679
 30
0
 11
-492.5003549182926
 21
-52.92850595783679
 31
0
  0
LINE
  8
1
 62
3
 10
-483.4611244337513
 20
-50.52850595783679
 30
0
 11
-484.5003549182926
 21
-49.92850595783679
 31
0
  0
LINE
  8
1
 62
3
 10
-483.4611244337513
 20
-55.32850595783679
 30
0
 11
-484.5003549182926
 21
-55.92850595783679
 31
0
  0
LINE
  8
1
 62
3
 10
-490.5003549182926
 20
-49.92850595783679
 30
0
 11
-484.5003549182926
 21
-49.92850595783679
 31
0
  0
LINE
  8
1
 62
3
 10
-484.5003549182926
 20
-49.92850595783679
 30
0
 11
-484.5003549182926
 21
-55.92850595783679
 31
0
  0
LINE
  8
1
 62
3
 10
-484.5003549182926
 20
-55.92850595783679
 30
0
 11
-490.5003549182926
 21
-55.92850595783679
 31
0
  0
LINE
  8
1
 62
7
 10
-479.7003549182926
 20
-50.52850595783679
 30
0
 11
-477.9683041107238
 21
-52.92850595783679
 31
0
  0
LINE
  8
1
 62
7
 10
-477.9683041107238
 20
-52.92850595783679
 30
0
 11
-479.7003549182926
 21
-55.32850595783679
 31
0
  0
LINE
  8
1
 62
7
 10
-490.5003549182926
 20
-50.52850595783679
 30
0
 11
-479.7003549182926
 21
-50.52850595783679
 31
0
  0
LINE
  8
1
 62
7
 10
-479.7003549182926
 20
-50.52850595783679
 30
0
 11
-479.7003549182926
 21
-55.32850595783679
 31
0
  0
LINE
  8
1
 62
7
 10
-479.7003549182926
 20
-55.32850595783679
 30
0
 11
-490.5003549182926
 21
-55.32850595783679
 31
0
  0
LINE
  8
1
 62
3
  6
DASHDOT
 10
-492.5003549182926
 20
51.07149404216321
 30
0
 11
-476
 21
51.07149404216321
 31
0
  0
LINE
  8
1
 62
3
 10
-484.5003549182926
 20
48.07149404216321
 30
0
 11
-483.4611244337513
 21
48.67149404216321
 31
0
  0
LINE
  8
1
 62
3
 10
-484.5003549182926
 20
54.07149404216321
 30
0
 11
-483.4611244337513
 21
53.47149404216321
 31
0
  0
LINE
  8
1
 62
3
 10
-484.5003549182926
 20
48.07149404216321
 30
0
 11
-490.5003549182926
 21
48.07149404216321
 31
0
  0
LINE
  8
1
 62
3
 10
-484.5003549182926
 20
54.07149404216321
 30
0
 11
-484.5003549182926
 21
48.07149404216321
 31
0
  0
LINE
  8
1
 62
3
 10
-490.5003549182926
 20
54.07149404216321
 30
0
 11
-484.5003549182926
 21
54.07149404216321
 31
0
  0
LINE
  8
1
 62
7
 10
-477.9683041107238
 20
51.07149404216321
 30
0
 11
-479.7003549182926
 21
48.67149404216321
 31
0
  0
LINE
  8
1
 62
7
 10
-479.7003549182926
 20
53.47149404216321
 30
0
 11
-477.9683041107238
 21
51.07149404216321
 31
0
  0
LINE
  8
1
 62
7
 10
-479.7003549182926
 20
48.67149404216321
 30
0
 11
-490.5003549182926
 21
48.67149404216321
 31
0
  0
LINE
  8
1
 62
7
 10
-479.7003549182926
 20
53.47149404216321
 30
0
 11
-479.7003549182926
 21
48.67149404216321
 31
0
  0
LINE
  8
1
 62
7
 10
-490.5003549182926
 20
53.47149404216321
 30
0
 11
-479.7003549182926
 21
53.47149404216321
 31
0
  0
LINE
  8
1
 62
7
 10
-350
 20
21.57149404216321
 30
0
 11
-338
 21
21.57149404216321
 31
0
  0
LINE
  8
1
 62
7
 10
-338
 20
21.57149404216321
 30
0
 11
-338
 21
18.15027807050213
 31
0
  0
LINE
  8
1
 62
7
 10
-350
 20
21.57149404216321
 30
0
 11
-350
 21
18.15027807050213
 31
0
  0
LINE
  8
1
 62
7
 10
-344
 20
66.57149404216321
 30
0
 11
-344
 21
73.76308914156471
 31
0
  0
LINE
  8
1
 62
7
 10
-343
 20
86.57149404216321
 30
0
 11
-343
 21
81.57149404216321
 31
0
  0
LINE
  8
1
 62
7
 10
-345
 20
86.57149404216321
 30
0
 11
-345
 21
81.57149404216321
 31
0
  0
LINE
  8
1
 62
7
 10
-342.8
 20
86.57149404216321
 30
0
 11
-342.8
 21
81.57149404216321
 31
0
  0
LINE
  8
1
 62
7
 10
-342.6
 20
86.57149404216321
 30
0
 11
-342.6
 21
81.57149404216321
 31
0
  0
LINE
  8
1
 62
7
 10
-343.2000000000001
 20
86.57149404216321
 30
0
 11
-343.2000000000001
 21
81.57149404216321
 31
0
  0
LINE
  8
1
 62
7
 10
-343.4
 20
86.57149404216321
 30
0
 11
-343.4
 21
81.57149404216321
 31
0
  0
LINE
  8
1
 62
7
 10
-344.8
 20
86.57149404216321
 30
0
 11
-344.8
 21
81.57149404216321
 31
0
  0
LINE
  8
1
 62
7
 10
-344.6
 20
86.57149404216321
 30
0
 11
-344.6
 21
81.57149404216321
 31
0
  0
LINE
  8
1
 62
7
 10
-345.2000000000001
 20
86.57149404216321
 30
0
 11
-345.2000000000001
 21
81.57149404216321
 31
0
  0
LINE
  8
1
 62
7
 10
-345.4
 20
86.57149404216321
 30
0
 11
-345.4
 21
81.57149404216321
 31
0
  0
LINE
  8
1
 62
7
 10
-346
 20
81.57149404216321
 30
0
 11
-342
 21
81.57149404216321
 31
0
  0
LINE
  8
1
 62
7
 10
-342
 20
81.57149404216321
 30
0
 11
-342
 21
75.38083465961501
 31
0
  0
LINE
  8
1
 62
7
 10
-346
 20
66.52268450104975
 30
0
 11
-346
 21
73.76308914156471
 31
0
  0
LINE
  8
1
 62
7
 10
-344
 20
81.57149404216321
 30
0
 11
-344
 21
75.38083465961501
 31
0
  0
LINE
  8
1
 62
7
 10
-342
 20
73.76308914156471
 30
0
 11
-342
 21
66.52268450104975
 31
0
  0
LINE
  8
1
 62
7
 10
-346
 20
75.38083465961501
 30
0
 11
-346
 21
81.57149404216321
 31
0
  0
LINE
  8
1
 62
7
 10
-664
 20
66.57149404216321
 30
0
 11
-664
 21
73.76308914156471
 31
0
  0
LINE
  8
1
 62
3
  6
DASHDOT
 10
-395.0954988232819
 20
-30.42850595783679
 30
0
 11
-403.3227401592341
 21
-35.17850595783678
 31
0
  0
LINE
  8
1
 62
3
  6
DASHDOT
 10
-284.6772598407659
 20
-35.17850595783678
 30
0
 11
-292.9045011767181
 21
-30.42850595783679
 31
0
  0
LINE
  8
1
 62
3
  6
DASHDOT
 10
-403.3227401592341
 20
33.3214940421632
 30
0
 11
-395.0954988232819
 21
28.57149404216321
 31
0
  0
LINE
  8
1
 62
3
  6
DASHDOT
 10
-292.9045011767181
 20
28.57149404216321
 30
0
 11
-284.6772598407659
 21
33.3214940421632
 31
0
  0
LINE
  8
1
 62
7
 10
-294.1724503691493
 20
34.76764646486973
 30
0
 11
-288.1724503691493
 21
24.37534161945646
 31
0
  0
LINE
  8
1
 62
7
 10
-288.7746833413506
 20
37.8840487113923
 30
0
 11
-294.1724503691493
 21
34.76764646486973
 31
0
  0
LINE
  8
1
 62
7
 10
-282.7746833413506
 20
27.49174386597903
 30
0
 11
-288.1724503691493
 21
24.37534161945646
 31
0
  0
LINE
  8
1
 62
7
 10
-288.1724503691494
 20
-26.23235353513019
 30
0
 11
-294.1724503691494
 21
-36.62465838054345
 31
0
  0
LINE
  8
1
 62
7
 10
-282.7746833413506
 20
-29.34875578165259
 30
0
 11
-288.1724503691494
 21
-26.23235353513019
 31
0
  0
LINE
  8
1
 62
7
 10
-288.7746833413506
 20
-39.74106062706585
 30
0
 11
-294.1724503691494
 21
-36.62465838054345
 31
0
  0
LINE
  8
1
 62
7
 10
-338.0000000000001
 20
-61.92850595783671
 30
0
 11
-350.0000000000001
 21
-61.92850595783671
 31
0
  0
LINE
  8
1
 62
7
 10
-338
 20
-68.16131045088167
 30
0
 11
-338.0000000000001
 21
-61.92850595783671
 31
0
  0
LINE
  8
1
 62
7
 10
-350
 20
-68.16131045088167
 30
0
 11
-350.0000000000001
 21
-61.92850595783671
 31
0
  0
LINE
  8
1
 62
7
 10
-393.8275496308507
 20
-36.62465838054334
 30
0
 11
-399.8275496308507
 21
-26.23235353513007
 31
0
  0
LINE
  8
1
 62
7
 10
-399.2253166586494
 20
-39.74106062706585
 30
0
 11
-393.8275496308507
 21
-36.62465838054334
 31
0
  0
LINE
  8
1
 62
7
 10
-405.2253166586494
 20
-29.34875578165259
 30
0
 11
-399.8275496308507
 21
-26.23235353513007
 31
0
  0
LINE
  8
1
 62
7
 10
-399.8275496308507
 20
24.37534161945661
 30
0
 11
-393.8275496308507
 21
34.76764646486987
 31
0
  0
LINE
  8
1
 62
7
 10
-405.2253166586494
 20
27.49174386597906
 30
0
 11
-399.8275496308507
 21
24.37534161945661
 31
0
  0
LINE
  8
1
 62
7
 10
-399.2253166586494
 20
37.88404871139233
 30
0
 11
-393.8275496308507
 21
34.76764646486987
 31
0
  0
LINE
  8
1
 62
7
 10
-350
 20
60.07149404216321
 30
0
 11
-338
 21
60.07149404216321
 31
0
  0
LINE
  8
1
 62
7
 10
-350
 20
66.30429853520812
 30
0
 11
-350
 21
60.07149404216321
 31
0
  0
LINE
  8
1
 62
7
 10
-338
 20
66.30429853520812
 30
0
 11
-338
 21
60.07149404216321
 31
0
  0
LINE
  8
1
 62
7
 10
-572.5003549182925
 20
65.57149404216321
 30
0
 11
-572.5003549182925
 21
-0.9285059578367907
 31
0
  0
LINE
  8
1
 62
7
 10
-521.7003549182923
 20
59.07149404216321
 30
0
 11
-515.3003549182923
 21
59.07149404216321
 31
0
  0
LINE
  8
1
 62
7
 10
-513.3003549182923
 20
42.78280118621402
 30
0
 11
-515.3003549182923
 21
59.07149404216321
 31
0
  0
LINE
  8
1
 62
7
 10
-512.5003549182925
 20
31.0714940421633
 30
0
 11
-513.3003549182923
 21
31.0714940421633
 31
0
  0
LINE
  8
1
 62
7
 10
-535.5003549182925
 20
57.52149404216323
 30
0
 11
-534.5003549182925
 21
57.52149404216323
 31
0
  0
LINE
  8
1
 62
7
 10
-534.5003549182925
 20
26.73869506976676
 30
0
 11
-534.5003549182925
 21
-0.9285059578367907
 31
0
  0
LINE
  8
1
 62
7
 10
-520.3003549182923
 20
59.07149404216321
 30
0
 11
-520.3003549182923
 21
-0.9285059578367907
 31
0
  0
LINE
  8
1
 62
7
 10
-515.3003549182923
 20
59.07149404216321
 30
0
 11
-515.3003549182923
 21
-0.9285059578367907
 31
0
  0
LINE
  8
1
 62
7
 10
-513.3003549182923
 20
42.78280118621402
 30
0
 11
-513.3003549182923
 21
-0.9285059578367907
 31
0
  0
LINE
  8
1
 62
7
 10
-512.5003549182925
 20
31.0714940421633
 30
0
 11
-512.5003549182925
 21
-0.9285059578367907
 31
0
  0
LINE
  8
1
 62
7
 10
-535.5003549182925
 20
66.57149404216321
 30
0
 11
-571.5003549182925
 21
66.57149404216321
 31
0
  0
LINE
  8
1
 62
7
 10
-535.5003549182925
 20
37.88404871139238
 30
0
 11
-535.5003549182925
 21
66.57149404216321
 31
0
  0
LINE
  8
1
 62
7
 10
-520.3003549182923
 20
66.57149404216321
 30
0
 11
-535.5003549182925
 21
66.57149404216321
 31
0
  0
LINE
  8
1
 62
7
 10
-534.5003549182925
 20
60.27811133147271
 30
0
 11
-535.5003549182925
 21
60.27811133147271
 31
0
  0
LINE
  8
1
 62
7
 10
-520.3003549182923
 20
60.27811133147271
 30
0
 11
-521.7003549182923
 21
60.27811133147271
 31
0
  0
LINE
  8
1
 62
7
 10
-534.5003549182925
 20
65.07149404216321
 30
0
 11
-521.7003549182923
 21
65.07149404216322
 31
0
  0
LINE
  8
1
 62
7
 10
-534.5003549182925
 20
24.7298388605397
 30
0
 11
-535.5003549182925
 21
24.7298388605397
 31
0
  0
LINE
  8
1
 62
7
 10
-520.3003549182923
 20
27.49174386597909
 30
0
 11
-535.5003549182925
 21
27.49174386597909
 31
0
  0
LINE
  8
1
 62
7
 10
-520.3003549182923
 20
37.88404871139238
 30
0
 11
-535.5003549182925
 21
37.88404871139238
 31
0
  0
LINE
  8
1
 62
7
 10
-520.3003549182923
 20
24.7298388605397
 30
0
 11
-521.7003549182923
 21
24.7298388605397
 31
0
  0
LINE
  8
1
 62
7
 10
-534.5003549182925
 20
65.07149404216321
 30
0
 11
-534.5003549182925
 21
37.88404871139238
 31
0
  0
LINE
  8
1
 62
7
 10
-521.7003549182923
 20
26.73869506976676
 30
0
 11
-534.5003549182925
 21
26.73869506976676
 31
0
  0
LINE
  8
1
 62
7
 10
-521.7003549182923
 20
-0.9285059578367907
 30
0
 11
-521.7003549182923
 21
26.73869506976676
 31
0
  0
LINE
  8
1
 62
7
 10
-521.7003549182923
 20
65.07149404216322
 30
0
 11
-521.7003549182923
 21
37.88404871139238
 31
0
  0
LINE
  8
1
 62
7
 10
-520.3003549182923
 20
66.57149404216321
 30
0
 11
-520.3003549182923
 21
60.27811133147271
 31
0
  0
LINE
  8
1
 62
3
 10
-534.5003549182925
 20
65.07149404216321
 30
0
 11
-521.7003549182923
 21
37.88404871139238
 31
0
  0
LINE
  8
1
 62
3
 10
-521.7003549182923
 20
65.07149404216322
 30
0
 11
-534.5003549182925
 21
37.88404871139238
 31
0
  0
LINE
  8
1
 62
7
 10
-535.5003549182925
 20
-0.9285059578367907
 30
0
 11
-535.5003549182925
 21
27.49174386597909
 31
0
  0
LINE
  8
1
 62
7
 10
-572.5003549182925
 20
65.57149404216321
 30
0
 11
-571.5003549182925
 21
66.57149404216321
 31
0
  0
LINE
  8
1
 62
7
 10
-571.5003549182925
 20
-0.9285059578367907
 30
0
 11
-571.5003549182925
 21
66.57149404216321
 31
0
  0
LINE
  8
1
 62
7
 10
-572.5003549182925
 20
-0.9285059578367907
 30
0
 11
-572.5003549182925
 21
-67.42850595783679
 31
0
  0
LINE
  8
1
 62
7
 10
-469.0003549182926
 20
-24.42850595783679
 30
0
 11
-469.0003549182926
 21
-29.42850595783679
 31
0
  0
LINE
  8
1
 62
3
 10
-438.3003549182924
 20
-28.42850595783679
 30
0
 11
-452.5003549182926
 21
-66.92850595783679
 31
0
  0
LINE
  8
1
 62
3
 10
-452.5003549182926
 20
-28.42850595783679
 30
0
 11
-439.7003549182924
 21
-66.92850595783681
 31
0
  0
LINE
  8
1
 62
7
 10
-430.5003549182926
 20
-28.42850595783679
 30
0
 11
-452.5003549182926
 21
-28.42850595783679
 31
0
  0
LINE
  8
1
 62
7
 10
-434.5003549182926
 20
-32.92850595783679
 30
0
 11
-452.5003549182926
 21
-32.92850595783679
 31
0
  0
LINE
  8
1
 62
7
 10
-433.0003549182926
 20
-31.17850595783679
 30
0
 11
-434.5003549182926
 21
-31.17850595783679
 31
0
  0
LINE
  8
1
 62
7
 10
-430.5003549182926
 20
-0.9285059578367907
 30
0
 11
-430.5003549182926
 21
-32.92850595783688
 31
0
  0
LINE
  8
1
 62
7
 10
-430.5003549182926
 20
-32.92850595783688
 30
0
 11
-433.0003549182926
 21
-32.92850595783679
 31
0
  0
LINE
  8
1
 62
7
 10
-433.0003549182926
 20
-33.47850595783679
 30
0
 11
-433.0003549182926
 21
-31.17850595783679
 31
0
  0
LINE
  8
1
 62
7
 10
-469.0003549182926
 20
-26.92850595783679
 30
0
 11
-452.5003549182926
 21
-26.92850595783679
 31
0
  0
LINE
  8
1
 62
7
 10
-452.5003549182926
 20
-66.92850595783679
 30
0
 11
-452.5003549182926
 21
-26.92850595783679
 31
0
  0
LINE
  8
1
 62
7
 10
-452.5003549182926
 20
-59.3785059578368
 30
0
 11
-461.0003549182926
 21
-59.37850595783682
 31
0
  0
LINE
  8
1
 62
7
 10
-439.7003549182924
 20
-60.92850595783679
 30
0
 11
-433.3003549182924
 21
-60.92850595783679
 31
0
  0
LINE
  8
1
 62
7
 10
-433.3003549182924
 20
-60.92850595783679
 30
0
 11
-431.3003549182924
 21
-44.6398131018876
 31
0
  0
LINE
  8
1
 62
7
 10
-431.3003549182924
 20
-44.6398131018876
 30
0
 11
-431.3003549182924
 21
-34.0851966053188
 31
0
  0
LINE
  8
1
 62
7
 10
-431.3003549182924
 20
-35.92850595783679
 30
0
 11
-434.5003549182926
 21
-35.92850595783679
 31
0
  0
LINE
  8
1
 62
7
 10
-434.5003549182926
 20
-35.92850595783679
 30
0
 11
-434.5003549182926
 21
-29.17850595783679
 31
0
  0
LINE
  8
1
 62
7
 10
-434.5003549182926
 20
-29.17850595783679
 30
0
 11
-438.3003549182924
 21
-29.17850595783679
 31
0
  0
LINE
  8
1
 62
7
 10
-434.5003549182926
 20
-33.42850595783679
 30
0
 11
-438.3003549182924
 21
-33.42850595783679
 31
0
  0
LINE
  8
1
 62
7
 10
-439.7003549182924
 20
-66.92850595783681
 30
0
 11
-452.5003549182926
 21
-66.92850595783679
 31
0
  0
LINE
  8
1
 62
7
 10
-433.0003549182926
 20
-33.47850595783679
 30
0
 11
-434.5003549182926
 21
-33.47850595783679
 31
0
  0
LINE
  8
1
 62
7
 10
-473.5003549182926
 20
-23.42850595783679
 30
0
 11
-430.5003549182926
 21
-23.42850595783679
 31
0
  0
LINE
  8
1
 62
7
 10
-461.0003549182926
 20
-53.92850595783679
 30
0
 11
-461.0003549182926
 21
-59.37850595783682
 31
0
  0
LINE
  8
1
 62
7
 10
-459.5003549182926
 20
-53.92850595783679
 30
0
 11
-461.0003549182926
 21
-53.92850595783679
 31
0
  0
LINE
  8
1
 62
7
 10
-459.5003549182926
 20
-38.12850595783679
 30
0
 11
-459.5003549182926
 21
-53.92850595783679
 31
0
  0
LINE
  8
1
 62
7
 10
-467.5003549182926
 20
-38.12850595783679
 30
0
 11
-459.5003549182926
 21
-38.12850595783679
 31
0
  0
LINE
  8
1
 62
7
 10
-467.5003549182926
 20
-28.92850595783679
 30
0
 11
-467.5003549182926
 21
-38.12850595783679
 31
0
  0
LINE
  8
1
 62
7
 10
-469.0003549182926
 20
-28.92850595783679
 30
0
 11
-467.5003549182926
 21
-28.92850595783679
 31
0
  0
LINE
  8
1
 62
7
 10
-469.0003549182926
 20
-29.42850595783679
 30
0
 11
-471.0003549182926
 21
-29.42850595783679
 31
0
  0
LINE
  8
1
 62
7
 10
-471.0003549182926
 20
-24.42850595783679
 30
0
 11
-469.0003549182926
 21
-24.42850595783679
 31
0
  0
LINE
  8
1
 62
7
 10
-471.0003549182926
 20
-29.42850595783679
 30
0
 11
-471.0003549182926
 21
-24.42850595783679
 31
0
  0
LINE
  8
1
 62
7
 10
-473.5003549182926
 20
-25.92850595783679
 30
0
 11
-471.0003549182926
 21
-25.92850595783679
 31
0
  0
LINE
  8
1
 62
7
 10
-473.5003549182926
 20
-0.9285059578367907
 30
0
 11
-473.5003549182926
 21
-25.92850595783679
 31
0
  0
LINE
  8
1
 62
7
 10
-430.5003549182926
 20
-20.92850595783679
 30
0
 11
-473.5003549182926
 21
-20.92850595783679
 31
0
  0
LINE
  8
1
 62
7
 10
-438.3003549182924
 20
-28.42850595783679
 30
0
 11
-438.3003549182924
 21
-60.92850595783679
 31
0
  0
LINE
  8
1
 62
7
 10
-439.7003549182924
 20
-66.92850595783681
 30
0
 11
-439.7003549182924
 21
-60.92850595783679
 31
0
  0
LINE
  8
1
 62
7
 10
-489.5003549182926
 20
-68.42850595783679
 30
0
 11
-438.3003549182924
 21
-68.42850595783679
 31
0
  0
LINE
  8
1
 62
7
 10
-438.3003549182924
 20
-62.42850595783679
 30
0
 11
-438.3003549182924
 21
-68.42850595783679
 31
0
  0
LINE
  8
1
 62
7
 10
-438.3003549182924
 20
-62.42850595783679
 30
0
 11
-453.5003549182926
 21
-62.42850595783679
 31
0
  0
LINE
  8
1
 62
7
 10
-453.5003549182926
 20
-68.42850595783679
 30
0
 11
-453.5003549182926
 21
-60.92850595783679
 31
0
  0
LINE
  8
1
 62
7
 10
-453.5003549182926
 20
-60.92850595783679
 30
0
 11
-462.5003549182926
 21
-60.92850595783679
 31
0
  0
LINE
  8
1
 62
7
 10
-462.5003549182926
 20
-44.92850595783679
 30
0
 11
-462.5003549182926
 21
-60.92850595783679
 31
0
  0
LINE
  8
1
 62
7
 10
-461.0003549182926
 20
-43.42850595783679
 30
0
 11
-462.5003549182926
 21
-44.92850595783679
 31
0
  0
LINE
  8
1
 62
7
 10
-461.0003549182926
 20
-38.42850595783679
 30
0
 11
-461.0003549182926
 21
-43.42850595783679
 31
0
  0
LINE
  8
1
 62
7
 10
-490.5003549182926
 20
-38.42850595783679
 30
0
 11
-461.0003549182926
 21
-38.42850595783679
 31
0
  0
LINE
  8
1
 62
7
 10
-485.5003549182926
 20
-0.9285059578367907
 30
0
 11
-485.5003549182926
 21
-38.42850595783679
 31
0
  0
LINE
  8
1
 62
7
 10
-490.5003549182926
 20
-0.9285059578367907
 30
0
 11
-490.5003549182926
 21
-67.42850595783679
 31
0
  0
LINE
  8
1
 62
7
 10
-489.5003549182926
 20
-68.42850595783679
 30
0
 11
-490.5003549182926
 21
-67.42850595783679
 31
0
  0
LINE
  8
1
 62
7
 10
-561.0003549182925
 20
66.57149404216321
 30
0
 11
-561.0003549182925
 21
73.76308914156471
 31
0
  0
LINE
  8
1
 62
3
  6
DASHDOT
 10
-578.6928847074764
 20
-0.9285059578367907
 30
0
 11
-572.5003549182925
 21
-0.9285059578367907
 31
0
  0
LINE
  8
1
 62
7
 10
-515.3003549182923
 20
-60.92850595783679
 30
0
 11
-521.7003549182923
 21
-60.92850595783679
 31
0
  0
LINE
  8
1
 62
7
 10
-515.3003549182923
 20
-60.92850595783679
 30
0
 11
-513.3003549182923
 21
-44.6398131018876
 31
0
  0
LINE
  8
1
 62
7
 10
-513.3003549182923
 20
-32.92850595783688
 30
0
 11
-512.5003549182925
 21
-32.92850595783688
 31
0
  0
LINE
  8
1
 62
7
 10
-534.5003549182925
 20
-59.3785059578368
 30
0
 11
-535.5003549182925
 21
-59.3785059578368
 31
0
  0
LINE
  8
1
 62
7
 10
-534.5003549182925
 20
-0.9285059578367907
 30
0
 11
-534.5003549182925
 21
-28.59570698544034
 31
0
  0
LINE
  8
1
 62
7
 10
-520.3003549182923
 20
-0.9285059578367907
 30
0
 11
-520.3003549182923
 21
-60.92850595783679
 31
0
  0
LINE
  8
1
 62
7
 10
-515.3003549182923
 20
-0.9285059578367907
 30
0
 11
-515.3003549182923
 21
-60.92850595783679
 31
0
  0
LINE
  8
1
 62
7
 10
-513.3003549182923
 20
-0.9285059578367907
 30
0
 11
-513.3003549182923
 21
-44.6398131018876
 31
0
  0
LINE
  8
1
 62
7
 10
-512.5003549182925
 20
-0.9285059578367907
 30
0
 11
-512.5003549182925
 21
-32.92850595783688
 31
0
  0
LINE
  8
1
 62
7
 10
-571.5003549182925
 20
-68.42850595783679
 30
0
 11
-535.5003549182925
 21
-68.42850595783679
 31
0
  0
LINE
  8
1
 62
7
 10
-535.5003549182925
 20
-68.42850595783679
 30
0
 11
-535.5003549182925
 21
-39.74106062706596
 31
0
  0
LINE
  8
1
 62
7
 10
-535.5003549182925
 20
-68.42850595783679
 30
0
 11
-520.3003549182923
 21
-68.42850595783679
 31
0
  0
LINE
  8
1
 62
7
 10
-535.5003549182925
 20
-62.13512324714628
 30
0
 11
-534.5003549182925
 21
-62.13512324714628
 31
0
  0
LINE
  8
1
 62
7
 10
-521.7003549182923
 20
-62.13512324714628
 30
0
 11
-520.3003549182923
 21
-62.13512324714628
 31
0
  0
LINE
  8
1
 62
7
 10
-521.7003549182923
 20
-66.92850595783681
 30
0
 11
-534.5003549182925
 21
-66.92850595783679
 31
0
  0
LINE
  8
1
 62
7
 10
-535.5003549182925
 20
-26.58685077621328
 30
0
 11
-534.5003549182925
 21
-26.58685077621328
 31
0
  0
LINE
  8
1
 62
7
 10
-535.5003549182925
 20
-29.34875578165267
 30
0
 11
-520.3003549182923
 21
-29.34875578165267
 31
0
  0
LINE
  8
1
 62
7
 10
-535.5003549182925
 20
-39.74106062706596
 30
0
 11
-520.3003549182923
 21
-39.74106062706596
 31
0
  0
LINE
  8
1
 62
7
 10
-521.7003549182923
 20
-26.58685077621328
 30
0
 11
-520.3003549182923
 21
-26.58685077621328
 31
0
  0
LINE
  8
1
 62
7
 10
-534.5003549182925
 20
-39.74106062706596
 30
0
 11
-534.5003549182925
 21
-66.92850595783679
 31
0
  0
LINE
  8
1
 62
7
 10
-534.5003549182925
 20
-28.59570698544034
 30
0
 11
-521.7003549182923
 21
-28.59570698544034
 31
0
  0
LINE
  8
1
 62
7
 10
-521.7003549182923
 20
-28.59570698544034
 30
0
 11
-521.7003549182923
 21
-0.9285059578367907
 31
0
  0
LINE
  8
1
 62
7
 10
-521.7003549182923
 20
-39.74106062706596
 30
0
 11
-521.7003549182923
 21
-66.92850595783681
 31
0
  0
LINE
  8
1
 62
7
 10
-520.3003549182923
 20
-62.13512324714628
 30
0
 11
-520.3003549182923
 21
-68.42850595783679
 31
0
  0
LINE
  8
1
 62
3
 10
-521.7003549182923
 20
-39.74106062706596
 30
0
 11
-534.5003549182925
 21
-66.92850595783679
 31
0
  0
LINE
  8
1
 62
3
 10
-534.5003549182925
 20
-39.74106062706596
 30
0
 11
-521.7003549182923
 21
-66.92850595783681
 31
0
  0
LINE
  8
1
 62
7
 10
-535.5003549182925
 20
-29.34875578165267
 30
0
 11
-535.5003549182925
 21
-0.9285059578367907
 31
0
  0
LINE
  8
1
 62
7
 10
-560.0003549182925
 20
86.57149404216321
 30
0
 11
-560.0003549182925
 21
81.57149404216321
 31
0
  0
LINE
  8
1
 62
7
 10
-559.8003549182926
 20
86.57149404216321
 30
0
 11
-559.8003549182926
 21
81.57149404216321
 31
0
  0
LINE
  8
1
 62
7
 10
-559.6003549182926
 20
86.57149404216321
 30
0
 11
-559.6003549182926
 21
81.57149404216321
 31
0
  0
LINE
  8
1
 62
7
 10
-560.2003549182925
 20
86.57149404216321
 30
0
 11
-560.2003549182925
 21
81.57149404216321
 31
0
  0
LINE
  8
1
 62
7
 10
-560.4003549182926
 20
86.57149404216321
 30
0
 11
-560.4003549182926
 21
81.57149404216321
 31
0
  0
LINE
  8
1
 62
7
 10
-561.0003549182925
 20
81.57149404216321
 30
0
 11
-559.0003549182925
 21
81.57149404216321
 31
0
  0
LINE
  8
1
 62
7
 10
-559.0003549182925
 20
81.57149404216321
 30
0
 11
-559.0003549182925
 21
75.38083465961501
 31
0
  0
LINE
  8
1
 62
7
 10
-559.0003549182925
 20
73.76308914156471
 30
0
 11
-559.0003549182925
 21
66.57149404216321
 31
0
  0
LINE
  8
1
 62
7
 10
-561.0003549182925
 20
75.38083465961501
 30
0
 11
-561.0003549182925
 21
81.57149404216321
 31
0
  0
LINE
  8
1
 62
7
 10
-571.5003549182925
 20
-68.42850595783679
 30
0
 11
-572.5003549182925
 21
-67.42850595783679
 31
0
  0
LINE
  8
1
 62
7
 10
-571.5003549182925
 20
-68.42850595783679
 30
0
 11
-571.5003549182925
 21
-0.9285059578367907
 31
0
  0
LINE
  8
1
 62
7
 10
-469.0003549182926
 20
27.57149404216321
 30
0
 11
-469.0003549182926
 21
22.57149404216321
 31
0
  0
LINE
  8
1
 62
7
 10
-479.0003549182926
 20
66.57149404216321
 30
0
 11
-479.0003549182926
 21
73.76308914156471
 31
0
  0
LINE
  8
1
 62
3
  6
DASHDOT
 10
-496.6928847074765
 20
-0.9285059578367907
 30
0
 11
-490.5003549182926
 21
-0.9285059578367907
 31
0
  0
LINE
  8
1
 62
3
 10
-452.5003549182926
 20
65.07149404216321
 30
0
 11
-438.3003549182924
 21
26.57149404216321
 31
0
  0
LINE
  8
1
 62
7
 10
-670
 20
21.57149404216321
 30
0
 11
-658
 21
21.57149404216321
 31
0
  0
LINE
  8
1
 62
7
 10
-658
 20
21.57149404216321
 30
0
 11
-658
 21
18.15027807050213
 31
0
  0
LINE
  8
1
 62
7
 10
-670
 20
21.57149404216321
 30
0
 11
-670
 21
18.15027807050213
 31
0
  0
LINE
  8
1
 62
3
 10
-439.7003549182924
 20
65.07149404216321
 30
0
 11
-452.5003549182926
 21
26.57149404216321
 31
0
  0
LINE
  8
1
 62
7
 10
-452.5003549182926
 20
26.57149404216321
 30
0
 11
-430.5003549182926
 21
26.57149404216321
 31
0
  0
LINE
  8
1
 62
7
 10
-452.5003549182926
 20
31.07149404216321
 30
0
 11
-434.5003549182926
 21
31.07149404216321
 31
0
  0
LINE
  8
1
 62
7
 10
-434.5003549182926
 20
29.32149404216321
 30
0
 11
-433.0003549182926
 21
29.32149404216321
 31
0
  0
LINE
  8
1
 62
7
 10
-430.5003549182926
 20
31.07149404216322
 30
0
 11
-430.5003549182926
 21
-0.9285059578367907
 31
0
  0
LINE
  8
1
 62
7
 10
-433.0003549182926
 20
31.07149404216321
 30
0
 11
-430.5003549182926
 21
31.07149404216322
 31
0
  0
LINE
  8
1
 62
7
 10
-433.0003549182926
 20
29.32149404216321
 30
0
 11
-433.0003549182926
 21
31.62149404216321
 31
0
  0
LINE
  8
1
 62
7
 10
-452.5003549182926
 20
25.07149404216321
 30
0
 11
-469.0003549182926
 21
25.07149404216321
 31
0
  0
LINE
  8
1
 62
7
 10
-452.5003549182926
 20
25.07149404216321
 30
0
 11
-452.5003549182926
 21
65.07149404216321
 31
0
  0
LINE
  8
1
 62
7
 10
-461.0003549182926
 20
57.52149404216323
 30
0
 11
-452.5003549182926
 21
57.52149404216322
 31
0
  0
LINE
  8
1
 62
7
 10
-433.3003549182924
 20
59.07149404216321
 30
0
 11
-439.7003549182924
 21
59.07149404216321
 31
0
  0
LINE
  8
1
 62
7
 10
-431.3003549182924
 20
42.78280118621402
 30
0
 11
-433.3003549182924
 21
59.07149404216321
 31
0
  0
LINE
  8
1
 62
7
 10
-431.3003549182924
 20
32.22818468964522
 30
0
 11
-431.3003549182924
 21
42.78280118621402
 31
0
  0
LINE
  8
1
 62
7
 10
-434.5003549182926
 20
34.07149404216321
 30
0
 11
-431.3003549182924
 21
34.07149404216321
 31
0
  0
LINE
  8
1
 62
7
 10
-434.5003549182926
 20
27.32149404216321
 30
0
 11
-434.5003549182926
 21
34.07149404216321
 31
0
  0
LINE
  8
1
 62
7
 10
-438.3003549182924
 20
27.32149404216321
 30
0
 11
-434.5003549182926
 21
27.32149404216321
 31
0
  0
LINE
  8
1
 62
7
 10
-438.3003549182924
 20
31.57149404216321
 30
0
 11
-434.5003549182926
 21
31.57149404216321
 31
0
  0
LINE
  8
1
 62
7
 10
-452.5003549182926
 20
65.07149404216321
 30
0
 11
-439.7003549182924
 21
65.07149404216321
 31
0
  0
LINE
  8
1
 62
7
 10
-434.5003549182926
 20
31.62149404216321
 30
0
 11
-433.0003549182926
 21
31.62149404216321
 31
0
  0
LINE
  8
1
 62
7
 10
-430.5003549182926
 20
21.57149404216321
 30
0
 11
-473.5003549182926
 21
21.57149404216321
 31
0
  0
LINE
  8
1
 62
7
 10
-461.0003549182926
 20
57.52149404216323
 30
0
 11
-461.0003549182926
 21
52.07149404216321
 31
0
  0
LINE
  8
1
 62
7
 10
-461.0003549182926
 20
52.07149404216321
 30
0
 11
-459.5003549182926
 21
52.07149404216321
 31
0
  0
LINE
  8
1
 62
7
 10
-459.5003549182926
 20
52.07149404216321
 30
0
 11
-459.5003549182926
 21
36.27149404216321
 31
0
  0
LINE
  8
1
 62
7
 10
-459.5003549182926
 20
36.27149404216321
 30
0
 11
-467.5003549182926
 21
36.27149404216321
 31
0
  0
LINE
  8
1
 62
7
 10
-467.5003549182926
 20
36.27149404216321
 30
0
 11
-467.5003549182926
 21
27.07149404216321
 31
0
  0
LINE
  8
1
 62
7
 10
-467.5003549182926
 20
27.07149404216321
 30
0
 11
-469.0003549182926
 21
27.07149404216321
 31
0
  0
LINE
  8
1
 62
7
 10
-471.0003549182926
 20
27.57149404216321
 30
0
 11
-469.0003549182926
 21
27.57149404216321
 31
0
  0
LINE
  8
1
 62
7
 10
-469.0003549182926
 20
22.57149404216321
 30
0
 11
-471.0003549182926
 21
22.57149404216321
 31
0
  0
LINE
  8
1
 62
7
 10
-471.0003549182926
 20
22.57149404216321
 30
0
 11
-471.0003549182926
 21
27.57149404216321
 31
0
  0
LINE
  8
1
 62
7
 10
-471.0003549182926
 20
24.07149404216321
 30
0
 11
-473.5003549182926
 21
24.07149404216321
 31
0
  0
LINE
  8
1
 62
7
 10
-473.5003549182926
 20
24.07149404216321
 30
0
 11
-473.5003549182926
 21
-0.9285059578367907
 31
0
  0
LINE
  8
1
 62
7
 10
-473.5003549182926
 20
18.15027807050213
 30
0
 11
-430.5003549182926
 21
18.15027807050213
 31
0
  0
LINE
  8
1
 62
7
 10
-438.3003549182924
 20
59.07149404216321
 30
0
 11
-438.3003549182924
 21
26.57149404216321
 31
0
  0
LINE
  8
1
 62
7
 10
-439.7003549182924
 20
59.07149404216321
 30
0
 11
-439.7003549182924
 21
65.07149404216321
 31
0
  0
LINE
  8
1
 62
7
 10
-438.3003549182924
 20
66.57149404216321
 30
0
 11
-489.5003549182926
 21
66.57149404216321
 31
0
  0
LINE
  8
1
 62
7
 10
-438.3003549182924
 20
66.57149404216321
 30
0
 11
-438.3003549182924
 21
60.57149404216321
 31
0
  0
LINE
  8
1
 62
7
 10
-453.5003549182926
 20
60.57149404216321
 30
0
 11
-438.3003549182924
 21
60.57149404216321
 31
0
  0
LINE
  8
1
 62
7
 10
-453.5003549182926
 20
59.07149404216321
 30
0
 11
-453.5003549182926
 21
66.57149404216321
 31
0
  0
LINE
  8
1
 62
7
 10
-462.5003549182926
 20
59.07149404216321
 30
0
 11
-453.5003549182926
 21
59.07149404216321
 31
0
  0
LINE
  8
1
 62
7
 10
-462.5003549182926
 20
59.07149404216321
 30
0
 11
-462.5003549182926
 21
43.07149404216321
 31
0
  0
LINE
  8
1
 62
7
 10
-462.5003549182926
 20
43.07149404216321
 30
0
 11
-461.0003549182926
 21
41.57149404216321
 31
0
  0
LINE
  8
1
 62
7
 10
-461.0003549182926
 20
41.57149404216321
 30
0
 11
-461.0003549182926
 21
36.57149404216321
 31
0
  0
LINE
  8
1
 62
7
 10
-461.0003549182926
 20
36.57149404216321
 30
0
 11
-490.5003549182926
 21
36.57149404216321
 31
0
  0
LINE
  8
1
 62
7
 10
-485.5003549182926
 20
36.57149404216321
 30
0
 11
-485.5003549182926
 21
-0.9285059578367907
 31
0
  0
LINE
  8
1
 62
7
 10
-490.5003549182926
 20
65.57149404216321
 30
0
 11
-490.5003549182926
 21
-0.9285059578367907
 31
0
  0
LINE
  8
1
 62
3
  6
DASHDOT
 10
-614.792418699417
 20
27.4815043522252
 30
0
 11
-622.9737476117199
 21
22.75801190237824
 31
0
  0
LINE
  8
1
 62
3
  6
DASHDOT
 10
-622.9814431762585
 20
-24.6105807817939
 30
0
 11
-614.721823878052
 21
-29.37927420701726
 31
0
  0
LINE
  8
1
 62
3
  6
DASHDOT
 10
-704.73171200531
 20
-24.44497084865683
 30
0
 11
-713.5388165836698
 21
-29.52975504775405
 31
0
  0
LINE
  8
1
 62
3
  6
DASHDOT
 10
-705.1201752653371
 20
22.81223830073024
 30
0
 11
-712.8696345070553
 21
27.28639068001022
 31
0
  0
LINE
  8
1
 62
7
 10
-663
 20
86.57149404216321
 30
0
 11
-663
 21
81.57149404216321
 31
0
  0
LINE
  8
1
 62
7
 10
-665
 20
86.57149404216321
 30
0
 11
-665
 21
81.57149404216321
 31
0
  0
LINE
  8
1
 62
7
 10
-662.8
 20
86.57149404216321
 30
0
 11
-662.8
 21
81.57149404216321
 31
0
  0
LINE
  8
1
 62
7
 10
-662.6
 20
86.57149404216321
 30
0
 11
-662.6
 21
81.57149404216321
 31
0
  0
LINE
  8
1
 62
7
 10
-663.2000000000001
 20
86.57149404216321
 30
0
 11
-663.2000000000001
 21
81.57149404216321
 31
0
  0
LINE
  8
1
 62
7
 10
-663.4
 20
86.57149404216321
 30
0
 11
-663.4
 21
81.57149404216321
 31
0
  0
LINE
  8
1
 62
7
 10
-664.8
 20
86.57149404216321
 30
0
 11
-664.8
 21
81.57149404216321
 31
0
  0
LINE
  8
1
 62
7
 10
-664.6
 20
86.57149404216321
 30
0
 11
-664.6
 21
81.57149404216321
 31
0
  0
LINE
  8
1
 62
7
 10
-665.2000000000001
 20
86.57149404216321
 30
0
 11
-665.2000000000001
 21
81.57149404216321
 31
0
  0
LINE
  8
1
 62
7
 10
-665.4
 20
86.57149404216321
 30
0
 11
-665.4
 21
81.57149404216321
 31
0
  0
LINE
  8
1
 62
7
 10
-666
 20
81.57149404216321
 30
0
 11
-662
 21
81.57149404216321
 31
0
  0
LINE
  8
1
 62
7
 10
-662
 20
81.57149404216321
 30
0
 11
-662
 21
75.38083465961501
 31
0
  0
LINE
  8
1
 62
7
 10
-666
 20
66.52268450104975
 30
0
 11
-666
 21
73.76308914156471
 31
0
  0
LINE
  8
1
 62
7
 10
-664
 20
81.57149404216321
 30
0
 11
-664
 21
75.38083465961501
 31
0
  0
LINE
  8
1
 62
7
 10
-662
 20
73.76308914156471
 30
0
 11
-662
 21
66.52268450104975
 31
0
  0
LINE
  8
1
 62
7
 10
-666
 20
75.38083465961501
 30
0
 11
-666
 21
81.57149404216321
 31
0
  0
LINE
  8
1
 62
7
 10
-478.0003549182926
 20
86.57149404216321
 30
0
 11
-478.0003549182926
 21
81.57149404216321
 31
0
  0
LINE
  8
1
 62
7
 10
-477.8003549182927
 20
86.57149404216321
 30
0
 11
-477.8003549182927
 21
81.57149404216321
 31
0
  0
LINE
  8
1
 62
7
 10
-477.6003549182926
 20
86.57149404216321
 30
0
 11
-477.6003549182926
 21
81.57149404216321
 31
0
  0
LINE
  8
1
 62
7
 10
-478.2003549182925
 20
86.57149404216321
 30
0
 11
-478.2003549182925
 21
81.57149404216321
 31
0
  0
LINE
  8
1
 62
7
 10
-478.4003549182926
 20
86.57149404216321
 30
0
 11
-478.4003549182926
 21
81.57149404216321
 31
0
  0
LINE
  8
1
 62
7
 10
-479.0003549182926
 20
81.57149404216321
 30
0
 11
-477.0003549182926
 21
81.57149404216321
 31
0
  0
LINE
  8
1
 62
7
 10
-477.0003549182926
 20
81.57149404216321
 30
0
 11
-477.0003549182926
 21
75.38083465961501
 31
0
  0
LINE
  8
1
 62
7
 10
-477.0003549182926
 20
73.76308914156471
 30
0
 11
-477.0003549182926
 21
66.57149404216321
 31
0
  0
LINE
  8
1
 62
7
 10
-479.0003549182926
 20
75.38083465961501
 30
0
 11
-479.0003549182926
 21
81.57149404216321
 31
0
  0
LINE
  8
1
 62
7
 10
-490.5003549182926
 20
65.57149404216321
 30
0
 11
-489.5003549182926
 21
66.57149404216321
 31
0
  0
LINE
  8
1
 62
3
 10
-534.5003549182925
 20
26.73869506976676
 30
0
 11
-521.7003549182923
 21
-28.59570698544034
 31
0
  0
LINE
  8
1
 62
3
 10
-534.5003549182925
 20
-28.59570698544034
 30
0
 11
-521.7003549182923
 21
26.73869506976676
 31
0
  0
LINE
  8
1
 62
3
  6
DASHDOT
 10
-344
 20
16.07149404216321
 30
0
 11
-344
 21
-17.92850595783679
 31
0
  0
LINE
  8
1
 62
3
  6
DASHDOT
 10
-361
 20
-0.9285059578367907
 30
0
 11
-327
 21
-0.9285059578367907
 31
0
  0
LINE
  8
1
 62
3
  6
DASHDOT
 10
-430.5003549182926
 20
-0.9285059578367907
 30
0
 11
-426.2223072555976
 21
-0.9285059578367907
 31
0
  0
LINE
  8
1
 62
3
  6
DASHDOT
 10
-512.5003549182925
 20
-0.9285059578367907
 30
0
 11
-508.2223072555976
 21
-0.9285059578367907
 31
0
  0
LINE
  8
1
 62
3
  6
DASHDOT
 10
-664
 20
16.07149404216321
 30
0
 11
-664
 21
-17.92850595783679
 31
0
  0
LINE
  8
1
 62
3
  6
DASHDOT
 10
-647
 20
-0.9285059578367907
 30
0
 11
-681
 21
-0.9285059578367907
 31
0
  0
ARC
  8
1
 62
7
 10
-344
 20
-0.9285059578367907
 30
0
 40
20
 50
107.4576031237221
 51
72.54239687627792
  0
ARC
  8
1
 62
7
 10
-343
 20
73.01308914156471
 30
0
 40
1.25
 50
36.86989764584402
 51
143.130102354156
  0
ARC
  8
1
 62
7
 10
-343
 20
74.51308914156471
 30
0
 40
1.25
 50
216.869897645844
 51
323.130102354156
  0
ARC
  8
1
 62
7
 10
-345
 20
73.01308914156471
 30
0
 40
1.25
 50
36.86989764584402
 51
143.130102354156
  0
ARC
  8
1
 62
7
 10
-345
 20
76.13083465961501
 30
0
 40
1.25
 50
216.869897645844
 51
323.130102354156
  0
ARC
  8
1
 62
7
 10
-345
 20
74.63083465961501
 30
0
 40
1.25
 50
36.86989764584402
 51
143.130102354156
  0
ARC
  8
1
 62
7
 10
-343
 20
76.13083465961501
 30
0
 40
1.25
 50
216.869897645844
 51
323.130102354156
  0
ARC
  8
1
 62
7
 10
-344
 20
-0.9285059578367907
 30
0
 40
65.99999999999997
 50
335.2159085704541
 51
24.78409142954587
  0
ARC
  8
1
 62
7
 10
-344
 20
-0.9285059578367907
 30
0
 40
66
 50
275.2159085704541
 51
324.7840914295459
  0
ARC
  8
1
 62
7
 10
-344
 20
-0.9285059578367907
 30
0
 40
66.00000000000004
 50
215.2159085704541
 51
264.7840914295459
  0
ARC
  8
1
 62
7
 10
-344
 20
-0.9285059578367907
 30
0
 40
66
 50
180
 51
204.7840914295458
  0
ARC
  8
1
 62
7
 10
-344
 20
-0.9285059578367907
 30
0
 40
66
 50
95.21590857045413
 51
144.7840914295458
  0
ARC
  8
1
 62
7
 10
-344
 20
-0.9285059578367907
 30
0
 40
65.99999999999999
 50
155.2159085704541
 51
180
  0
ARC
  8
1
 62
7
 10
-344
 20
-0.9285059578367907
 30
0
 40
65.99999999999996
 50
35.21590857045413
 51
84.78409142954588
  0
ARC
  8
1
 62
7
 10
-344
 20
-0.9285059578367907
 30
0
 40
61.50000000000006
 50
24.4012621837714
 51
35.59873781622859
  0
ARC
  8
1
 62
7
 10
-344
 20
-0.9285059578367907
 30
0
 40
61.50000000000003
 50
324.4012621837715
 51
335.5987378162286
  0
ARC
  8
1
 62
7
 10
-344
 20
-0.9285059578367907
 30
0
 40
61.5
 50
264.4012621837714
 51
275.5987378162286
  0
ARC
  8
1
 62
7
 10
-344
 20
-0.9285059578367907
 30
0
 40
61.50000000000004
 50
204.4012621837714
 51
215.5987378162286
  0
ARC
  8
1
 62
7
 10
-344
 20
-0.9285059578367907
 30
0
 40
61.50000000000005
 50
144.4012621837714
 51
155.5987378162286
  0
ARC
  8
1
 62
7
 10
-344
 20
-0.9285059578367907
 30
0
 40
61.5
 50
84.40126218377141
 51
95.59873781622859
  0
ARC
  8
1
 62
7
 10
-560.5003549182925
 20
75.56297751675785
 30
0
 40
0.5321428571428546
 50
200.0159596028819
 51
339.9840403971181
  0
ARC
  8
1
 62
7
 10
-559.5003549182925
 20
75.56297751675785
 30
0
 40
0.5321428571428546
 50
200.0159596028819
 51
339.9840403971181
  0
ARC
  8
1
 62
7
 10
-560.5003549182925
 20
73.58094628442186
 30
0
 40
0.5321428571428546
 50
20.01595960288194
 51
159.9840403971181
  0
ARC
  8
1
 62
7
 10
-559.5003549182925
 20
73.58094628442186
 30
0
 40
0.5321428571428546
 50
20.01595960288194
 51
159.9840403971181
  0
ARC
  8
1
 62
7
 10
-559.5003549182925
 20
73.94523199870756
 30
0
 40
0.5321428571428546
 50
200.0159596028819
 51
339.9840403971181
  0
ARC
  8
1
 62
7
 10
-560.5003549182925
 20
75.19869180247216
 30
0
 40
0.5321428571428546
 50
20.01595960288194
 51
159.9840403971181
  0
ARC
  8
1
 62
7
 10
-664
 20
-0.9285059578367907
 30
0
 40
20
 50
107.4576031237221
 51
72.54239687627792
  0
ARC
  8
1
 62
7
 10
-663
 20
73.01308914156471
 30
0
 40
1.25
 50
36.86989764584402
 51
143.130102354156
  0
ARC
  8
1
 62
7
 10
-663
 20
74.51308914156471
 30
0
 40
1.25
 50
216.869897645844
 51
323.130102354156
  0
ARC
  8
1
 62
7
 10
-665
 20
73.01308914156471
 30
0
 40
1.25
 50
36.86989764584402
 51
143.130102354156
  0
ARC
  8
1
 62
7
 10
-665
 20
76.13083465961501
 30
0
 40
1.25
 50
216.869897645844
 51
323.130102354156
  0
ARC
  8
1
 62
7
 10
-665
 20
74.63083465961501
 30
0
 40
1.25
 50
36.86989764584402
 51
143.130102354156
  0
ARC
  8
1
 62
7
 10
-663
 20
76.13083465961501
 30
0
 40
1.25
 50
216.869897645844
 51
323.130102354156
  0
ARC
  8
1
 62
7
 10
-478.5003549182926
 20
75.56297751675785
 30
0
 40
0.5321428571428546
 50
200.0159596028819
 51
339.9840403971181
  0
ARC
  8
1
 62
7
 10
-477.5003549182926
 20
75.56297751675785
 30
0
 40
0.5321428571428546
 50
200.0159596028819
 51
339.9840403971181
  0
ARC
  8
1
 62
7
 10
-478.5003549182926
 20
73.58094628442186
 30
0
 40
0.5321428571428546
 50
20.01595960288194
 51
159.9840403971181
  0
ARC
  8
1
 62
7
 10
-477.5003549182926
 20
73.58094628442186
 30
0
 40
0.5321428571428546
 50
20.01595960288194
 51
159.9840403971181
  0
ARC
  8
1
 62
7
 10
-477.5003549182926
 20
73.94523199870756
 30
0
 40
0.5321428571428546
 50
200.0159596028819
 51
339.9840403971181
  0
ARC
  8
1
 62
7
 10
-478.5003549182926
 20
75.19869180247216
 30
0
 40
0.5321428571428546
 50
20.01595960288194
 51
159.9840403971181
  0
CIRCLE
  8
1
 62
7
 10
-344
 20
-0.9285059578367907
 30
0
 40
35
  0
CIRCLE
  8
1
 62
7
 10
-344
 20
-0.9285059578367907
 30
0
 40
32
  0
CIRCLE
  8
1
 62
7
 10
-344
 20
-0.9285059578367907
 30
0
 40
43.71130714405081
  0
CIRCLE
  8
1
 62
7
 10
-344
 20
-0.9285059578367907
 30
0
 40
60
  0
CIRCLE
  8
1
 62
7
 10
-344
 20
-0.9285059578367907
 30
0
 40
67.5
  0
CIRCLE
  8
1
 62
7
 10
-664
 20
-0.9285059578367907
 30
0
 40
25
  0
CIRCLE
  8
1
 62
7
 10
-664
 20
-0.9285059578367907
 30
0
 40
37.5
  0
CIRCLE
  8
1
 62
7
 10
-664
 20
-0.9285059578367907
 30
0
 40
67.5
  0
CIRCLE
  8
1
 62
3
  6
DASHDOT
 10
-664
 20
-0.9285059578367907
 30
0
 40
52
  0
CIRCLE
  8
1
 62
3
 10
-664
 20
51.07149404216321
 30
0
 40
3
  0
CIRCLE
  8
1
 62
7
 10
-664
 20
51.07149404216321
 30
0
 40
2.5
  0
CIRCLE
  8
1
 62
3
 10
-709.0333209967907
 20
25.07149404216322
 30
0
 40
2.999999999999994
  0
CIRCLE
  8
1
 62
7
 10
-709.0333209967907
 20
25.07149404216322
 30
0
 40
2.500000000000002
  0
CIRCLE
  8
1
 62
3
 10
-709.0333209967907
 20
-26.92850595783679
 30
0
 40
3.000000000000003
  0
CIRCLE
  8
1
 62
7
 10
-709.0333209967907
 20
-26.92850595783679
 30
0
 40
2.500000000000012
  0
CIRCLE
  8
1
 62
3
 10
-664
 20
-52.92850595783681
 30
0
 40
3
  0
CIRCLE
  8
1
 62
7
 10
-664
 20
-52.92850595783681
 30
0
 40
2.5
  0
CIRCLE
  8
1
 62
3
 10
-618.9666790032093
 20
-26.9285059578368
 30
0
 40
2.999999999999997
  0
CIRCLE
  8
1
 62
7
 10
-618.9666790032093
 20
-26.9285059578368
 30
0
 40
2.500000000000005
  0
CIRCLE
  8
1
 62
3
 10
-618.9666790032092
 20
25.07149404216317
 30
0
 40
3.000000000000022
  0
CIRCLE
  8
1
 62
7
 10
-618.9666790032092
 20
25.07149404216317
 30
0
 40
2.500000000000002
  0
CIRCLE
  8
1
 62
7
 10
-664
 20
-0.9285059578367907
 30
0
 40
66.5
  0
TEXT
  8
1
 62
7
 10
-731.0262034227831
 20
90.18984787722219
 30
0
 40
6
  1
MDB 10
 41
0.9
  7
SIMPLEX
 72
1
 11
-714.826203422783
 21
90.18984787722219
 31
0
  0
TEXT
  8
1
 62
7
 10
-729.5064760275881
 20
79.8938066138233
 30
0
 40
6
  1
DC4224
 41
0.9
  7
SIMPLEX
 72
1
 11
-713.306476027588
 21
79.8938066138233
 31
0
  0
ENDSEC
  0
EOF
