  0
SECTION
  2
HEADER
  9
$ACADVER
  1
AC1009
  9
$INSBASE
 10
0.0
 20
0.0
 30
0.0
  9
$EXTMIN
 10
-321.26052453249588
 20
-61.419318188191447
 30
0.0
  9
$EXTMAX
 10
-4.0000000000000142
 20
72.406692043274447
 30
0.0
  9
$LIMMIN
 10
-321.26052453249588
 20
-59.560478473316593
  9
$LIMMAX
 10
-4.0000000000000133
 20
72.406692043274404
  9
$ORTHOMODE
 70
     0
  9
$REGENMODE
 70
     1
  9
$FILLMODE
 70
     1
  9
$QTEXTMODE
 70
     0
  9
$MIRRTEXT
 70
     1
  9
$DRAGMODE
 70
     2
  9
$LTSCALE
 40
1.0
  9
$OSMODE
 70
    37
  9
$ATTMODE
 70
     1
  9
$TEXTSIZE
 40
3.5
  9
$TRACEWID
 40
0.5
  9
$TEXTSTYLE
  7
STANDARD
  9
$CLAYER
  8
0
  9
$CELTYPE
  6
BYLAYER
  9
$CECOLOR
 62
   256
  9
$DIMSCALE
 40
1.0
  9
$DIMASZ
 40
0.18
  9
$DIMEXO
 40
0.0625
  9
$DIMDLI
 40
0.38
  9
$DIMRND
 40
0.0
  9
$DIMDLE
 40
0.0
  9
$DIMEXE
 40
0.18
  9
$DIMTP
 40
0.0
  9
$DIMTM
 40
0.0
  9
$DIMTXT
 40
0.18
  9
$DIMCEN
 40
0.09
  9
$DIMTSZ
 40
0.0
  9
$DIMTOL
 70
     0
  9
$DIMLIM
 70
     0
  9
$DIMTIH
 70
     1
  9
$DIMTOH
 70
     1
  9
$DIMSE1
 70
     0
  9
$DIMSE2
 70
     0
  9
$DIMTAD
 70
     0
  9
$DIMZIN
 70
     0
  9
$DIMBLK
  1

  9
$DIMASO
 70
     1
  9
$DIMSHO
 70
     1
  9
$DIMPOST
  1

  9
$DIMAPOST
  1

  9
$DIMALT
 70
     0
  9
$DIMALTD
 70
     2
  9
$DIMALTF
 40
25.399999999999999
  9
$DIMLFAC
 40
1.0
  9
$DIMTOFL
 70
     0
  9
$DIMTVP
 40
0.0
  9
$DIMTIX
 70
     0
  9
$DIMSOXD
 70
     0
  9
$DIMSAH
 70
     0
  9
$DIMBLK1
  1

  9
$DIMBLK2
  1

  9
$DIMSTYLE
  2
STANDARD
  9
$DIMCLRD
 70
     0
  9
$DIMCLRE
 70
     0
  9
$DIMCLRT
 70
     0
  9
$DIMTFAC
 40
1.0
  9
$DIMGAP
 40
0.09
  9
$LUNITS
 70
     2
  9
$LUPREC
 70
     4
  9
$SKETCHINC
 40
0.1
  9
$FILLETRAD
 40
2.0
  9
$AUNITS
 70
     0
  9
$AUPREC
 70
     0
  9
$MENU
  1
ACAD
  9
$ELEVATION
 40
0.0
  9
$PELEVATION
 40
0.0
  9
$THICKNESS
 40
0.0
  9
$LIMCHECK
 70
     0
  9
$BLIPMODE
 70
     0
  9
$CHAMFERA
 40
0.0
  9
$CHAMFERB
 40
0.0
  9
$SKPOLY
 70
     0
  9
$TDCREATE
 40
2452095.025032986
  9
$TDUPDATE
 40
2452095.0256700232
  9
$TDINDWG
 40
0.0006527778
  9
$TDUSRTIMER
 40
0.0006527778
  9
$USRTIMER
 70
     1
  9
$ANGBASE
 50
0.0
  9
$ANGDIR
 70
     0
  9
$PDMODE
 70
     0
  9
$PDSIZE
 40
0.0
  9
$PLINEWID
 40
0.0
  9
$COORDS
 70
     1
  9
$SPLFRAME
 70
     0
  9
$SPLINETYPE
 70
     6
  9
$SPLINESEGS
 70
     8
  9
$ATTDIA
 70
     0
  9
$ATTREQ
 70
     1
  9
$HANDLING
 70
 10241
  9
$HANDSEED
  5
1A8
  9
$SURFTAB1
 70
     6
  9
$SURFTAB2
 70
     6
  9
$SURFTYPE
 70
     6
  9
$SURFU
 70
     6
  9
$SURFV
 70
     6
  9
$UCSNAME
  2

  9
$UCSORG
 10
0.0
 20
0.0
 30
0.0
  9
$UCSXDIR
 10
1.0
 20
0.0
 30
0.0
  9
$UCSYDIR
 10
0.0
 20
1.0
 30
0.0
  9
$PUCSNAME
  2

  9
$PUCSORG
 10
0.0
 20
0.0
 30
0.0
  9
$PUCSXDIR
 10
1.0
 20
0.0
 30
0.0
  9
$PUCSYDIR
 10
0.0
 20
1.0
 30
0.0
  9
$USERI1
 70
     0
  9
$USERI2
 70
     0
  9
$USERI3
 70
     0
  9
$USERI4
 70
     0
  9
$USERI5
 70
     0
  9
$USERR1
 40
0.0
  9
$USERR2
 40
0.0
  9
$USERR3
 40
0.0
  9
$USERR4
 40
0.0
  9
$USERR5
 40
0.0
  9
$WORLDVIEW
 70
     1
  9
$SHADEDGE
 70
     3
  9
$SHADEDIF
 70
    70
  9
$TILEMODE
 70
     1
  9
$MAXACTVP
 70
    64
  9
$PLIMCHECK
 70
     0
  9
$PEXTMIN
 10
1.0000000000000000E+020
 20
1.0000000000000000E+020
 30
1.0000000000000000E+020
  9
$PEXTMAX
 10
-1.0000000000000000E+020
 20
-1.0000000000000000E+020
 30
-1.0000000000000000E+020
  9
$PLIMMIN
 10
0.0
 20
0.0
  9
$PLIMMAX
 10
12.0
 20
9.0
  9
$UNITMODE
 70
     0
  9
$VISRETAIN
 70
     1
  9
$PLINEGEN
 70
     0
  9
$PSLTSCALE
 70
     1
  0
ENDSEC
  0
SECTION
  2
TABLES
  0
TABLE
  2
VPORT
 70
     2
  0
VPORT
  2
*ACTIVE
 70
     0
 10
0.0
 20
0.0
 11
1.0
 21
1.0
 12
-299.07495765693841
 22
68.148844480529235
 13
0.0
 23
0.0
 14
1.0
 24
1.0
 15
0.0
 25
0.0
 16
0.0
 26
0.0
 36
1.0
 17
0.0
 27
0.0
 37
0.0
 40
8.9999999776252686
 41
2.4144144144144142
 42
50.0
 43
0.0
 44
0.0
 50
0.0
 51
0.0
 71
     0
 72
   100
 73
     1
 74
     1
 75
     0
 76
     0
 77
     0
 78
     0
  0
ENDTAB
  0
TABLE
  2
LTYPE
 70
     9
  0
LTYPE
  2
CONTINUOUS
 70
     0
  3
Solid line
 72
    65
 73
     0
 40
0.0
  0
LTYPE
  2
BORDER
 70
     0
  3
__ __ . __ __ .
 72
    65
 73
     6
 40
14.610682050838619
 49
4.1744805859538934
 49
-2.0872402929769458
 49
4.1744805859538934
 49
-2.0872402929769458
 49
0.0
 49
-2.0872402929769458
  0
LTYPE
  2
CENTER
 70
     0
  3
____ _ ____ _
 72
    65
 73
     4
 40
16.697922343815581
 49
10.436201464884739
 49
-2.0872402929769458
 49
2.0872402929769458
 49
-2.0872402929769458
  0
LTYPE
  2
DASHDOT
 70
     0
  3
__ . __ . __ .
 72
    65
 73
     4
 40
8.3489611719077885
 49
4.1744805859538934
 49
-2.0872402929769458
 49
0.0
 49
-2.0872402929769458
  0
LTYPE
  2
DASHED
 70
     0
  3
__ __ __ __ __
 72
    65
 73
     2
 40
6.2617208789308396
 49
4.1744805859538934
 49
-2.0872402929769458
  0
LTYPE
  2
DIVIDE
 70
     0
  3
__ . . __ . . 
 72
    65
 73
     6
 40
10.436201464884739
 49
4.1744805859538934
 49
-2.0872402929769458
 49
0.0
 49
-2.0872402929769458
 49
0.0
 49
-2.0872402929769458
  0
LTYPE
  2
DOT
 70
     0
  3
..............
 72
    65
 73
     4
 40
4.1744805859538934
 49
0.0
 49
-2.0872402929769458
 49
0.0
 49
-2.0872402929769458
  0
LTYPE
  2
HIDDEN
 70
     0
  3
_ _ _ _ _ _ _
 72
    65
 73
     2
 40
3.1308604394654211
 49
2.0872402929769458
 49
-1.043620146488474
  0
LTYPE
  2
PHANTOM
 70
     0
  3
_____ _ _ _____ _ _ 
 72
    65
 73
     6
 40
20.872402929769461
 49
10.436201464884739
 49
-2.0872402929769458
 49
2.0872402929769458
 49
-2.0872402929769458
 49
2.0872402929769458
 49
-2.0872402929769458
  0
ENDTAB
  0
TABLE
  2
LAYER
 70
     2
  0
LAYER
  2
0
 70
     0
 62
     7
  6
CONTINUOUS
  0
LAYER
  2
1
 70
     0
 62
     7
  6
CONTINUOUS
  0
ENDTAB
  0
TABLE
  2
STYLE
 70
     4
  0
STYLE
  2
STANDARD
 70
     0
 40
0.0
 41
1.0
 50
0.0
 71
     0
 42
3.5
  3
txt
  4

  0
STYLE
  2
SIMPLEX
 70
     0
 40
0.0
 41
1.0
 50
0.0
 71
     0
 42
3.5
  3
simplex
  4

  0
STYLE
  2
COMPLEX
 70
     0
 40
0.0
 41
1.0
 50
0.0
 71
     0
 42
3.5
  3
complex
  4

  0
STYLE
  2
ITALIC
 70
     0
 40
0.0
 41
1.0
 50
0.0
 71
     0
 42
3.5
  3
italic
  4

  0
ENDTAB
  0
TABLE
  2
VIEW
 70
     0
  0
ENDTAB
  0
TABLE
  2
UCS
 70
     0
  0
ENDTAB
  0
TABLE
  2
APPID
 70
     1
  0
APPID
  2
ACAD
 70
     0
  0
ENDTAB
  0
TABLE
  2
DIMSTYLE
 70
     1
  0
DIMSTYLE
  2
STANDARD
 70
     0
  3

  4

  5

  6

  7

 40
1.0
 41
0.18
 42
0.0625
 43
0.38
 44
0.18
 45
0.0
 46
0.0
 47
0.0
 48
0.0
140
0.18
141
0.09
142
0.0
143
25.399999999999999
144
1.0
145
0.0
146
1.0
147
0.09
 71
     0
 72
     0
 73
     1
 74
     1
 75
     0
 76
     0
 77
     0
 78
     0
170
     0
171
     2
172
     0
173
     0
174
     0
175
     0
176
     0
177
     0
178
     0
  0
ENDTAB
  0
ENDSEC
  0
SECTION
  2
BLOCKS
  0
BLOCK
  8
0
  2
$MODEL_SPACE
 70
     0
 10
0.0
 20
0.0
 30
0.0
  3
$MODEL_SPACE
  1

  0
ENDBLK
  5
20
  8
0
  0
BLOCK
 67
     1
  8
0
  2
$PAPER_SPACE
 70
     0
 10
0.0
 20
0.0
 30
0.0
  3
$PAPER_SPACE
  1

  0
ENDBLK
  5
1C
 67
     1
  8
0
  0
ENDSEC
  0
SECTION
  2
ENTITIES
  0
LINE
  5
33
  8
1
 62
     7
 10
-110.79624481028161
 20
16.939521526683411
 30
0.0
 11
-109.6462448102816
 21
16.939521526683411
 31
0.0
  0
LINE
  5
34
  8
1
 62
     7
 10
-110.79624481028161
 20
21.439521526683379
 30
0.0
 11
-110.79624481028161
 21
16.939521526683411
 31
0.0
  0
LINE
  5
35
  8
1
 62
     7
 10
-109.6462448102815
 20
22.439521526683411
 30
0.0
 11
-109.6462448102816
 21
18.439521526683411
 31
0.0
  0
LINE
  5
36
  8
1
 62
     7
 10
-124.1462448102816
 20
10.464323811703441
 30
0.0
 11
-124.1462448102816
 21
13.4395215266834
 31
0.0
  0
LINE
  5
37
  8
1
 62
     7
 10
-124.1462448102816
 20
17.239521526683411
 30
0.0
 11
-118.1462448102815
 21
17.239521526683411
 31
0.0
  0
LINE
  5
38
  8
1
 62
     7
 10
-118.1462448102815
 20
21.439521526683411
 30
0.0
 11
-118.1462448102815
 21
17.239521526683411
 31
0.0
  0
LINE
  5
39
  8
1
 62
     7
 10
-105.1462448102816
 20
0.7747733252446203
 30
0.0
 11
-105.1462448102816
 21
2.4395215266834089
 31
0.0
  0
LINE
  5
3A
  8
1
 62
     7
 10
-118.1462448102815
 20
-2.810478473316588
 30
0.0
 11
-118.1462448102815
 21
1.4395215266834049
 31
0.0
  0
LINE
  5
3B
  8
1
 62
     7
 10
-109.6462448102816
 20
-2.810478473316588
 30
0.0
 11
-109.6462448102816
 21
16.939521526683411
 31
0.0
  0
LINE
  5
3C
  8
1
 62
     3
 10
-109.6462448102816
 20
-2.810478473316588
 30
0.0
 11
-118.1462448102815
 21
21.439521526683411
 31
0.0
  0
LINE
  5
3D
  8
1
 62
     3
 10
-118.1462448102815
 20
-2.810478473316588
 30
0.0
 11
-110.79624481028161
 21
21.439521526683379
 31
0.0
  0
LINE
  5
3E
  8
1
 62
     7
 10
-118.1462448102815
 20
21.439521526683411
 30
0.0
 11
-110.79624481028161
 21
21.439521526683379
 31
0.0
  0
LINE
  5
3F
  8
1
 62
     7
 10
-118.1462448102815
 20
21.439521526683411
 30
0.0
 11
-118.1462448102815
 21
17.239521526683411
 31
0.0
  0
LINE
  5
40
  8
1
 62
     7
 10
-109.6462448102816
 20
0.1895215266834089
 30
0.0
 11
-107.6462448102815
 21
0.1895215266834089
 31
0.0
  0
LINE
  5
41
  8
1
 62
     7
 10
-109.6462448102816
 20
-2.3604784733166011
 30
0.0
 11
-107.6462448102815
 21
-2.3604784733166011
 31
0.0
  0
LINE
  5
42
  8
1
 62
     7
 10
-109.6462448102816
 20
16.939521526683411
 30
0.0
 11
-106.1462448102816
 21
16.939521526683411
 31
0.0
  0
LINE
  5
43
  8
1
 62
     7
 10
-107.6462448102815
 20
-2.3604784733166011
 30
0.0
 11
-107.6462448102815
 21
2.4395215266834089
 31
0.0
  0
LINE
  5
44
  8
1
 62
     7
 10
-107.6462448102815
 20
2.4395215266834089
 30
0.0
 11
-105.1462448102816
 21
2.4395215266834089
 31
0.0
  0
LINE
  5
45
  8
1
 62
     7
 10
-105.1462448102816
 20
2.4395215266834089
 30
0.0
 11
-105.1462448102816
 21
8.7951750987088104
 31
0.0
  0
LINE
  5
46
  8
1
 62
     7
 10
-105.1462448102816
 20
8.7951750987088104
 30
0.0
 11
-106.1462448102816
 21
16.939521526683411
 31
0.0
  0
LINE
  5
47
  8
1
 62
     7
 10
-107.6462448102815
 20
0.7395215266834203
 30
0.0
 11
-106.1462448102816
 21
0.7395215266834203
 31
0.0
  0
LINE
  5
48
  8
1
 62
     7
 10
-125.1462448102816
 20
17.489521526683401
 30
0.0
 11
-125.1462448102816
 21
7.9395215266834072
 31
0.0
  0
LINE
  5
49
  8
1
 62
     7
 10
-123.6462448102816
 20
3.439521526683408
 30
0.0
 11
-128.6462448102815
 21
3.439521526683408
 31
0.0
  0
LINE
  5
4A
  8
1
 62
     7
 10
-122.6462448102816
 20
3.239521526683419
 30
0.0
 11
-122.6462448102816
 21
13.4395215266834
 31
0.0
  0
LINE
  5
4B
  8
1
 62
     7
 10
-122.6462448102816
 20
13.4395215266834
 30
0.0
 11
-124.1462448102816
 21
13.4395215266834
 31
0.0
  0
LINE
  5
4C
  8
1
 62
     7
 10
-122.6462448102816
 20
3.239521526683419
 30
0.0
 11
-128.1462448102815
 21
3.239521526683419
 31
0.0
  0
LINE
  5
4D
  8
1
 62
     7
 10
-128.1462448102815
 20
3.239521526683419
 30
0.0
 11
-128.1462448102815
 21
-1.06047847331659
 31
0.0
  0
LINE
  5
4E
  8
1
 62
     7
 10
-128.1462448102815
 20
-1.06047847331659
 30
0.0
 11
-128.6462448102815
 21
-1.06047847331659
 31
0.0
  0
LINE
  5
4F
  8
1
 62
     7
 10
-124.1462448102816
 20
13.4395215266834
 30
0.0
 11
-124.1462448102816
 21
17.239521526683411
 31
0.0
  0
LINE
  5
50
  8
1
 62
     7
 10
-124.1462448102816
 20
17.239521526683411
 30
0.0
 11
-118.1462448102815
 21
17.239521526683411
 31
0.0
  0
LINE
  5
51
  8
1
 62
     7
 10
-118.1462448102815
 20
17.239521526683411
 30
0.0
 11
-118.1462448102815
 21
1.4395215266834049
 31
0.0
  0
LINE
  5
52
  8
1
 62
     7
 10
-118.1462448102815
 20
1.4395215266834049
 30
0.0
 11
-118.2462448102816
 21
1.4395215266834089
 31
0.0
  0
LINE
  5
53
  8
1
  6
DASHDOT
 62
     3
 10
-119.1500909641277
 20
-1.3104784733165891
 30
0.0
 11
-103.6850022067312
 21
-1.3104784733165891
 31
0.0
  0
LINE
  5
54
  8
1
 62
     7
 10
-118.2462448102816
 20
-2.810478473316588
 30
0.0
 11
-104.6462448102815
 21
-2.810478473316588
 31
0.0
  0
LINE
  5
55
  8
1
 62
     7
 10
-128.44624481028151
 20
-3.560478473316588
 30
0.0
 11
-128.44624481028151
 21
-3.060478473316588
 31
0.0
  0
LINE
  5
56
  8
1
 62
     7
 10
-128.6462448102815
 20
-3.060478473316588
 30
0.0
 11
-118.2462448102816
 21
-3.060478473316588
 31
0.0
  0
LINE
  5
57
  8
1
 62
     7
 10
-118.2462448102816
 20
-3.060478473316588
 30
0.0
 11
-118.2462448102816
 21
1.4395215266834089
 31
0.0
  0
LINE
  5
58
  8
1
 62
     7
 10
-118.2462448102816
 20
-0.1104784733166007
 30
0.0
 11
-107.7462448102815
 21
-0.1104784733166007
 31
0.0
  0
LINE
  5
59
  8
1
 62
     7
 10
-107.7462448102815
 20
-0.1104784733166007
 30
0.0
 11
-107.7462448102815
 21
-1.5604784733165891
 31
0.0
  0
LINE
  5
5A
  8
1
 62
     7
 10
-107.7462448102815
 20
-1.5604784733165891
 30
0.0
 11
-106.1462448102816
 21
-1.5604784733165891
 31
0.0
  0
LINE
  5
5B
  8
1
 62
     7
 10
-106.1462448102816
 20
-1.5604784733165891
 30
0.0
 11
-106.1462448102816
 21
0.7395215266834203
 31
0.0
  0
LINE
  5
5C
  8
1
 62
     7
 10
-106.1462448102816
 20
-0.1104784733166007
 30
0.0
 11
-104.6462448102815
 21
-0.1104784733166007
 31
0.0
  0
LINE
  5
5D
  8
1
 62
     7
 10
-104.6462448102815
 20
-0.1104784733166007
 30
0.0
 11
-104.6462448102815
 21
-18.560478473316589
 31
0.0
  0
LINE
  5
5E
  8
1
 62
     7
 10
-283.26052453249588
 20
-6.8604784733166007
 30
0.0
 11
-277.26052453249588
 21
-6.8604784733166007
 31
0.0
  0
LINE
  5
5F
  8
1
 62
     7
 10
-283.26052453249588
 20
-9.0210864591471598
 30
0.0
 11
-283.26052453249588
 21
-6.8604784733166007
 31
0.0
  0
LINE
  5
60
  8
1
 62
     7
 10
-277.26052453249588
 20
-9.0210864591471598
 30
0.0
 11
-277.26052453249588
 21
-6.8604784733166007
 31
0.0
  0
LINE
  5
61
  8
1
 62
     7
 10
-132.6462448102815
 20
-3.560478473316588
 30
0.0
 11
-130.1462448102815
 21
-3.560478473316588
 31
0.0
  0
LINE
  5
62
  8
1
 62
     7
 10
-132.6462448102815
 20
-6.8604784733166007
 30
0.0
 11
-104.6462448102815
 21
-6.8604784733166007
 31
0.0
  0
LINE
  5
63
  8
1
 62
     7
 10
-132.6462448102815
 20
-3.560478473316588
 30
0.0
 11
-132.6462448102815
 21
-18.560478473316589
 31
0.0
  0
LINE
  5
64
  8
1
 62
     7
 10
-104.6462448102815
 20
-9.0210864591471598
 30
0.0
 11
-132.6462448102815
 21
-9.0210864591471598
 31
0.0
  0
LINE
  5
65
  8
1
 62
     7
 10
-109.6462448102816
 20
18.439521526683411
 30
0.0
 11
-118.6462448102816
 21
18.439521526683411
 31
0.0
  0
LINE
  5
66
  8
1
 62
     7
 10
-118.6462448102816
 20
17.489521526683401
 30
0.0
 11
-125.1462448102816
 21
17.489521526683401
 31
0.0
  0
LINE
  5
67
  8
1
 62
     7
 10
-118.6462448102816
 20
18.439521526683411
 30
0.0
 11
-118.6462448102816
 21
17.489521526683401
 31
0.0
  0
LINE
  5
68
  8
1
 62
     7
 10
-123.6462448102816
 20
7.3494599466864683
 30
0.0
 11
-123.6462448102816
 21
3.439521526683408
 31
0.0
  0
LINE
  5
69
  8
1
 62
     7
 10
-124.3340961603546
 20
7.9395215266834072
 30
0.0
 11
-123.6462448102816
 21
7.3494599466864683
 31
0.0
  0
LINE
  5
6A
  8
1
 62
     7
 10
-128.6462448102815
 20
-3.560478473316588
 30
0.0
 11
-128.44624481028151
 21
-3.560478473316588
 31
0.0
  0
LINE
  5
6B
  8
1
 62
     7
 10
-128.6462448102815
 20
3.439521526683408
 30
0.0
 11
-130.6462448102815
 21
3.439521526683408
 31
0.0
  0
LINE
  5
6C
  8
1
 62
     7
 10
-130.6462448102815
 20
3.439521526683408
 30
0.0
 11
-130.6462448102815
 21
2.939521526683408
 31
0.0
  0
LINE
  5
6D
  8
1
 62
     7
 10
-130.6462448102815
 20
2.939521526683408
 30
0.0
 11
-145.6462448102815
 21
2.939521526683408
 31
0.0
  0
LINE
  5
6E
  8
1
 62
     7
 10
-145.6462448102815
 20
2.939521526683408
 30
0.0
 11
-145.6462448102815
 21
-18.560478473316589
 31
0.0
  0
LINE
  5
6F
  8
1
 62
     7
 10
-149.6462448102815
 20
2.4395215266834089
 30
0.0
 11
-145.6462448102815
 21
2.4395215266834089
 31
0.0
  0
LINE
  5
70
  8
1
 62
     7
 10
-118.6462448102816
 20
18.439521526683411
 30
0.0
 11
-118.6462448102814
 21
22.439521526683411
 31
0.0
  0
LINE
  5
71
  8
1
 62
     7
 10
-148.6462448102815
 20
22.439521526683411
 30
0.0
 11
-149.6462448102815
 21
21.439521526683411
 31
0.0
  0
LINE
  5
72
  8
1
 62
     7
 10
-148.6462448102815
 20
22.439521526683411
 30
0.0
 11
-109.6462448102815
 21
22.439521526683411
 31
0.0
  0
LINE
  5
73
  8
1
 62
     7
 10
-149.6462448102815
 20
21.439521526683411
 30
0.0
 11
-149.6462448102815
 21
-18.560478473316589
 31
0.0
  0
LINE
  5
74
  8
1
 62
     7
 10
-279.26052453249588
 20
52.439521526683407
 30
0.0
 11
-279.26052453249588
 21
47.439521526683407
 31
0.0
  0
LINE
  5
75
  8
1
 62
     7
 10
-281.26052453249588
 20
52.439521526683407
 30
0.0
 11
-281.26052453249588
 21
47.439521526683407
 31
0.0
  0
LINE
  5
76
  8
1
 62
     7
 10
-279.060524532496
 20
52.439521526683407
 30
0.0
 11
-279.060524532496
 21
47.439521526683407
 31
0.0
  0
LINE
  5
77
  8
1
 62
     7
 10
-278.86052453249602
 20
52.439521526683407
 30
0.0
 11
-278.86052453249602
 21
47.439521526683407
 31
0.0
  0
LINE
  5
78
  8
1
 62
     7
 10
-279.46052453249592
 20
52.439521526683407
 30
0.0
 11
-279.46052453249592
 21
47.439521526683407
 31
0.0
  0
LINE
  5
79
  8
1
 62
     7
 10
-279.66052453249591
 20
52.439521526683407
 30
0.0
 11
-279.66052453249591
 21
47.439521526683407
 31
0.0
  0
LINE
  5
7A
  8
1
 62
     7
 10
-281.060524532496
 20
52.439521526683407
 30
0.0
 11
-281.060524532496
 21
47.439521526683407
 31
0.0
  0
LINE
  5
7B
  8
1
 62
     7
 10
-280.86052453249602
 20
52.439521526683407
 30
0.0
 11
-280.86052453249602
 21
47.439521526683407
 31
0.0
  0
LINE
  5
7C
  8
1
 62
     7
 10
-281.46052453249592
 20
52.439521526683407
 30
0.0
 11
-281.46052453249592
 21
47.439521526683407
 31
0.0
  0
LINE
  5
7D
  8
1
 62
     7
 10
-281.66052453249591
 20
52.439521526683407
 30
0.0
 11
-281.66052453249591
 21
47.439521526683407
 31
0.0
  0
LINE
  5
7E
  8
1
 62
     7
 10
-282.26052453249599
 20
47.439521526683407
 30
0.0
 11
-278.26052453249599
 21
47.439521526683407
 31
0.0
  0
LINE
  5
7F
  8
1
 62
     7
 10
-278.26052453249599
 20
47.439521526683407
 30
0.0
 11
-278.26052453249599
 21
36.248862144135202
 31
0.0
  0
LINE
  5
80
  8
1
 62
     7
 10
-282.26052453249599
 20
22.390711985569951
 30
0.0
 11
-282.26052453249599
 21
34.631116626084889
 31
0.0
  0
LINE
  5
81
  8
1
 62
     7
 10
-280.26052453249599
 20
34.631116626084889
 30
0.0
 11
-280.26052453249599
 21
22.439521526683411
 31
0.0
  0
LINE
  5
82
  8
1
 62
     7
 10
-278.26052453249599
 20
34.631116626084889
 30
0.0
 11
-278.26052453249599
 21
22.390711985569951
 31
0.0
  0
LINE
  5
83
  8
1
 62
     7
 10
-282.26052453249599
 20
36.248862144135202
 30
0.0
 11
-282.26052453249599
 21
47.439521526683407
 31
0.0
  0
LINE
  5
84
  8
1
 62
     7
 10
-138.4462448102816
 20
52.439521526683407
 30
0.0
 11
-138.4462448102816
 21
47.439521526683407
 31
0.0
  0
LINE
  5
85
  8
1
 62
     7
 10
-138.24624481028161
 20
52.439521526683407
 30
0.0
 11
-138.24624481028161
 21
47.439521526683407
 31
0.0
  0
LINE
  5
86
  8
1
 62
     7
 10
-138.8462448102816
 20
52.439521526683407
 30
0.0
 11
-138.8462448102816
 21
47.439521526683407
 31
0.0
  0
LINE
  5
87
  8
1
 62
     7
 10
-139.04624481028159
 20
52.439521526683407
 30
0.0
 11
-139.04624481028159
 21
47.439521526683407
 31
0.0
  0
LINE
  5
88
  8
1
 62
     7
 10
-139.6462448102815
 20
47.439521526683407
 30
0.0
 11
-137.6462448102815
 21
47.439521526683407
 31
0.0
  0
LINE
  5
89
  8
1
 62
     7
 10
-137.6462448102815
 20
47.439521526683407
 30
0.0
 11
-137.6462448102815
 21
36.248862144135202
 31
0.0
  0
LINE
  5
8A
  8
1
 62
     7
 10
-137.6462448102815
 20
34.631116626084889
 30
0.0
 11
-137.6462448102815
 21
22.439521526683411
 31
0.0
  0
LINE
  5
8B
  8
1
 62
     7
 10
-139.6462448102815
 20
36.248862144135202
 30
0.0
 11
-139.6462448102815
 21
47.439521526683407
 31
0.0
  0
LINE
  5
8C
  8
1
 62
     7
 10
-130.1462448102815
 20
-0.7604784733165904
 30
0.0
 11
-128.6462448102815
 21
-0.7604784733165904
 31
0.0
  0
LINE
  5
8D
  8
1
 62
     7
 10
-128.6462448102815
 20
-4.2604784733165886
 30
0.0
 11
-130.1462448102815
 21
-4.2604784733165886
 31
0.0
  0
LINE
  5
8E
  8
1
 62
     7
 10
-130.1462448102815
 20
-4.2604784733165886
 30
0.0
 11
-130.1462448102815
 21
-0.7604784733165904
 31
0.0
  0
LINE
  5
8F
  8
1
 62
     7
 10
-139.6462448102815
 20
22.439521526683411
 30
0.0
 11
-139.6462448102815
 21
34.631116626084889
 31
0.0
  0
LINE
  5
90
  8
1
 62
     7
 10
-176.6462448102815
 20
-55.343626788815641
 30
0.0
 11
-176.6462448102815
 21
-59.560478473316593
 31
0.0
  0
LINE
  5
91
  8
1
 62
     7
 10
-177.79624481028151
 20
-55.343626788815641
 30
0.0
 11
-176.6462448102815
 21
-55.343626788815641
 31
0.0
  0
LINE
  5
92
  8
1
 62
     7
 10
-185.6462448102815
 20
-55.343626788815641
 30
0.0
 11
-185.1462448102815
 21
-55.343626788815641
 31
0.0
  0
LINE
  5
93
  8
1
 62
     3
 10
-185.1462448102815
 20
-58.560478473316593
 30
0.0
 11
-177.79624481028151
 21
-42.426785851557533
 31
0.0
  0
LINE
  5
94
  8
1
 62
     3
 10
-185.1462448102815
 20
-42.426785851557533
 30
0.0
 11
-177.79624481028151
 21
-58.560478473316593
 31
0.0
  0
LINE
  5
95
  8
1
 62
     7
 10
-185.1462448102815
 20
-42.426785851557533
 30
0.0
 11
-185.1462448102815
 21
-58.560478473316593
 31
0.0
  0
LINE
  5
96
  8
1
 62
     7
 10
-177.79624481028151
 20
-33.739405045681018
 30
0.0
 11
-176.6462448102815
 21
-33.739405045681018
 31
0.0
  0
LINE
  5
97
  8
1
 62
     7
 10
-177.79624481028151
 20
-58.560478473316593
 30
0.0
 11
-185.1462448102815
 21
-58.560478473316593
 31
0.0
  0
LINE
  5
98
  8
1
 62
     7
 10
-177.79624481028151
 20
-54.060478473316593
 30
0.0
 11
-176.6462448102815
 21
-54.060478473316593
 31
0.0
  0
LINE
  5
99
  8
1
 62
     7
 10
-177.79624481028151
 20
-42.426785851557533
 30
0.0
 11
-177.79624481028151
 21
-58.560478473316593
 31
0.0
  0
LINE
  5
9A
  8
1
 62
     7
 10
-177.79624481028151
 20
-18.560478473316589
 30
0.0
 11
-177.79624481028151
 21
-34.996125600311302
 31
0.0
  0
LINE
  5
9B
  8
1
 62
     7
 10
-185.6462448102815
 20
-42.426785851557533
 30
0.0
 11
-176.6462448102815
 21
-42.426785851557533
 31
0.0
  0
LINE
  5
9C
  8
1
 62
     7
 10
-185.6462448102815
 20
-35.498582621282019
 30
0.0
 11
-176.6462448102815
 21
-35.498582621282019
 31
0.0
  0
LINE
  5
9D
  8
1
 62
     7
 10
-185.1462448102815
 20
-34.996125600311302
 30
0.0
 11
-177.79624481028151
 21
-34.996125600311302
 31
0.0
  0
LINE
  5
9E
  8
1
 62
     7
 10
-185.6462448102815
 20
-33.739405045681018
 30
0.0
 11
-185.1462448102815
 21
-33.739405045681018
 31
0.0
  0
LINE
  5
9F
  8
1
 62
     7
 10
-173.1462448102815
 20
-18.560478473316589
 30
0.0
 11
-173.1462448102815
 21
-54.060478473316593
 31
0.0
  0
LINE
  5
A0
  8
1
 62
     7
 10
-185.1462448102815
 20
-18.560478473316589
 30
0.0
 11
-185.1462448102815
 21
-34.996125600311302
 31
0.0
  0
LINE
  5
A1
  8
1
 62
     7
 10
-176.6462448102815
 20
-18.560478473316589
 30
0.0
 11
-176.6462448102815
 21
-54.060478473316593
 31
0.0
  0
LINE
  5
A2
  8
1
 62
     7
 10
-171.6462448102815
 20
-37.010478473316581
 30
0.0
 11
-172.14624481028159
 21
-37.010478473316581
 31
0.0
  0
LINE
  5
A3
  8
1
 62
     7
 10
-172.14624481028159
 20
-18.560478473316589
 30
0.0
 11
-172.14624481028159
 21
-45.916132045341989
 31
0.0
  0
LINE
  5
A4
  8
1
 62
     7
 10
-173.1462448102815
 20
-54.060478473316593
 30
0.0
 11
-176.6462448102815
 21
-54.060478473316593
 31
0.0
  0
LINE
  5
A5
  8
1
 62
     7
 10
-173.1462448102815
 20
-54.060478473316593
 30
0.0
 11
-172.14624481028159
 21
-45.916132045341989
 31
0.0
  0
LINE
  5
A6
  8
1
 62
     7
 10
-171.6462448102815
 20
-18.560478473316589
 30
0.0
 11
-171.6462448102815
 21
-37.010478473316581
 31
0.0
  0
LINE
  5
A7
  8
1
 62
     7
 10
-185.1462448102815
 20
-54.360478473316611
 30
0.0
 11
-185.6462448102815
 21
-54.360478473316611
 31
0.0
  0
LINE
  5
A8
  8
1
 62
     7
 10
-216.6462448102815
 20
-18.560478473316589
 30
0.0
 11
-216.6462448102815
 21
-58.560478473316593
 31
0.0
  0
LINE
  5
A9
  8
1
 62
     7
 10
-215.64624481028159
 20
-59.560478473316593
 30
0.0
 11
-176.6462448102815
 21
-59.560478473316593
 31
0.0
  0
LINE
  5
AA
  8
1
 62
     7
 10
-185.6462448102815
 20
-59.560478473316593
 30
0.0
 11
-185.6462448102815
 21
-42.426785851557533
 31
0.0
  0
LINE
  5
AB
  8
1
 62
     7
 10
-215.64624481028159
 20
-59.560478473316593
 30
0.0
 11
-216.6462448102815
 21
-58.560478473316593
 31
0.0
  0
LINE
  5
AC
  8
1
 62
     7
 10
-215.64624481028159
 20
-18.560478473316589
 30
0.0
 11
-215.64624481028159
 21
-59.560478473316593
 31
0.0
  0
LINE
  5
AD
  8
1
 62
     7
 10
-205.4462448102816
 20
52.439521526683407
 30
0.0
 11
-205.4462448102816
 21
47.439521526683407
 31
0.0
  0
LINE
  5
AE
  8
1
 62
     7
 10
-205.2462448102815
 20
52.439521526683407
 30
0.0
 11
-205.2462448102815
 21
47.439521526683407
 31
0.0
  0
LINE
  5
AF
  8
1
 62
     7
 10
-205.8462448102816
 20
52.439521526683407
 30
0.0
 11
-205.8462448102816
 21
47.439521526683407
 31
0.0
  0
LINE
  5
B0
  8
1
 62
     7
 10
-206.04624481028151
 20
52.439521526683407
 30
0.0
 11
-206.04624481028151
 21
47.439521526683407
 31
0.0
  0
LINE
  5
B1
  8
1
 62
     7
 10
-206.6462448102815
 20
47.439521526683407
 30
0.0
 11
-204.6462448102815
 21
47.439521526683407
 31
0.0
  0
LINE
  5
B2
  8
1
 62
     7
 10
-204.6462448102815
 20
47.439521526683407
 30
0.0
 11
-204.6462448102815
 21
36.248862144135202
 31
0.0
  0
LINE
  5
B3
  8
1
 62
     7
 10
-204.6462448102815
 20
34.631116626084889
 30
0.0
 11
-204.6462448102815
 21
22.439521526683411
 31
0.0
  0
LINE
  5
B4
  8
1
 62
     7
 10
-206.6462448102815
 20
36.248862144135202
 30
0.0
 11
-206.6462448102815
 21
47.439521526683407
 31
0.0
  0
LINE
  5
B5
  8
1
 62
     7
 10
-185.6462448102815
 20
-35.498582621282019
 30
0.0
 11
-185.6462448102815
 21
-18.560478473316589
 31
0.0
  0
LINE
  5
B6
  8
1
 62
     7
 10
-206.6462448102815
 20
22.439521526683411
 30
0.0
 11
-206.6462448102815
 21
34.631116626084889
 31
0.0
  0
LINE
  5
B7
  8
1
 62
     7
 10
-125.1462448102816
 20
7.9395215266834072
 30
0.0
 11
-124.3340961603546
 21
7.9395215266834072
 31
0.0
  0
LINE
  5
B8
  8
1
 62
     7
 10
-128.6462448102815
 20
-0.7604784733165904
 30
0.0
 11
-128.6462448102815
 21
-4.2604784733165886
 31
0.0
  0
LINE
  5
B9
  8
1
  6
DASHDOT
 62
     3
 10
-152.39164270006
 20
-18.560478473316589
 30
0.0
 11
-149.6462448102815
 21
-18.560478473316589
 31
0.0
  0
LINE
  5
BA
  8
1
 62
     7
 10
-109.6462448102816
 20
-54.060478473316593
 30
0.0
 11
-110.79624481028161
 21
-54.060478473316593
 31
0.0
  0
LINE
  5
BB
  8
1
 62
     7
 10
-110.79624481028161
 20
-54.060478473316593
 30
0.0
 11
-110.79624481028161
 21
-58.560478473316557
 31
0.0
  0
LINE
  5
BC
  8
1
 62
     7
 10
-109.6462448102816
 20
-55.560478473316593
 30
0.0
 11
-109.6462448102815
 21
-59.560478473316593
 31
0.0
  0
LINE
  5
BD
  8
1
 62
     7
 10
-124.1462448102816
 20
-50.560478473316593
 30
0.0
 11
-124.1462448102816
 21
-47.585280758336623
 31
0.0
  0
LINE
  5
BE
  8
1
 62
     7
 10
-118.1462448102815
 20
-54.360478473316611
 30
0.0
 11
-124.1462448102816
 21
-54.360478473316611
 31
0.0
  0
LINE
  5
BF
  8
1
 62
     7
 10
-118.1462448102815
 20
-54.360478473316611
 30
0.0
 11
-118.1462448102815
 21
-58.560478473316593
 31
0.0
  0
LINE
  5
C0
  8
1
 62
     7
 10
-105.1462448102816
 20
-39.560478473316593
 30
0.0
 11
-105.1462448102816
 21
-37.89573027187781
 31
0.0
  0
LINE
  5
C1
  8
1
 62
     7
 10
-118.1462448102815
 20
-38.560478473316593
 30
0.0
 11
-118.1462448102815
 21
-34.310478473316579
 31
0.0
  0
LINE
  5
C2
  8
1
 62
     7
 10
-109.6462448102816
 20
-54.060478473316593
 30
0.0
 11
-109.6462448102816
 21
-34.310478473316579
 31
0.0
  0
LINE
  5
C3
  8
1
 62
     3
 10
-118.1462448102815
 20
-58.560478473316593
 30
0.0
 11
-109.6462448102816
 21
-34.310478473316579
 31
0.0
  0
LINE
  5
C4
  8
1
 62
     3
 10
-110.79624481028161
 20
-58.560478473316557
 30
0.0
 11
-118.1462448102815
 21
-34.310478473316579
 31
0.0
  0
LINE
  5
C5
  8
1
 62
     7
 10
-110.79624481028161
 20
-58.560478473316557
 30
0.0
 11
-118.1462448102815
 21
-58.560478473316593
 31
0.0
  0
LINE
  5
C6
  8
1
 62
     7
 10
-118.1462448102815
 20
-54.360478473316611
 30
0.0
 11
-118.1462448102815
 21
-58.560478473316593
 31
0.0
  0
LINE
  5
C7
  8
1
 62
     7
 10
-107.6462448102815
 20
-37.310478473316593
 30
0.0
 11
-109.6462448102816
 21
-37.310478473316593
 31
0.0
  0
LINE
  5
C8
  8
1
 62
     7
 10
-107.6462448102815
 20
-34.760478473316581
 30
0.0
 11
-109.6462448102816
 21
-34.760478473316581
 31
0.0
  0
LINE
  5
C9
  8
1
 62
     7
 10
-106.1462448102816
 20
-54.060478473316593
 30
0.0
 11
-109.6462448102816
 21
-54.060478473316593
 31
0.0
  0
LINE
  5
CA
  8
1
 62
     7
 10
-107.6462448102815
 20
-39.560478473316593
 30
0.0
 11
-107.6462448102815
 21
-34.760478473316581
 31
0.0
  0
LINE
  5
CB
  8
1
 62
     7
 10
-105.1462448102816
 20
-39.560478473316593
 30
0.0
 11
-107.6462448102815
 21
-39.560478473316593
 31
0.0
  0
LINE
  5
CC
  8
1
 62
     7
 10
-105.1462448102816
 20
-45.916132045341989
 30
0.0
 11
-105.1462448102816
 21
-39.560478473316593
 31
0.0
  0
LINE
  5
CD
  8
1
 62
     7
 10
-106.1462448102816
 20
-54.060478473316593
 30
0.0
 11
-105.1462448102816
 21
-45.916132045341989
 31
0.0
  0
LINE
  5
CE
  8
1
 62
     7
 10
-106.1462448102816
 20
-37.860478473316597
 30
0.0
 11
-107.6462448102815
 21
-37.860478473316597
 31
0.0
  0
LINE
  5
CF
  8
1
 62
     7
 10
-125.1462448102816
 20
-45.060478473316593
 30
0.0
 11
-125.1462448102816
 21
-54.61047847331659
 31
0.0
  0
LINE
  5
D0
  8
1
 62
     7
 10
-128.6462448102815
 20
-40.560478473316593
 30
0.0
 11
-123.6462448102816
 21
-40.560478473316593
 31
0.0
  0
LINE
  5
D1
  8
1
 62
     7
 10
-122.6462448102816
 20
-50.560478473316593
 30
0.0
 11
-122.6462448102816
 21
-40.360478473316597
 31
0.0
  0
LINE
  5
D2
  8
1
 62
     7
 10
-124.1462448102816
 20
-50.560478473316593
 30
0.0
 11
-122.6462448102816
 21
-50.560478473316593
 31
0.0
  0
LINE
  5
D3
  8
1
 62
     7
 10
-128.1462448102815
 20
-40.360478473316597
 30
0.0
 11
-122.6462448102816
 21
-40.360478473316597
 31
0.0
  0
LINE
  5
D4
  8
1
 62
     7
 10
-128.1462448102815
 20
-36.060478473316593
 30
0.0
 11
-128.1462448102815
 21
-40.360478473316597
 31
0.0
  0
LINE
  5
D5
  8
1
 62
     7
 10
-128.6462448102815
 20
-36.060478473316593
 30
0.0
 11
-128.1462448102815
 21
-36.060478473316593
 31
0.0
  0
LINE
  5
D6
  8
1
 62
     7
 10
-124.1462448102816
 20
-54.360478473316611
 30
0.0
 11
-124.1462448102816
 21
-50.560478473316593
 31
0.0
  0
LINE
  5
D7
  8
1
 62
     7
 10
-118.1462448102815
 20
-54.360478473316611
 30
0.0
 11
-124.1462448102816
 21
-54.360478473316611
 31
0.0
  0
LINE
  5
D8
  8
1
 62
     7
 10
-118.1462448102815
 20
-38.560478473316593
 30
0.0
 11
-118.1462448102815
 21
-54.360478473316611
 31
0.0
  0
LINE
  5
D9
  8
1
 62
     7
 10
-118.2462448102816
 20
-38.560478473316593
 30
0.0
 11
-118.1462448102815
 21
-38.560478473316593
 31
0.0
  0
LINE
  5
DA
  8
1
  6
DASHDOT
 62
     3
 10
-103.6850022067312
 20
-35.810478473316593
 30
0.0
 11
-119.1500909641277
 21
-35.810478473316593
 31
0.0
  0
LINE
  5
DB
  8
1
 62
     7
 10
-104.6462448102815
 20
-34.310478473316579
 30
0.0
 11
-118.2462448102816
 21
-34.310478473316579
 31
0.0
  0
LINE
  5
DC
  8
1
 62
     7
 10
-128.44624481028151
 20
-34.060478473316579
 30
0.0
 11
-128.44624481028151
 21
-33.560478473316579
 31
0.0
  0
LINE
  5
DD
  8
1
 62
     7
 10
-118.2462448102816
 20
-34.060478473316579
 30
0.0
 11
-128.6462448102815
 21
-34.060478473316579
 31
0.0
  0
LINE
  5
DE
  8
1
 62
     7
 10
-118.2462448102816
 20
-38.560478473316593
 30
0.0
 11
-118.2462448102816
 21
-34.060478473316579
 31
0.0
  0
LINE
  5
DF
  8
1
 62
     7
 10
-107.7462448102815
 20
-37.010478473316581
 30
0.0
 11
-118.2462448102816
 21
-37.010478473316581
 31
0.0
  0
LINE
  5
E0
  8
1
 62
     7
 10
-107.7462448102815
 20
-35.560478473316593
 30
0.0
 11
-107.7462448102815
 21
-37.010478473316581
 31
0.0
  0
LINE
  5
E1
  8
1
 62
     7
 10
-106.1462448102816
 20
-35.560478473316593
 30
0.0
 11
-107.7462448102815
 21
-35.560478473316593
 31
0.0
  0
LINE
  5
E2
  8
1
 62
     7
 10
-106.1462448102816
 20
-37.860478473316597
 30
0.0
 11
-106.1462448102816
 21
-35.560478473316593
 31
0.0
  0
LINE
  5
E3
  8
1
 62
     7
 10
-104.6462448102815
 20
-37.010478473316581
 30
0.0
 11
-106.1462448102816
 21
-37.010478473316581
 31
0.0
  0
LINE
  5
E4
  8
1
 62
     7
 10
-104.6462448102815
 20
-18.560478473316589
 30
0.0
 11
-104.6462448102815
 21
-37.010478473316581
 31
0.0
  0
LINE
  5
E5
  8
1
 62
     7
 10
-130.1462448102815
 20
-33.560478473316579
 30
0.0
 11
-132.6462448102815
 21
-33.560478473316579
 31
0.0
  0
LINE
  5
E6
  8
1
 62
     7
 10
-104.6462448102815
 20
-30.260478473316571
 30
0.0
 11
-132.6462448102815
 21
-30.260478473316571
 31
0.0
  0
LINE
  5
E7
  8
1
 62
     7
 10
-132.6462448102815
 20
-18.560478473316589
 30
0.0
 11
-132.6462448102815
 21
-33.560478473316579
 31
0.0
  0
LINE
  5
E8
  8
1
 62
     7
 10
-132.6462448102815
 20
-28.560478473316589
 30
0.0
 11
-104.6462448102815
 21
-28.560478473316589
 31
0.0
  0
LINE
  5
E9
  8
1
 62
     7
 10
-118.6462448102816
 20
-55.560478473316593
 30
0.0
 11
-109.6462448102816
 21
-55.560478473316593
 31
0.0
  0
LINE
  5
EA
  8
1
 62
     7
 10
-125.1462448102816
 20
-54.61047847331659
 30
0.0
 11
-118.6462448102816
 21
-54.61047847331659
 31
0.0
  0
LINE
  5
EB
  8
1
 62
     7
 10
-118.6462448102816
 20
-54.61047847331659
 30
0.0
 11
-118.6462448102816
 21
-55.560478473316593
 31
0.0
  0
LINE
  5
EC
  8
1
 62
     7
 10
-123.6462448102816
 20
-40.560478473316593
 30
0.0
 11
-123.6462448102816
 21
-44.470416893319637
 31
0.0
  0
LINE
  5
ED
  8
1
 62
     7
 10
-123.6462448102816
 20
-44.470416893319637
 30
0.0
 11
-124.3340961603546
 21
-45.060478473316593
 31
0.0
  0
LINE
  5
EE
  8
1
 62
     7
 10
-128.44624481028151
 20
-33.560478473316579
 30
0.0
 11
-128.6462448102815
 21
-33.560478473316579
 31
0.0
  0
LINE
  5
EF
  8
1
 62
     7
 10
-130.6462448102815
 20
-40.560478473316593
 30
0.0
 11
-128.6462448102815
 21
-40.560478473316593
 31
0.0
  0
LINE
  5
F0
  8
1
 62
     7
 10
-130.6462448102815
 20
-40.060478473316593
 30
0.0
 11
-130.6462448102815
 21
-40.560478473316593
 31
0.0
  0
LINE
  5
F1
  8
1
 62
     7
 10
-145.6462448102815
 20
-40.060478473316593
 30
0.0
 11
-130.6462448102815
 21
-40.060478473316593
 31
0.0
  0
LINE
  5
F2
  8
1
 62
     7
 10
-145.6462448102815
 20
-18.560478473316589
 30
0.0
 11
-145.6462448102815
 21
-40.060478473316593
 31
0.0
  0
LINE
  5
F3
  8
1
 62
     7
 10
-145.6462448102815
 20
-39.560478473316593
 30
0.0
 11
-149.6462448102815
 21
-39.560478473316593
 31
0.0
  0
LINE
  5
F4
  8
1
 62
     7
 10
-118.6462448102814
 20
-59.560478473316593
 30
0.0
 11
-118.6462448102816
 21
-55.560478473316593
 31
0.0
  0
LINE
  5
F5
  8
1
 62
     7
 10
-149.6462448102815
 20
-58.560478473316593
 30
0.0
 11
-148.6462448102815
 21
-59.560478473316593
 31
0.0
  0
LINE
  5
F6
  8
1
 62
     7
 10
-109.6462448102815
 20
-59.560478473316593
 30
0.0
 11
-148.6462448102815
 21
-59.560478473316593
 31
0.0
  0
LINE
  5
F7
  8
1
 62
     7
 10
-149.6462448102815
 20
-18.560478473316589
 30
0.0
 11
-149.6462448102815
 21
-58.560478473316593
 31
0.0
  0
LINE
  5
F8
  8
1
 62
     7
 10
-128.6462448102815
 20
-36.360478473316597
 30
0.0
 11
-130.1462448102815
 21
-36.360478473316597
 31
0.0
  0
LINE
  5
F9
  8
1
 62
     7
 10
-130.1462448102815
 20
-32.860478473316597
 30
0.0
 11
-128.6462448102815
 21
-32.860478473316597
 31
0.0
  0
LINE
  5
FA
  8
1
 62
     7
 10
-130.1462448102815
 20
-36.360478473316597
 30
0.0
 11
-130.1462448102815
 21
-32.860478473316597
 31
0.0
  0
LINE
  5
FB
  8
1
 62
     7
 10
-124.3340961603546
 20
-45.060478473316593
 30
0.0
 11
-125.1462448102816
 21
-45.060478473316593
 31
0.0
  0
LINE
  5
FC
  8
1
 62
     7
 10
-128.6462448102815
 20
-32.860478473316597
 30
0.0
 11
-128.6462448102815
 21
-36.360478473316597
 31
0.0
  0
LINE
  5
FD
  8
1
 62
     7
 10
-176.6462448102815
 20
22.439521526683411
 30
0.0
 11
-176.6462448102815
 21
18.222669842182452
 31
0.0
  0
LINE
  5
FE
  8
1
 62
     7
 10
-176.6462448102815
 20
18.222669842182452
 30
0.0
 11
-177.79624481028151
 21
18.222669842182452
 31
0.0
  0
LINE
  5
FF
  8
1
 62
     7
 10
-185.1462448102815
 20
18.222669842182452
 30
0.0
 11
-185.6462448102815
 21
18.222669842182452
 31
0.0
  0
LINE
  5
100
  8
1
 62
     3
 10
-177.79624481028151
 20
5.3058289049243532
 30
0.0
 11
-185.1462448102815
 21
21.439521526683411
 31
0.0
  0
LINE
  5
101
  8
1
 62
     3
 10
-177.79624481028151
 20
21.439521526683411
 30
0.0
 11
-185.1462448102815
 21
5.3058289049243532
 31
0.0
  0
LINE
  5
102
  8
1
 62
     7
 10
-185.1462448102815
 20
21.439521526683411
 30
0.0
 11
-185.1462448102815
 21
5.3058289049243532
 31
0.0
  0
LINE
  5
103
  8
1
 62
     7
 10
-176.6462448102815
 20
-3.38155190095216
 30
0.0
 11
-177.79624481028151
 21
-3.38155190095216
 31
0.0
  0
LINE
  5
104
  8
1
 62
     7
 10
-185.1462448102815
 20
21.439521526683411
 30
0.0
 11
-177.79624481028151
 21
21.439521526683411
 31
0.0
  0
LINE
  5
105
  8
1
 62
     7
 10
-176.6462448102815
 20
16.939521526683411
 30
0.0
 11
-177.79624481028151
 21
16.939521526683411
 31
0.0
  0
LINE
  5
106
  8
1
 62
     7
 10
-177.79624481028151
 20
21.439521526683411
 30
0.0
 11
-177.79624481028151
 21
5.3058289049243532
 31
0.0
  0
LINE
  5
107
  8
1
 62
     7
 10
-177.79624481028151
 20
-2.1248313463218751
 30
0.0
 11
-177.79624481028151
 21
-18.560478473316589
 31
0.0
  0
LINE
  5
108
  8
1
 62
     7
 10
-176.6462448102815
 20
5.3058289049243532
 30
0.0
 11
-185.6462448102815
 21
5.3058289049243532
 31
0.0
  0
LINE
  5
109
  8
1
 62
     7
 10
-176.6462448102815
 20
-1.6223743253511449
 30
0.0
 11
-185.6462448102815
 21
-1.6223743253511449
 31
0.0
  0
LINE
  5
10A
  8
1
 62
     7
 10
-177.79624481028151
 20
-2.1248313463218751
 30
0.0
 11
-185.1462448102815
 21
-2.1248313463218751
 31
0.0
  0
LINE
  5
10B
  8
1
 62
     7
 10
-185.1462448102815
 20
-3.38155190095216
 30
0.0
 11
-185.6462448102815
 21
-3.38155190095216
 31
0.0
  0
LINE
  5
10C
  8
1
 62
     7
 10
-173.1462448102815
 20
16.939521526683411
 30
0.0
 11
-173.1462448102815
 21
-18.560478473316589
 31
0.0
  0
LINE
  5
10D
  8
1
 62
     7
 10
-185.1462448102815
 20
-2.1248313463218751
 30
0.0
 11
-185.1462448102815
 21
-18.560478473316589
 31
0.0
  0
LINE
  5
10E
  8
1
 62
     7
 10
-176.6462448102815
 20
16.939521526683411
 30
0.0
 11
-176.6462448102815
 21
-18.560478473316589
 31
0.0
  0
LINE
  5
10F
  8
1
 62
     7
 10
-172.14624481028159
 20
-0.1104784733165971
 30
0.0
 11
-171.6462448102815
 21
-0.1104784733165971
 31
0.0
  0
LINE
  5
110
  8
1
 62
     7
 10
-172.14624481028159
 20
8.7951750987088246
 30
0.0
 11
-172.14624481028159
 21
-18.560478473316589
 31
0.0
  0
LINE
  5
111
  8
1
 62
     7
 10
-176.6462448102815
 20
16.939521526683411
 30
0.0
 11
-173.1462448102815
 21
16.939521526683411
 31
0.0
  0
LINE
  5
112
  8
1
 62
     7
 10
-172.14624481028159
 20
8.7951750987088246
 30
0.0
 11
-173.1462448102815
 21
16.939521526683411
 31
0.0
  0
LINE
  5
113
  8
1
 62
     7
 10
-171.6462448102815
 20
-0.1104784733165971
 30
0.0
 11
-171.6462448102815
 21
-18.560478473316589
 31
0.0
  0
LINE
  5
114
  8
1
 62
     7
 10
-185.6462448102815
 20
17.239521526683411
 30
0.0
 11
-185.1462448102815
 21
17.239521526683411
 31
0.0
  0
LINE
  5
115
  8
1
 62
     7
 10
-216.6462448102815
 20
21.439521526683411
 30
0.0
 11
-216.6462448102815
 21
-18.560478473316589
 31
0.0
  0
LINE
  5
116
  8
1
 62
     7
 10
-176.6462448102815
 20
22.439521526683411
 30
0.0
 11
-215.64624481028159
 21
22.439521526683411
 31
0.0
  0
LINE
  5
117
  8
1
 62
     7
 10
-185.6462448102815
 20
5.3058289049243532
 30
0.0
 11
-185.6462448102815
 21
22.439521526683411
 31
0.0
  0
LINE
  5
118
  8
1
 62
     7
 10
-216.6462448102815
 20
21.439521526683411
 30
0.0
 11
-215.64624481028159
 21
22.439521526683411
 31
0.0
  0
LINE
  5
119
  8
1
 62
     7
 10
-215.64624481028159
 20
22.439521526683411
 30
0.0
 11
-215.64624481028159
 21
-18.560478473316589
 31
0.0
  0
LINE
  5
11A
  8
1
 62
     7
 10
-185.6462448102815
 20
-18.560478473316589
 30
0.0
 11
-185.6462448102815
 21
-1.6223743253511449
 31
0.0
  0
LINE
  5
11B
  8
1
  6
DASHDOT
 62
     3
 10
-218.91241584571389
 20
-18.560478473316589
 30
0.0
 11
-216.6462448102815
 21
-18.560478473316589
 31
0.0
  0
LINE
  5
11C
  8
1
 62
     3
 10
-185.1462448102815
 20
-2.1248313463218751
 30
0.0
 11
-177.79624481028151
 21
-34.996125600311302
 31
0.0
  0
LINE
  5
11D
  8
1
 62
     3
 10
-185.1462448102815
 20
-34.996125600311302
 30
0.0
 11
-177.79624481028151
 21
-2.1248313463218751
 31
0.0
  0
LINE
  5
11E
  8
1
 62
     7
 10
-41.0
 20
22.24393305288973
 30
0.0
 11
-41.0
 21
17.939521526683411
 31
0.0
  0
LINE
  5
11F
  8
1
 62
     7
 10
-49.000000000000007
 20
22.24393305288973
 30
0.0
 11
-49.000000000000007
 21
17.939521526683411
 31
0.0
  0
LINE
  5
120
  8
1
 62
     7
 10
-49.000000000000007
 20
17.939521526683411
 30
0.0
 11
-41.0
 21
17.939521526683411
 31
0.0
  0
LINE
  5
121
  8
1
 62
     7
 10
-82.337656968169213
 20
-1.622374325351174
 30
0.0
 11
-78.609927238132016
 21
-3.7745800884543379
 31
0.0
  0
LINE
  5
122
  8
1
 62
     7
 10
-78.337656968169213
 20
5.3058289049243337
 30
0.0
 11
-74.609927238132016
 21
3.1536231418211709
 31
0.0
  0
LINE
  5
123
  8
1
 62
     7
 10
-78.609927238132016
 20
-3.7745800884543379
 30
0.0
 11
-74.609927238132016
 21
3.1536231418211709
 31
0.0
  0
LINE
  5
124
  8
1
 62
     7
 10
-78.33765696816927
 20
-42.426785851557497
 30
0.0
 11
-74.60992723813203
 21
-40.274580088454329
 31
0.0
  0
LINE
  5
125
  8
1
 62
     7
 10
-82.33765696816927
 20
-35.498582621281969
 30
0.0
 11
-78.60992723813203
 21
-33.346376858178829
 31
0.0
  0
LINE
  5
126
  8
1
 62
     7
 10
-74.60992723813203
 20
-40.274580088454329
 30
0.0
 11
-78.60992723813203
 21
-33.346376858178829
 31
0.0
  0
LINE
  5
127
  8
1
 62
     7
 10
-49.000000000000028
 20
-59.364889999522923
 30
0.0
 11
-49.000000000000021
 21
-55.060478473316593
 31
0.0
  0
LINE
  5
128
  8
1
 62
     7
 10
-41.000000000000021
 20
-59.364889999522923
 30
0.0
 11
-41.000000000000043
 21
-55.060478473316593
 31
0.0
  0
LINE
  5
129
  8
1
 62
     7
 10
-41.000000000000043
 20
-55.060478473316593
 30
0.0
 11
-49.000000000000021
 21
-55.060478473316593
 31
0.0
  0
LINE
  5
12A
  8
1
 62
     7
 10
-11.66234303183079
 20
-42.426785851557533
 30
0.0
 11
-15.390072761868
 21
-40.274580088454357
 31
0.0
  0
LINE
  5
12B
  8
1
 62
     7
 10
-7.6623430318307797
 20
-35.498582621282011
 30
0.0
 11
-11.39007276186801
 21
-33.34637685817885
 31
0.0
  0
LINE
  5
12C
  8
1
 62
     7
 10
-11.39007276186801
 20
-33.34637685817885
 30
0.0
 11
-15.390072761868
 21
-40.274580088454357
 31
0.0
  0
LINE
  5
12D
  8
1
 62
     7
 10
-11.66234303183076
 20
5.3058289049243106
 30
0.0
 11
-15.39007276186797
 21
3.153623141821146
 31
0.0
  0
LINE
  5
12E
  8
1
 62
     7
 10
-7.6623430318307664
 20
-1.6223743253512131
 30
0.0
 11
-11.390072761867989
 21
-3.7745800884543561
 31
0.0
  0
LINE
  5
12F
  8
1
 62
     7
 10
-15.39007276186797
 20
3.153623141821146
 30
0.0
 11
-11.390072761867989
 21
-3.7745800884543561
 31
0.0
  0
LINE
  5
130
  8
1
 62
     7
 10
-44.000000000000007
 20
52.439521526683407
 30
0.0
 11
-44.000000000000007
 21
47.439521526683407
 31
0.0
  0
LINE
  5
131
  8
1
 62
     7
 10
-46.0
 20
52.439521526683407
 30
0.0
 11
-46.0
 21
47.439521526683407
 31
0.0
  0
LINE
  5
132
  8
1
 62
     7
 10
-43.800000000000011
 20
52.439521526683407
 30
0.0
 11
-43.800000000000011
 21
47.439521526683407
 31
0.0
  0
LINE
  5
133
  8
1
 62
     7
 10
-43.600000000000023
 20
52.439521526683407
 30
0.0
 11
-43.600000000000023
 21
47.439521526683407
 31
0.0
  0
LINE
  5
134
  8
1
 62
     7
 10
-44.200000000000038
 20
52.439521526683407
 30
0.0
 11
-44.200000000000038
 21
47.439521526683407
 31
0.0
  0
LINE
  5
135
  8
1
 62
     7
 10
-44.399999999999977
 20
52.439521526683407
 30
0.0
 11
-44.399999999999977
 21
47.439521526683407
 31
0.0
  0
LINE
  5
136
  8
1
 62
     7
 10
-45.800000000000011
 20
52.439521526683407
 30
0.0
 11
-45.800000000000011
 21
47.439521526683407
 31
0.0
  0
LINE
  5
137
  8
1
 62
     7
 10
-45.60000000000003
 20
52.439521526683407
 30
0.0
 11
-45.60000000000003
 21
47.439521526683407
 31
0.0
  0
LINE
  5
138
  8
1
 62
     7
 10
-46.200000000000038
 20
52.439521526683407
 30
0.0
 11
-46.200000000000038
 21
47.439521526683407
 31
0.0
  0
LINE
  5
139
  8
1
 62
     7
 10
-46.399999999999977
 20
52.439521526683407
 30
0.0
 11
-46.399999999999977
 21
47.439521526683407
 31
0.0
  0
LINE
  5
13A
  8
1
 62
     7
 10
-47.000000000000007
 20
47.439521526683407
 30
0.0
 11
-43.0
 21
47.439521526683407
 31
0.0
  0
LINE
  5
13B
  8
1
 62
     7
 10
-43.0
 20
47.439521526683407
 30
0.0
 11
-43.0
 21
36.248862144135202
 31
0.0
  0
LINE
  5
13C
  8
1
 62
     7
 10
-47.000000000000007
 20
22.390711985569951
 30
0.0
 11
-47.000000000000007
 21
34.631116626084889
 31
0.0
  0
LINE
  5
13D
  8
1
 62
     7
 10
-45.0
 20
47.439521526683407
 30
0.0
 11
-45.0
 21
36.248862144135202
 31
0.0
  0
LINE
  5
13E
  8
1
 62
     7
 10
-43.0
 20
34.631116626084889
 30
0.0
 11
-43.0
 21
22.390711985569951
 31
0.0
  0
LINE
  5
13F
  8
1
 62
     7
 10
-47.000000000000007
 20
36.248862144135202
 30
0.0
 11
-47.000000000000007
 21
47.439521526683407
 31
0.0
  0
LINE
  5
140
  8
1
 62
     7
 10
-280.26052453249599
 20
36.248862144135202
 30
0.0
 11
-280.26052453249599
 21
47.439521526683407
 31
0.0
  0
LINE
  5
141
  8
1
 62
     7
 10
-45.0
 20
34.631116626084889
 30
0.0
 11
-45.0
 21
22.439521526683411
 31
0.0
  0
LINE
  5
142
  8
1
 62
     7
 10
-48.0
 20
-6.8604784733166007
 30
0.0
 11
-42.0
 21
-6.8604784733166007
 31
0.0
  0
LINE
  5
143
  8
1
 62
     7
 10
-48.0
 20
-9.0210864591471598
 30
0.0
 11
-48.0
 21
-6.8604784733166007
 31
0.0
  0
LINE
  5
144
  8
1
 62
     7
 10
-42.0
 20
-9.0210864591471598
 30
0.0
 11
-42.0
 21
-6.8604784733166007
 31
0.0
  0
LINE
  5
145
  8
1
  6
DASHDOT
 62
     3
 10
-81.373066958946424
 20
2.4395215266834001
 30
0.0
 11
-74.877876430563134
 21
-1.3104784733165931
 31
0.0
  0
LINE
  5
146
  8
1
  6
DASHDOT
 62
     3
 10
-74.87787643056312
 20
-35.810478473316593
 30
0.0
 11
-81.373066958946424
 21
-39.560478473316593
 31
0.0
  0
LINE
  5
147
  8
1
  6
DASHDOT
 62
     3
 10
-8.62693304105359
 20
-39.560478473316593
 30
0.0
 11
-15.122123569436861
 21
-35.810478473316593
 31
0.0
  0
LINE
  5
148
  8
1
  6
DASHDOT
 62
     3
 10
-15.122123569436861
 20
-1.3104784733165891
 30
0.0
 11
-8.6269330410535812
 21
2.4395215266834041
 31
0.0
  0
LINE
  5
149
  8
1
 62
     7
 10
-149.6462448102815
 20
14.3395215266834
 30
0.0
 11
-140.8462448102816
 21
14.3395215266834
 31
0.0
  0
LINE
  5
14A
  8
1
 62
     7
 10
-140.8462448102816
 20
14.3395215266834
 30
0.0
 11
-140.8462448102816
 21
10.53952152668341
 31
0.0
  0
LINE
  5
14B
  8
1
 62
     7
 10
-140.8462448102816
 20
10.53952152668341
 30
0.0
 11
-149.6462448102815
 21
10.53952152668341
 31
0.0
  0
LINE
  5
14C
  8
1
 62
     7
 10
-140.8462448102816
 20
14.3395215266834
 30
0.0
 11
-139.4028691373075
 21
12.439521526683411
 31
0.0
  0
LINE
  5
14D
  8
1
 62
     7
 10
-139.4028691373075
 20
12.439521526683411
 30
0.0
 11
-140.8462448102816
 21
10.53952152668341
 31
0.0
  0
LINE
  5
14E
  8
1
 62
     3
 10
-149.6462448102815
 20
14.939521526683411
 30
0.0
 11
-144.6462448102815
 21
14.939521526683411
 31
0.0
  0
LINE
  5
14F
  8
1
 62
     3
 10
-144.6462448102815
 20
14.939521526683411
 30
0.0
 11
-144.6462448102815
 21
9.9395215266834107
 31
0.0
  0
LINE
  5
150
  8
1
 62
     3
 10
-144.6462448102815
 20
9.9395215266834107
 30
0.0
 11
-149.6462448102815
 21
9.9395215266834107
 31
0.0
  0
LINE
  5
151
  8
1
 62
     3
 10
-144.6462448102815
 20
14.939521526683411
 30
0.0
 11
-143.60701432574029
 21
14.3395215266834
 31
0.0
  0
LINE
  5
152
  8
1
 62
     3
 10
-144.6462448102815
 20
9.9395215266834107
 30
0.0
 11
-143.60701432574029
 21
10.53952152668341
 31
0.0
  0
LINE
  5
153
  8
1
 62
     7
 10
-140.8462448102816
 20
-51.460478473316591
 30
0.0
 11
-149.6462448102815
 21
-51.460478473316591
 31
0.0
  0
LINE
  5
154
  8
1
 62
     7
 10
-140.8462448102816
 20
-47.660478473316587
 30
0.0
 11
-140.8462448102816
 21
-51.460478473316591
 31
0.0
  0
LINE
  5
155
  8
1
 62
     7
 10
-149.6462448102815
 20
-47.660478473316587
 30
0.0
 11
-140.8462448102816
 21
-47.660478473316587
 31
0.0
  0
LINE
  5
156
  8
1
 62
     7
 10
-139.4028691373075
 20
-49.560478473316593
 30
0.0
 11
-140.8462448102816
 21
-51.460478473316591
 31
0.0
  0
LINE
  5
157
  8
1
 62
     7
 10
-140.8462448102816
 20
-47.660478473316587
 30
0.0
 11
-139.4028691373075
 21
-49.560478473316593
 31
0.0
  0
LINE
  5
158
  8
1
 62
     3
 10
-144.6462448102815
 20
-52.060478473316593
 30
0.0
 11
-149.6462448102815
 21
-52.060478473316593
 31
0.0
  0
LINE
  5
159
  8
1
 62
     3
 10
-144.6462448102815
 20
-47.060478473316593
 30
0.0
 11
-144.6462448102815
 21
-52.060478473316593
 31
0.0
  0
LINE
  5
15A
  8
1
 62
     3
 10
-149.6462448102815
 20
-47.060478473316593
 30
0.0
 11
-144.6462448102815
 21
-47.060478473316593
 31
0.0
  0
LINE
  5
15B
  8
1
 62
     3
 10
-143.60701432574029
 20
-51.460478473316591
 30
0.0
 11
-144.6462448102815
 21
-52.060478473316593
 31
0.0
  0
LINE
  5
15C
  8
1
 62
     3
 10
-143.60701432574029
 20
-47.660478473316587
 30
0.0
 11
-144.6462448102815
 21
-47.060478473316593
 31
0.0
  0
LINE
  5
15D
  8
1
  6
DASHDOT
 62
     3
 10
-151.6462448102815
 20
12.439521526683411
 30
0.0
 11
-137.4028691373075
 21
12.439521526683411
 31
0.0
  0
LINE
  5
15E
  8
1
  6
DASHDOT
 62
     3
 10
-137.4028691373075
 20
-49.560478473316593
 30
0.0
 11
-151.6462448102815
 21
-49.560478473316593
 31
0.0
  0
LINE
  5
15F
  8
1
  6
DASHDOT
 62
     3
 10
-54.000000000000007
 20
-18.560478473316589
 30
0.0
 11
-36.0
 21
-18.560478473316589
 31
0.0
  0
LINE
  5
160
  8
1
  6
DASHDOT
 62
     3
 10
-45.0
 20
-9.5604784733165893
 30
0.0
 11
-45.0
 21
-27.560478473316589
 31
0.0
  0
LINE
  5
161
  8
1
  6
DASHDOT
 62
     3
 10
-280.26052453249599
 20
-9.5604784733165893
 30
0.0
 11
-280.26052453249599
 21
-27.560478473316589
 31
0.0
  0
LINE
  5
162
  8
1
  6
DASHDOT
 62
     3
 10
-280.26052453249599
 20
-27.560478473316589
 30
0.0
 11
-280.26052453249599
 21
-28.560478473316572
 31
0.0
  0
LINE
  5
163
  8
1
  6
DASHDOT
 62
     3
 10
-271.26052453249588
 20
-18.560478473316589
 30
0.0
 11
-289.26052453249588
 21
-18.560478473316589
 31
0.0
  0
LINE
  5
164
  8
1
  6
DASHDOT
 62
     3
 10
-104.6462448102815
 20
-18.560478473316589
 30
0.0
 11
-101.39164270006
 21
-18.560478473316589
 31
0.0
  0
LINE
  5
165
  8
1
  6
DASHDOT
 62
     3
 10
-171.6462448102815
 20
-18.560478473316589
 30
0.0
 11
-168.91241584571401
 21
-18.560478473316589
 31
0.0
  0
ARC
  5
166
  8
1
 62
     7
 10
-280.26052453249599
 20
-18.560478473316589
 30
0.0
 40
9.9999999999999751
 50
107.45760312372209
 51
72.542396876277863
  0
ARC
  5
167
  8
1
 62
     7
 10
-279.26052453249588
 20
33.881116626084889
 30
0.0
 40
1.25
 50
36.86989764584402
 51
143.13010235415601
  0
ARC
  5
168
  8
1
 62
     7
 10
-279.26052453249588
 20
35.381116626084889
 30
0.0
 40
1.25
 50
216.86989764584391
 51
323.13010235415601
  0
ARC
  5
169
  8
1
 62
     7
 10
-281.26052453249588
 20
33.881116626084889
 30
0.0
 40
1.25
 50
36.86989764584402
 51
143.13010235415601
  0
ARC
  5
16A
  8
1
 62
     7
 10
-281.26052453249588
 20
36.998862144135202
 30
0.0
 40
1.25
 50
216.86989764584391
 51
323.13010235415601
  0
ARC
  5
16B
  8
1
 62
     7
 10
-281.26052453249588
 20
35.498862144135202
 30
0.0
 40
1.25
 50
36.86989764584402
 51
143.13010235415601
  0
ARC
  5
16C
  8
1
 62
     7
 10
-279.26052453249588
 20
36.998862144135202
 30
0.0
 40
1.25
 50
216.86989764584391
 51
323.13010235415601
  0
ARC
  5
16D
  8
1
 62
     7
 10
-139.1462448102815
 20
36.431005001278038
 30
0.0
 40
0.5321428571428547
 50
200.01595960288179
 51
339.98404039711812
  0
ARC
  5
16E
  8
1
 62
     7
 10
-138.1462448102815
 20
36.431005001278038
 30
0.0
 40
0.5321428571428547
 50
200.01595960288179
 51
339.98404039711812
  0
ARC
  5
16F
  8
1
 62
     7
 10
-139.1462448102815
 20
34.448973768942047
 30
0.0
 40
0.5321428571428573
 50
20.01595960288266
 51
159.9840403971173
  0
ARC
  5
170
  8
1
 62
     7
 10
-138.1462448102815
 20
34.448973768942047
 30
0.0
 40
0.5321428571428573
 50
20.01595960288266
 51
159.9840403971173
  0
ARC
  5
171
  8
1
 62
     7
 10
-138.1462448102815
 20
34.813259483227739
 30
0.0
 40
0.5321428571428547
 50
200.01595960288179
 51
339.98404039711812
  0
ARC
  5
172
  8
1
 62
     7
 10
-139.1462448102815
 20
36.066719286992353
 30
0.0
 40
0.5321428571428547
 50
20.015959602881939
 51
159.98404039711801
  0
ARC
  5
173
  8
1
 62
     7
 10
-206.1462448102815
 20
36.431005001278038
 30
0.0
 40
0.5321428571428547
 50
200.01595960288179
 51
339.98404039711812
  0
ARC
  5
174
  8
1
 62
     7
 10
-205.14624481028159
 20
36.431005001278038
 30
0.0
 40
0.5321428571428547
 50
200.01595960288179
 51
339.98404039711812
  0
ARC
  5
175
  8
1
 62
     7
 10
-206.1462448102815
 20
34.448973768942047
 30
0.0
 40
0.5321428571428573
 50
20.01595960288266
 51
159.9840403971173
  0
ARC
  5
176
  8
1
 62
     7
 10
-205.14624481028159
 20
34.448973768942047
 30
0.0
 40
0.5321428571428573
 50
20.01595960288266
 51
159.9840403971173
  0
ARC
  5
177
  8
1
 62
     7
 10
-205.14624481028159
 20
34.813259483227739
 30
0.0
 40
0.5321428571428547
 50
200.01595960288179
 51
339.98404039711812
  0
ARC
  5
178
  8
1
 62
     7
 10
-206.1462448102815
 20
36.066719286992353
 30
0.0
 40
0.5321428571428547
 50
20.015959602881939
 51
159.98404039711801
  0
ARC
  5
179
  8
1
 62
     7
 10
-45.0
 20
-18.560478473316589
 30
0.0
 40
36.999999999999993
 50
83.793732249010105
 51
96.206267750989895
  0
ARC
  5
17A
  8
1
 62
     7
 10
-45.0
 20
-18.560478473316589
 30
0.0
 40
37.0
 50
143.79373224900999
 51
156.20626775098989
  0
ARC
  5
17B
  8
1
 62
     7
 10
-45.0
 20
-18.560478473316589
 30
0.0
 40
36.999999999999993
 50
203.79373224900999
 51
216.20626775098989
  0
ARC
  5
17C
  8
1
 62
     7
 10
-45.0
 20
-18.560478473316589
 30
0.0
 40
36.999999999999993
 50
263.79373224901002
 51
276.20626775098992
  0
ARC
  5
17D
  8
1
 62
     7
 10
-45.0
 20
-18.560478473316589
 30
0.0
 40
36.999999999999993
 50
323.79373224901008
 51
336.20626775098981
  0
ARC
  5
17E
  8
1
 62
     7
 10
-45.0
 20
-18.560478473316589
 30
0.0
 40
36.999999999999993
 50
23.79373224901007
 51
36.20626775098988
  0
ARC
  5
17F
  8
1
 62
     7
 10
-45.0
 20
-18.560478473316589
 30
0.0
 40
39.999999999999993
 50
35.739170477266761
 51
84.260829522733218
  0
ARC
  5
180
  8
1
 62
     7
 10
-45.0
 20
-18.560478473316589
 30
0.0
 40
39.999999999999993
 50
155.73917047726681
 51
180.0
  0
ARC
  5
181
  8
1
 62
     7
 10
-45.0
 20
-18.560478473316589
 30
0.0
 40
40.0
 50
95.739170477266768
 51
144.26082952273319
  0
ARC
  5
182
  8
1
 62
     7
 10
-45.0
 20
-18.560478473316589
 30
0.0
 40
39.999999999999993
 50
180.0
 51
204.2608295227331
  0
ARC
  5
183
  8
1
 62
     7
 10
-45.0
 20
-18.560478473316589
 30
0.0
 40
39.999999999999979
 50
215.73917047726681
 51
264.26082952273322
  0
ARC
  5
184
  8
1
 62
     7
 10
-45.0
 20
-18.560478473316589
 30
0.0
 40
39.999999999999993
 50
275.73917047726673
 51
324.26082952273322
  0
ARC
  5
185
  8
1
 62
     7
 10
-45.0
 20
-18.560478473316589
 30
0.0
 40
40.0
 50
335.73917047726678
 51
24.260829522733172
  0
ARC
  5
186
  8
1
 62
     7
 10
-44.000000000000007
 20
33.881116626084889
 30
0.0
 40
1.25
 50
36.86989764584402
 51
143.13010235415601
  0
ARC
  5
187
  8
1
 62
     7
 10
-44.000000000000007
 20
35.381116626084889
 30
0.0
 40
1.25
 50
216.86989764584391
 51
323.13010235415601
  0
ARC
  5
188
  8
1
 62
     7
 10
-46.0
 20
33.881116626084889
 30
0.0
 40
1.25
 50
36.86989764584402
 51
143.13010235415601
  0
ARC
  5
189
  8
1
 62
     7
 10
-46.0
 20
36.998862144135202
 30
0.0
 40
1.25
 50
216.86989764584391
 51
323.13010235415601
  0
ARC
  5
18A
  8
1
 62
     7
 10
-46.0
 20
35.498862144135202
 30
0.0
 40
1.25
 50
36.86989764584402
 51
143.13010235415601
  0
ARC
  5
18B
  8
1
 62
     7
 10
-44.000000000000007
 20
36.998862144135202
 30
0.0
 40
1.25
 50
216.86989764584391
 51
323.13010235415601
  0
ARC
  5
18C
  8
1
 62
     7
 10
-45.0
 20
-18.560478473316589
 30
0.0
 40
9.9999999999999734
 50
107.45760312372209
 51
72.54239687627782
  0
CIRCLE
  5
18D
  8
1
 62
     7
 10
-280.26052453249599
 20
-18.560478473316589
 30
0.0
 40
21.0
  0
CIRCLE
  5
18E
  8
1
 62
     7
 10
-280.26052453249599
 20
-18.560478473316589
 30
0.0
 40
41.0
  0
CIRCLE
  5
18F
  8
1
  6
DASHDOT
 62
     3
 10
-280.26052453249599
 20
-18.560478473316589
 30
0.0
 40
31.0
  0
CIRCLE
  5
190
  8
1
 62
     7
 10
-280.26052453249599
 20
-49.560478473316593
 30
0.0
 40
2.0
  0
CIRCLE
  5
191
  8
1
 62
     3
 10
-280.26052453249599
 20
-49.560478473316593
 30
0.0
 40
2.5
  0
CIRCLE
  5
192
  8
1
 62
     7
 10
-249.26052453249599
 20
-18.560478473316589
 30
0.0
 40
1.999999999999988
  0
CIRCLE
  5
193
  8
1
 62
     7
 10
-280.26052453249599
 20
12.43952152668342
 30
0.0
 40
2.0
  0
CIRCLE
  5
194
  8
1
 62
     7
 10
-311.26052453249599
 20
-18.560478473316572
 30
0.0
 40
2.0
  0
CIRCLE
  5
195
  8
1
 62
     3
 10
-249.26052453249599
 20
-18.560478473316589
 30
0.0
 40
2.4999999999999889
  0
CIRCLE
  5
196
  8
1
 62
     3
 10
-280.26052453249599
 20
12.43952152668342
 30
0.0
 40
2.5
  0
CIRCLE
  5
197
  8
1
 62
     3
 10
-311.26052453249599
 20
-18.560478473316572
 30
0.0
 40
2.5
  0
CIRCLE
  5
198
  8
1
 62
     7
 10
-280.26052453249599
 20
-18.560478473316589
 30
0.0
 40
15.0
  0
CIRCLE
  5
199
  8
1
 62
     7
 10
-45.0
 20
-18.560478473316589
 30
0.0
 40
40.999999999999993
  0
CIRCLE
  5
19A
  8
1
 62
     7
 10
-45.0
 20
-18.560478473316589
 30
0.0
 40
35.5
  0
CIRCLE
  5
19B
  8
1
 62
     7
 10
-45.0
 20
-18.560478473316589
 30
0.0
 40
27.355653572025421
  0
CIRCLE
  5
19C
  8
1
 62
     7
 10
-45.0
 20
-18.560478473316589
 30
0.0
 40
21.0
  0
CIRCLE
  5
19D
  8
1
 62
     7
 10
-45.0
 20
-18.560478473316589
 30
0.0
 40
18.449999999999989
  0
CIRCLE
  5
19E
  8
1
 62
     7
 10
-280.26052453249599
 20
-18.560478473316589
 30
0.0
 40
40.0
  0
TEXT
  5
1A0
  8
1
 62
     7
 10
-318.81096694922138
 20
68.406692043274404
 30
0.0
 40
4.0
  1
MDB 1.2N
 41
0.9
  7
SIMPLEX
 72
     1
 11
-306.38239552064988
 21
68.406692043274404
 31
0.0
  0
ENDSEC
  0
EOF
