  0
SECTION
  2
HEADER
  9
$ACADVER
  1
AC1009
  9
$INSBASE
 10
0.0
 20
0.0
 30
0.0
  9
$EXTMIN
 10
-516.82035107907302
 20
-85.189267793275448
 30
0.0
  9
$EXTMAX
 10
23.5
 20
107.4781032719695
 30
0.0
  9
$LIMMIN
 10
-517.54061217897299
 20
-85.189267793275448
  9
$LIMMAX
 10
23.5
 20
107.4781032719695
  9
$ORTHOMODE
 70
     0
  9
$REGENMODE
 70
     1
  9
$FILLMODE
 70
     1
  9
$QTEXTMODE
 70
     0
  9
$MIRRTEXT
 70
     1
  9
$DRAGMODE
 70
     2
  9
$LTSCALE
 40
1.0
  9
$OSMODE
 70
    37
  9
$ATTMODE
 70
     1
  9
$TEXTSIZE
 40
3.5
  9
$TRACEWID
 40
0.5
  9
$TEXTSTYLE
  7
STANDARD
  9
$CLAYER
  8
0
  9
$CELTYPE
  6
BYLAYER
  9
$CECOLOR
 62
   256
  9
$DIMSCALE
 40
1.0
  9
$DIMASZ
 40
0.18
  9
$DIMEXO
 40
0.0625
  9
$DIMDLI
 40
0.38
  9
$DIMRND
 40
0.0
  9
$DIMDLE
 40
0.0
  9
$DIMEXE
 40
0.18
  9
$DIMTP
 40
0.0
  9
$DIMTM
 40
0.0
  9
$DIMTXT
 40
0.18
  9
$DIMCEN
 40
0.09
  9
$DIMTSZ
 40
0.0
  9
$DIMTOL
 70
     0
  9
$DIMLIM
 70
     0
  9
$DIMTIH
 70
     1
  9
$DIMTOH
 70
     1
  9
$DIMSE1
 70
     0
  9
$DIMSE2
 70
     0
  9
$DIMTAD
 70
     0
  9
$DIMZIN
 70
     0
  9
$DIMBLK
  1

  9
$DIMASO
 70
     1
  9
$DIMSHO
 70
     1
  9
$DIMPOST
  1

  9
$DIMAPOST
  1

  9
$DIMALT
 70
     0
  9
$DIMALTD
 70
     2
  9
$DIMALTF
 40
25.399999999999999
  9
$DIMLFAC
 40
1.0
  9
$DIMTOFL
 70
     0
  9
$DIMTVP
 40
0.0
  9
$DIMTIX
 70
     0
  9
$DIMSOXD
 70
     0
  9
$DIMSAH
 70
     0
  9
$DIMBLK1
  1

  9
$DIMBLK2
  1

  9
$DIMSTYLE
  2
STANDARD
  9
$DIMCLRD
 70
     0
  9
$DIMCLRE
 70
     0
  9
$DIMCLRT
 70
     0
  9
$DIMTFAC
 40
1.0
  9
$DIMGAP
 40
0.09
  9
$LUNITS
 70
     2
  9
$LUPREC
 70
     4
  9
$SKETCHINC
 40
0.1
  9
$FILLETRAD
 40
2.0
  9
$AUNITS
 70
     0
  9
$AUPREC
 70
     0
  9
$MENU
  1
ACAD
  9
$ELEVATION
 40
0.0
  9
$PELEVATION
 40
0.0
  9
$THICKNESS
 40
0.0
  9
$LIMCHECK
 70
     0
  9
$BLIPMODE
 70
     0
  9
$CHAMFERA
 40
0.0
  9
$CHAMFERB
 40
0.0
  9
$SKPOLY
 70
     0
  9
$TDCREATE
 40
2452095.0289979158
  9
$TDUPDATE
 40
2452095.0294531249
  9
$TDINDWG
 40
0.0004652778
  9
$TDUSRTIMER
 40
0.0004652778
  9
$USRTIMER
 70
     1
  9
$ANGBASE
 50
0.0
  9
$ANGDIR
 70
     0
  9
$PDMODE
 70
     0
  9
$PDSIZE
 40
0.0
  9
$PLINEWID
 40
0.0
  9
$COORDS
 70
     1
  9
$SPLFRAME
 70
     0
  9
$SPLINETYPE
 70
     6
  9
$SPLINESEGS
 70
     8
  9
$ATTDIA
 70
     0
  9
$ATTREQ
 70
     1
  9
$HANDLING
 70
 10241
  9
$HANDSEED
  5
185
  9
$SURFTAB1
 70
     6
  9
$SURFTAB2
 70
     6
  9
$SURFTYPE
 70
     6
  9
$SURFU
 70
     6
  9
$SURFV
 70
     6
  9
$UCSNAME
  2

  9
$UCSORG
 10
0.0
 20
0.0
 30
0.0
  9
$UCSXDIR
 10
1.0
 20
0.0
 30
0.0
  9
$UCSYDIR
 10
0.0
 20
1.0
 30
0.0
  9
$PUCSNAME
  2

  9
$PUCSORG
 10
0.0
 20
0.0
 30
0.0
  9
$PUCSXDIR
 10
1.0
 20
0.0
 30
0.0
  9
$PUCSYDIR
 10
0.0
 20
1.0
 30
0.0
  9
$USERI1
 70
     0
  9
$USERI2
 70
     0
  9
$USERI3
 70
     0
  9
$USERI4
 70
     0
  9
$USERI5
 70
     0
  9
$USERR1
 40
0.0
  9
$USERR2
 40
0.0
  9
$USERR3
 40
0.0
  9
$USERR4
 40
0.0
  9
$USERR5
 40
0.0
  9
$WORLDVIEW
 70
     1
  9
$SHADEDGE
 70
     3
  9
$SHADEDIF
 70
    70
  9
$TILEMODE
 70
     1
  9
$MAXACTVP
 70
    64
  9
$PLIMCHECK
 70
     0
  9
$PEXTMIN
 10
1.0000000000000000E+020
 20
1.0000000000000000E+020
 30
1.0000000000000000E+020
  9
$PEXTMAX
 10
-1.0000000000000000E+020
 20
-1.0000000000000000E+020
 30
-1.0000000000000000E+020
  9
$PLIMMIN
 10
0.0
 20
0.0
  9
$PLIMMAX
 10
12.0
 20
9.0
  9
$UNITMODE
 70
     0
  9
$VISRETAIN
 70
     1
  9
$PLINEGEN
 70
     0
  9
$PSLTSCALE
 70
     1
  0
ENDSEC
  0
SECTION
  2
TABLES
  0
TABLE
  2
VPORT
 70
     2
  0
VPORT
  2
*ACTIVE
 70
     0
 10
0.0
 20
0.0
 11
1.0
 21
1.0
 12
-506.19827625311029
 22
88.490145410665264
 13
0.0
 23
0.0
 14
1.0
 24
1.0
 15
0.0
 25
0.0
 16
0.0
 26
0.0
 36
1.0
 17
0.0
 27
0.0
 37
0.0
 40
8.9999999200103957
 41
2.4144144144144142
 42
50.0
 43
0.0
 44
0.0
 50
0.0
 51
0.0
 71
     0
 72
   100
 73
     1
 74
     1
 75
     0
 76
     0
 77
     0
 78
     0
  0
ENDTAB
  0
TABLE
  2
LTYPE
 70
     9
  0
LTYPE
  2
CONTINUOUS
 70
     0
  3
Solid line
 72
    65
 73
     0
 40
0.0
  0
LTYPE
  2
BORDER
 70
     0
  3
__ __ . __ __ .
 72
    65
 73
     6
 40
24.916343981926389
 49
7.1189554234075381
 49
-3.5594777117037699
 49
7.1189554234075381
 49
-3.5594777117037699
 49
0.0
 49
-3.5594777117037699
  0
LTYPE
  2
CENTER
 70
     0
  3
____ _ ____ _
 72
    65
 73
     4
 40
28.475821693630159
 49
17.79738855851885
 49
-3.5594777117037699
 49
3.5594777117037699
 49
-3.5594777117037699
  0
LTYPE
  2
DASHDOT
 70
     0
  3
__ . __ . __ .
 72
    65
 73
     4
 40
14.23791084681508
 49
7.1189554234075381
 49
-3.5594777117037699
 49
0.0
 49
-3.5594777117037699
  0
LTYPE
  2
DASHED
 70
     0
  3
__ __ __ __ __
 72
    65
 73
     2
 40
10.678433135111311
 49
7.1189554234075381
 49
-3.5594777117037699
  0
LTYPE
  2
DIVIDE
 70
     0
  3
__ . . __ . . 
 72
    65
 73
     6
 40
17.79738855851885
 49
7.1189554234075381
 49
-3.5594777117037699
 49
0.0
 49
-3.5594777117037699
 49
0.0
 49
-3.5594777117037699
  0
LTYPE
  2
DOT
 70
     0
  3
..............
 72
    65
 73
     4
 40
7.1189554234075381
 49
0.0
 49
-3.5594777117037699
 49
0.0
 49
-3.5594777117037699
  0
LTYPE
  2
HIDDEN
 70
     0
  3
_ _ _ _ _ _ _
 72
    65
 73
     2
 40
5.3392165675556527
 49
3.5594777117037699
 49
-1.779738855851885
  0
LTYPE
  2
PHANTOM
 70
     0
  3
_____ _ _ _____ _ _ 
 72
    65
 73
     6
 40
35.594777117037687
 49
17.79738855851885
 49
-3.5594777117037699
 49
3.5594777117037699
 49
-3.5594777117037699
 49
3.5594777117037699
 49
-3.5594777117037699
  0
ENDTAB
  0
TABLE
  2
LAYER
 70
     2
  0
LAYER
  2
0
 70
     0
 62
     7
  6
CONTINUOUS
  0
LAYER
  2
1
 70
     0
 62
     7
  6
CONTINUOUS
  0
ENDTAB
  0
TABLE
  2
STYLE
 70
     4
  0
STYLE
  2
STANDARD
 70
     0
 40
0.0
 41
1.0
 50
0.0
 71
     0
 42
3.5
  3
txt
  4

  0
STYLE
  2
SIMPLEX
 70
     0
 40
0.0
 41
1.0
 50
0.0
 71
     0
 42
3.5
  3
simplex
  4

  0
STYLE
  2
COMPLEX
 70
     0
 40
0.0
 41
1.0
 50
0.0
 71
     0
 42
3.5
  3
complex
  4

  0
STYLE
  2
ITALIC
 70
     0
 40
0.0
 41
1.0
 50
0.0
 71
     0
 42
3.5
  3
italic
  4

  0
ENDTAB
  0
TABLE
  2
VIEW
 70
     0
  0
ENDTAB
  0
TABLE
  2
UCS
 70
     0
  0
ENDTAB
  0
TABLE
  2
APPID
 70
     1
  0
APPID
  2
ACAD
 70
     0
  0
ENDTAB
  0
TABLE
  2
DIMSTYLE
 70
     1
  0
DIMSTYLE
  2
STANDARD
 70
     0
  3

  4

  5

  6

  7

 40
1.0
 41
0.18
 42
0.0625
 43
0.38
 44
0.18
 45
0.0
 46
0.0
 47
0.0
 48
0.0
140
0.18
141
0.09
142
0.0
143
25.399999999999999
144
1.0
145
0.0
146
1.0
147
0.09
 71
     0
 72
     0
 73
     1
 74
     1
 75
     0
 76
     0
 77
     0
 78
     0
170
     0
171
     2
172
     0
173
     0
174
     0
175
     0
176
     0
177
     0
178
     0
  0
ENDTAB
  0
ENDSEC
  0
SECTION
  2
BLOCKS
  0
BLOCK
  8
0
  2
$MODEL_SPACE
 70
     0
 10
0.0
 20
0.0
 30
0.0
  3
$MODEL_SPACE
  1

  0
ENDBLK
  5
20
  8
0
  0
BLOCK
 67
     1
  8
0
  2
$PAPER_SPACE
 70
     0
 10
0.0
 20
0.0
 30
0.0
  3
$PAPER_SPACE
  1

  0
ENDBLK
  5
1C
 67
     1
  8
0
  0
ENDSEC
  0
SECTION
  2
ENTITIES
  0
LINE
  5
33
  8
1
 62
     7
 10
-426.9841066051311
 20
78.192011950058784
 30
0.0
 11
-426.9841066051311
 21
71.81073220672458
 31
0.0
  0
LINE
  5
34
  8
1
 62
     7
 10
-426.9841066051311
 20
90.370255491566354
 30
0.0
 11
-426.9841066051311
 21
81.9147850468717
 31
0.0
  0
LINE
  5
35
  8
1
 62
     7
 10
-212.4698354696751
 20
78.517933284433497
 30
0.0
 11
-212.4698354696749
 21
71.81073220672458
 31
0.0
  0
LINE
  5
36
  8
1
 62
     7
 10
-209.4698354696751
 20
78.517933284433497
 30
0.0
 11
-209.4698354696751
 21
71.81073220672458
 31
0.0
  0
LINE
  5
37
  8
1
 62
     7
 10
-429.9841066051311
 20
90.370255491566354
 30
0.0
 11
-426.9841066051311
 21
90.370255491566354
 31
0.0
  0
LINE
  5
38
  8
1
 62
     7
 10
-423.9841066051311
 20
90.370255491566354
 30
0.0
 11
-423.9841066051311
 21
81.9147850468717
 31
0.0
  0
LINE
  5
39
  8
1
 62
     7
 10
-423.9841066051311
 20
78.192011950058799
 30
0.0
 11
-423.9841066051311
 21
71.75338641985023
 31
0.0
  0
LINE
  5
3A
  8
1
 62
     7
 10
-429.9841066051311
 20
71.75338641985023
 30
0.0
 11
-429.9841066051311
 21
78.192011950058799
 31
0.0
  0
LINE
  5
3B
  8
1
 62
     7
 10
-429.9841066051311
 20
90.370255491566354
 30
0.0
 11
-429.9841066051311
 21
81.9147850468717
 31
0.0
  0
LINE
  5
3C
  8
1
 62
     7
 10
-426.9841066051311
 20
90.370255491566354
 30
0.0
 11
-423.9841066051311
 21
90.370255491566354
 31
0.0
  0
LINE
  5
3D
  8
1
 62
     7
 10
-425.08410660513113
 20
90.370255491566425
 30
0.0
 11
-425.08410660513113
 21
95.370255491566425
 31
0.0
  0
LINE
  5
3E
  8
1
 62
     7
 10
-425.28410660513123
 20
90.370255491566425
 30
0.0
 11
-425.28410660513123
 21
95.370255491566425
 31
0.0
  0
LINE
  5
3F
  8
1
 62
     7
 10
-425.4841066051311
 20
90.370255491566425
 30
0.0
 11
-425.4841066051311
 21
95.370255491566425
 31
0.0
  0
LINE
  5
40
  8
1
 62
     7
 10
-425.68410660513121
 20
90.370255491566425
 30
0.0
 11
-425.68410660513121
 21
95.370255491566425
 31
0.0
  0
LINE
  5
41
  8
1
 62
     7
 10
-425.88410660513119
 20
90.370255491566425
 30
0.0
 11
-425.88410660513119
 21
95.370255491566425
 31
0.0
  0
LINE
  5
42
  8
1
 62
     7
 10
-428.08410660513113
 20
90.370255491566425
 30
0.0
 11
-428.08410660513113
 21
95.370255491566425
 31
0.0
  0
LINE
  5
43
  8
1
 62
     7
 10
-428.28410660513123
 20
90.370255491566425
 30
0.0
 11
-428.28410660513123
 21
95.370255491566425
 31
0.0
  0
LINE
  5
44
  8
1
 62
     7
 10
-428.48410660513122
 20
90.370255491566425
 30
0.0
 11
-428.48410660513122
 21
95.370255491566425
 31
0.0
  0
LINE
  5
45
  8
1
 62
     7
 10
-428.68410660513109
 20
90.370255491566425
 30
0.0
 11
-428.68410660513109
 21
95.370255491566425
 31
0.0
  0
LINE
  5
46
  8
1
 62
     7
 10
-428.88410660513119
 20
90.370255491566425
 30
0.0
 11
-428.88410660513119
 21
95.370255491566425
 31
0.0
  0
LINE
  5
47
  8
1
 62
     7
 10
-209.4698354696751
 20
85.638905992040705
 30
0.0
 11
-209.4698354696751
 21
80.96866836813841
 31
0.0
  0
LINE
  5
48
  8
1
 62
     7
 10
-212.4698354696751
 20
85.638905992040705
 30
0.0
 11
-212.4698354696751
 21
80.96866836813841
 31
0.0
  0
LINE
  5
49
  8
1
 62
     7
 10
-212.4698354696751
 20
85.638905992040705
 30
0.0
 11
-209.4698354696751
 21
85.638905992040705
 31
0.0
  0
LINE
  5
4A
  8
1
 62
     7
 10
-210.56983546967501
 20
85.638905992040705
 30
0.0
 11
-210.56983546967501
 21
90.638905992040705
 31
0.0
  0
LINE
  5
4B
  8
1
 62
     7
 10
-210.76983546967509
 20
85.638905992040705
 30
0.0
 11
-210.76983546967509
 21
90.638905992040705
 31
0.0
  0
LINE
  5
4C
  8
1
 62
     7
 10
-211.16983546967489
 20
85.638905992040705
 30
0.0
 11
-211.16983546967489
 21
90.638905992040705
 31
0.0
  0
LINE
  5
4D
  8
1
 62
     7
 10
-211.369835469675
 20
85.638905992040705
 30
0.0
 11
-211.369835469675
 21
90.638905992040705
 31
0.0
  0
LINE
  5
4E
  8
1
 62
     7
 10
-218.9698354696751
 20
39.31073220672458
 30
0.0
 11
-218.9698354696751
 21
-6.6892677932754188
 31
0.0
  0
LINE
  5
4F
  8
1
 62
     7
 10
-224.9698354696751
 20
70.81073220672458
 30
0.0
 11
-223.9698354696751
 21
71.81073220672458
 31
0.0
  0
LINE
  5
50
  8
1
  6
DASHDOT
 62
     3
 10
-476.86235350994258
 20
22.107951483924118
 30
0.0
 11
-486.2635849330652
 21
27.53575497677803
 31
0.0
  0
LINE
  5
51
  8
1
  6
DASHDOT
 62
     3
 10
-486.2635849330652
 20
-40.914290563328869
 30
0.0
 11
-476.86235350994258
 21
-35.486487070474958
 31
0.0
  0
LINE
  5
52
  8
1
  6
DASHDOT
 62
     3
 10
-377.10585970031951
 20
-35.486487070474958
 30
0.0
 11
-367.70462827719678
 21
-40.914290563328869
 31
0.0
  0
LINE
  5
53
  8
1
  6
DASHDOT
 62
     3
 10
-367.70462827719678
 20
27.53575497677803
 30
0.0
 11
-377.10585970031951
 21
22.107951483924118
 31
0.0
  0
LINE
  5
54
  8
1
 62
     7
 10
-166.06983546967501
 20
71.81073220672458
 30
0.0
 11
-166.06983546967501
 21
66.31073220672458
 31
0.0
  0
LINE
  5
55
  8
1
 62
     7
 10
-167.66983546967501
 20
64.31073220672458
 30
0.0
 11
-166.06983546967501
 21
64.31073220672458
 31
0.0
  0
LINE
  5
56
  8
1
 62
     7
 10
-167.66983546967501
 20
71.81073220672458
 30
0.0
 11
-167.66983546967501
 21
64.31073220672458
 31
0.0
  0
LINE
  5
57
  8
1
 62
     7
 10
-166.06983546967501
 20
64.31073220672458
 30
0.0
 11
-166.06983546967501
 21
28.31073220672458
 31
0.0
  0
LINE
  5
58
  8
1
 62
     7
 10
-182.46983546967499
 20
66.31073220672458
 30
0.0
 11
-166.06983546967501
 21
66.31073220672458
 31
0.0
  0
LINE
  5
59
  8
1
 62
     7
 10
-182.46983546967499
 20
64.81073220672458
 30
0.0
 11
-182.46983546967499
 21
71.81073220672458
 31
0.0
  0
LINE
  5
5A
  8
1
 62
     7
 10
-191.96983546967499
 20
46.310732206724573
 30
0.0
 11
-192.9698354696751
 21
47.31073220672458
 31
0.0
  0
LINE
  5
5B
  8
1
 62
     7
 10
-191.96983546967499
 20
39.31073220672458
 30
0.0
 11
-224.9698354696751
 21
39.31073220672458
 31
0.0
  0
LINE
  5
5C
  8
1
 62
     7
 10
-191.96983546967499
 20
46.310732206724573
 30
0.0
 11
-191.96983546967499
 21
39.31073220672458
 31
0.0
  0
LINE
  5
5D
  8
1
 62
     7
 10
-192.9698354696751
 20
64.81073220672458
 30
0.0
 11
-192.9698354696751
 21
47.31073220672458
 31
0.0
  0
LINE
  5
5E
  8
1
 62
     7
 10
-182.46983546967499
 20
64.81073220672458
 30
0.0
 11
-192.9698354696751
 21
64.81073220672458
 31
0.0
  0
LINE
  5
5F
  8
1
 62
     7
 10
-224.9698354696751
 20
70.81073220672458
 30
0.0
 11
-224.9698354696751
 21
-6.6892677932754188
 31
0.0
  0
LINE
  5
60
  8
1
 62
     7
 10
-223.9698354696751
 20
71.81073220672458
 30
0.0
 11
-166.06983546967501
 21
71.81073220672458
 31
0.0
  0
LINE
  5
61
  8
1
  6
DASHDOT
 62
     3
 10
-151.66509707592391
 20
-6.6892677932754188
 30
0.0
 11
-156.9698354696751
 21
-6.6892677932754188
 31
0.0
  0
LINE
  5
62
  8
1
 62
     7
 10
-206.96983546967499
 20
25.81073220672458
 30
0.0
 11
-206.96983546967499
 21
-6.6892677932754188
 31
0.0
  0
LINE
  5
63
  8
1
 62
     7
 10
-204.46983546967499
 20
25.81073220672458
 30
0.0
 11
-206.96983546967499
 21
25.81073220672458
 31
0.0
  0
LINE
  5
64
  8
1
 62
     7
 10
-204.46983546967499
 20
24.31073220672457
 30
0.0
 11
-204.46983546967499
 21
30.710732206724568
 31
0.0
  0
LINE
  5
65
  8
1
 62
     7
 10
-201.9698354696751
 20
24.31073220672457
 30
0.0
 11
-204.46983546967499
 21
24.31073220672457
 31
0.0
  0
LINE
  5
66
  8
1
 62
     7
 10
-201.9698354696751
 20
30.710732206724568
 30
0.0
 11
-201.9698354696751
 21
24.31073220672457
 31
0.0
  0
LINE
  5
67
  8
1
 62
     7
 10
-204.46983546967499
 20
30.710732206724568
 30
0.0
 11
-201.9698354696751
 21
30.710732206724568
 31
0.0
  0
LINE
  5
68
  8
1
 62
     7
 10
-156.9698354696751
 20
-6.6892677932754188
 30
0.0
 11
-156.9698354696751
 21
27.31073220672457
 31
0.0
  0
LINE
  5
69
  8
1
 62
     7
 10
-159.4698354696751
 20
33.210732206724593
 30
0.0
 11
-159.4698354696751
 21
26.81073220672457
 31
0.0
  0
LINE
  5
6A
  8
1
 62
     7
 10
-201.9698354696751
 20
30.31073220672457
 30
0.0
 11
-200.46983546967499
 21
30.31073220672457
 31
0.0
  0
LINE
  5
6B
  8
1
 62
     7
 10
-200.46983546967499
 20
30.31073220672457
 30
0.0
 11
-200.46983546967499
 21
38.510732206724569
 31
0.0
  0
LINE
  5
6C
  8
1
 62
     7
 10
-200.46983546967499
 20
38.510732206724569
 30
0.0
 11
-190.4698354696751
 21
38.510732206724569
 31
0.0
  0
LINE
  5
6D
  8
1
 62
     7
 10
-190.4698354696751
 20
38.510732206724569
 30
0.0
 11
-190.4698354696751
 21
56.56073220672458
 31
0.0
  0
LINE
  5
6E
  8
1
 62
     7
 10
-190.4698354696751
 20
56.56073220672458
 30
0.0
 11
-191.4698354696751
 21
56.56073220672458
 31
0.0
  0
LINE
  5
6F
  8
1
 62
     7
 10
-191.4698354696751
 20
56.56073220672458
 30
0.0
 11
-191.4698354696751
 21
64.010732206724583
 31
0.0
  0
LINE
  5
70
  8
1
 62
     7
 10
-191.4698354696751
 20
64.010732206724583
 30
0.0
 11
-181.4698354696751
 21
64.010732206724583
 31
0.0
  0
LINE
  5
71
  8
1
 62
     7
 10
-156.9698354696751
 20
27.31073220672457
 30
0.0
 11
-157.9698354696751
 21
28.31073220672458
 31
0.0
  0
LINE
  5
72
  8
1
 62
     7
 10
-206.96983546967499
 20
17.31073220672458
 30
0.0
 11
-156.9698354696751
 21
17.31073220672458
 31
0.0
  0
LINE
  5
73
  8
1
 62
     7
 10
-156.9698354696751
 20
20.81073220672457
 30
0.0
 11
-206.96983546967499
 21
20.81073220672457
 31
0.0
  0
LINE
  5
74
  8
1
 62
     7
 10
-201.9698354696751
 20
26.81073220672457
 30
0.0
 11
-181.4698354696751
 21
26.81073220672457
 31
0.0
  0
LINE
  5
75
  8
1
 62
     7
 10
-159.4698354696751
 20
28.31073220672458
 30
0.0
 11
-157.9698354696751
 21
28.31073220672458
 31
0.0
  0
LINE
  5
76
  8
1
 62
     7
 10
-159.4698354696751
 20
33.210732206724593
 30
0.0
 11
-161.9698354696751
 21
33.210732206724593
 31
0.0
  0
LINE
  5
77
  8
1
 62
     7
 10
-161.9698354696751
 20
26.81073220672457
 30
0.0
 11
-161.9698354696751
 21
37.31073220672458
 31
0.0
  0
LINE
  5
78
  8
1
 62
     7
 10
-161.9698354696751
 20
37.31073220672458
 30
0.0
 11
-157.46983546967499
 21
37.31073220672458
 31
0.0
  0
LINE
  5
79
  8
1
 62
     7
 10
-157.46983546967499
 20
48.022039350775387
 30
0.0
 11
-159.4698354696751
 21
64.31073220672458
 31
0.0
  0
LINE
  5
7A
  8
1
 62
     7
 10
-157.46983546967499
 20
37.31073220672458
 30
0.0
 11
-157.46983546967499
 21
48.022039350775387
 31
0.0
  0
LINE
  5
7B
  8
1
 62
     7
 10
-166.06983546967501
 20
64.31073220672458
 30
0.0
 11
-159.4698354696751
 21
64.31073220672458
 31
0.0
  0
LINE
  5
7C
  8
1
 62
     7
 10
-161.9698354696751
 20
29.06073220672457
 30
0.0
 11
-166.06983546967501
 21
29.06073220672457
 31
0.0
  0
LINE
  5
7D
  8
1
 62
     7
 10
-161.9698354696751
 20
33.31073220672458
 30
0.0
 11
-166.06983546967501
 21
33.31073220672458
 31
0.0
  0
LINE
  5
7E
  8
1
 62
     7
 10
-157.46983546967499
 20
34.820624293055459
 30
0.0
 11
-157.46983546967499
 21
37.31073220672458
 31
0.0
  0
LINE
  5
7F
  8
1
 62
     7
 10
-181.4698354696751
 20
71.81073220672458
 30
0.0
 11
-181.4698354696751
 21
26.81073220672457
 31
0.0
  0
LINE
  5
80
  8
1
 62
     3
 10
-181.4698354696751
 20
28.31073220672458
 30
0.0
 11
-167.66983546967501
 21
71.81073220672458
 31
0.0
  0
LINE
  5
81
  8
1
 62
     3
 10
-166.06983546967501
 20
28.31073220672458
 30
0.0
 11
-181.4698354696751
 21
71.81073220672458
 31
0.0
  0
LINE
  5
82
  8
1
 62
     7
 10
-181.4698354696751
 20
32.81073220672458
 30
0.0
 11
-161.9698354696751
 21
32.81073220672458
 31
0.0
  0
LINE
  5
83
  8
1
 62
     7
 10
-181.4698354696751
 20
28.31073220672458
 30
0.0
 11
-161.9698354696751
 21
28.31073220672458
 31
0.0
  0
LINE
  5
84
  8
1
 62
     7
 10
-161.9698354696751
 20
26.81073220672457
 30
0.0
 11
-159.4698354696751
 21
26.81073220672457
 31
0.0
  0
LINE
  5
85
  8
1
 62
     7
 10
-433.9841066051311
 20
20.81073220672457
 30
0.0
 11
-419.9841066051311
 21
20.81073220672457
 31
0.0
  0
LINE
  5
86
  8
1
 62
     7
 10
-419.9841066051311
 20
20.81073220672457
 30
0.0
 11
-419.9841066051311
 21
17.31073220672458
 31
0.0
  0
LINE
  5
87
  8
1
 62
     7
 10
-433.9841066051311
 20
20.81073220672457
 30
0.0
 11
-433.9841066051311
 21
17.31073220672458
 31
0.0
  0
LINE
  5
88
  8
1
 62
     7
 10
-312.4698354696751
 20
78.517933284433497
 30
0.0
 11
-312.46983546967482
 21
71.81073220672458
 31
0.0
  0
LINE
  5
89
  8
1
 62
     7
 10
-309.4698354696751
 20
78.517933284433497
 30
0.0
 11
-309.4698354696751
 21
71.81073220672458
 31
0.0
  0
LINE
  5
8A
  8
1
 62
     7
 10
-309.4698354696751
 20
85.638905992040705
 30
0.0
 11
-309.4698354696751
 21
80.96866836813841
 31
0.0
  0
LINE
  5
8B
  8
1
 62
     7
 10
-312.4698354696751
 20
85.638905992040705
 30
0.0
 11
-312.4698354696751
 21
80.96866836813841
 31
0.0
  0
LINE
  5
8C
  8
1
 62
     7
 10
-312.4698354696751
 20
85.638905992040705
 30
0.0
 11
-309.4698354696751
 21
85.638905992040705
 31
0.0
  0
LINE
  5
8D
  8
1
 62
     7
 10
-310.56983546967501
 20
85.638905992040705
 30
0.0
 11
-310.56983546967501
 21
90.638905992040705
 31
0.0
  0
LINE
  5
8E
  8
1
 62
     7
 10
-310.76983546967512
 20
85.638905992040705
 30
0.0
 11
-310.76983546967512
 21
90.638905992040705
 31
0.0
  0
LINE
  5
8F
  8
1
 62
     7
 10
-311.16983546967481
 20
85.638905992040705
 30
0.0
 11
-311.16983546967481
 21
90.638905992040705
 31
0.0
  0
LINE
  5
90
  8
1
 62
     7
 10
-311.36983546967491
 20
85.638905992040705
 30
0.0
 11
-311.36983546967491
 21
90.638905992040705
 31
0.0
  0
LINE
  5
91
  8
1
 62
     7
 10
-323.9698354696751
 20
-85.189267793275405
 30
0.0
 11
-323.9698354696751
 21
-6.6892677932754188
 31
0.0
  0
LINE
  5
92
  8
1
 62
     7
 10
-324.9698354696751
 20
-84.189267793275405
 30
0.0
 11
-323.9698354696751
 21
-85.189267793275405
 31
0.0
  0
LINE
  5
93
  8
1
 62
     7
 10
-266.06983546967513
 20
-40.628297751643792
 30
0.0
 11
-283.4698354696751
 21
-40.628297751643792
 31
0.0
  0
LINE
  5
94
  8
1
 62
     7
 10
-283.4698354696751
 20
-40.628297751643792
 30
0.0
 11
-283.4698354696751
 21
-6.6892677932754188
 31
0.0
  0
LINE
  5
95
  8
1
 62
     7
 10
-283.4698354696751
 20
-85.189267793275405
 30
0.0
 11
-283.4698354696751
 21
-51.020602597057028
 31
0.0
  0
LINE
  5
96
  8
1
 62
     3
 10
-267.66983546967492
 20
-85.189267793275448
 30
0.0
 11
-281.4698354696751
 21
-51.020602597057028
 31
0.0
  0
LINE
  5
97
  8
1
 62
     3
 10
-267.66983546967492
 20
-51.020602597057028
 30
0.0
 11
-281.4698354696751
 21
-85.189267793275405
 31
0.0
  0
LINE
  5
98
  8
1
 62
     7
 10
-266.06983546967513
 20
-79.442274603990825
 30
0.0
 11
-266.06983546967513
 21
-85.189267793275405
 31
0.0
  0
LINE
  5
99
  8
1
 62
     7
 10
-266.06983546967513
 20
-77.68926779327542
 30
0.0
 11
-267.66983546967492
 21
-77.68926779327542
 31
0.0
  0
LINE
  5
9A
  8
1
 62
     7
 10
-267.66983546967492
 20
-79.442274603990825
 30
0.0
 11
-266.06983546967513
 21
-79.442274603990825
 31
0.0
  0
LINE
  5
9B
  8
1
 62
     7
 10
-283.4698354696751
 20
-79.442274603990825
 30
0.0
 11
-281.4698354696751
 21
-79.442274603990825
 31
0.0
  0
LINE
  5
9C
  8
1
 62
     7
 10
-267.66983546967492
 20
-51.020602597057028
 30
0.0
 11
-267.66983546967492
 21
-85.189267793275448
 31
0.0
  0
LINE
  5
9D
  8
1
 62
     7
 10
-267.66983546967492
 20
-40.628297751643792
 30
0.0
 11
-267.66983546967492
 21
-6.6892677932754188
 31
0.0
  0
LINE
  5
9E
  8
1
 62
     7
 10
-281.4698354696751
 20
-51.020602597057028
 30
0.0
 11
-281.4698354696751
 21
-85.189267793275405
 31
0.0
  0
LINE
  5
9F
  8
1
 62
     7
 10
-283.4698354696751
 20
-51.020602597057028
 30
0.0
 11
-266.06983546967513
 21
-51.020602597057028
 31
0.0
  0
LINE
  5
A0
  8
1
 62
     7
 10
-267.66983546967492
 20
-38.120461711793098
 30
0.0
 11
-266.06983546967501
 21
-38.120461711793098
 31
0.0
  0
LINE
  5
A1
  8
1
 62
     7
 10
-283.4698354696751
 20
-38.120461711793098
 30
0.0
 11
-281.4698354696751
 21
-38.120461711793098
 31
0.0
  0
LINE
  5
A2
  8
1
 62
     7
 10
-256.96983546967499
 20
-6.6892677932754188
 30
0.0
 11
-256.96983546967499
 21
-40.68926779327542
 31
0.0
  0
LINE
  5
A3
  8
1
 62
     7
 10
-257.4698354696751
 20
-6.6892677932754188
 30
0.0
 11
-257.4698354696751
 21
-61.400574937326233
 31
0.0
  0
LINE
  5
A4
  8
1
 62
     7
 10
-259.4698354696751
 20
-6.6892677932754188
 30
0.0
 11
-259.4698354696751
 21
-77.68926779327542
 31
0.0
  0
LINE
  5
A5
  8
1
 62
     7
 10
-266.06983546967513
 20
-6.6892677932754188
 30
0.0
 11
-266.06983546967513
 21
-77.68926779327542
 31
0.0
  0
LINE
  5
A6
  8
1
 62
     7
 10
-281.4698354696751
 20
-6.6892677932754188
 30
0.0
 11
-281.4698354696751
 21
-40.628297751643792
 31
0.0
  0
LINE
  5
A7
  8
1
 62
     7
 10
-259.4698354696751
 20
-77.68926779327542
 30
0.0
 11
-257.4698354696751
 21
-61.400574937326233
 31
0.0
  0
LINE
  5
A8
  8
1
 62
     7
 10
-259.4698354696751
 20
-77.68926779327542
 30
0.0
 11
-266.06983546967513
 21
-77.68926779327542
 31
0.0
  0
LINE
  5
A9
  8
1
 62
     7
 10
-266.06983546967513
 20
-85.189267793275405
 30
0.0
 11
-323.9698354696751
 21
-85.189267793275405
 31
0.0
  0
LINE
  5
AA
  8
1
 62
     7
 10
-281.4698354696751
 20
-78.18926779327542
 30
0.0
 11
-283.4698354696751
 21
-78.18926779327542
 31
0.0
  0
LINE
  5
AB
  8
1
  6
DASHDOT
 62
     3
 10
-329.20496248424899
 20
-6.6892677932754188
 30
0.0
 11
-324.9698354696751
 21
-6.6892677932754188
 31
0.0
  0
LINE
  5
AC
  8
1
 62
     7
 10
-324.9698354696751
 20
-6.6892677932754188
 30
0.0
 11
-324.9698354696751
 21
-84.189267793275405
 31
0.0
  0
LINE
  5
AD
  8
1
 62
     7
 10
-218.9698354696751
 20
-6.6892677932754188
 30
0.0
 11
-218.9698354696751
 21
-52.68926779327542
 31
0.0
  0
LINE
  5
AE
  8
1
 62
     7
 10
-223.9698354696751
 20
-85.189267793275405
 30
0.0
 11
-224.9698354696751
 21
-84.189267793275405
 31
0.0
  0
LINE
  5
AF
  8
1
 62
     7
 10
-166.06983546967501
 20
-79.68926779327542
 30
0.0
 11
-166.06983546967501
 21
-85.189267793275405
 31
0.0
  0
LINE
  5
B0
  8
1
 62
     7
 10
-166.06983546967501
 20
-77.68926779327542
 30
0.0
 11
-167.66983546967501
 21
-77.68926779327542
 31
0.0
  0
LINE
  5
B1
  8
1
 62
     7
 10
-167.66983546967501
 20
-77.68926779327542
 30
0.0
 11
-167.66983546967501
 21
-85.189267793275405
 31
0.0
  0
LINE
  5
B2
  8
1
 62
     7
 10
-166.06983546967501
 20
-41.689267793275413
 30
0.0
 11
-166.06983546967501
 21
-77.68926779327542
 31
0.0
  0
LINE
  5
B3
  8
1
 62
     7
 10
-166.06983546967501
 20
-79.68926779327542
 30
0.0
 11
-182.46983546967499
 21
-79.68926779327542
 31
0.0
  0
LINE
  5
B4
  8
1
 62
     7
 10
-182.46983546967499
 20
-85.189267793275405
 30
0.0
 11
-182.46983546967499
 21
-78.18926779327542
 31
0.0
  0
LINE
  5
B5
  8
1
 62
     7
 10
-192.9698354696751
 20
-60.68926779327542
 30
0.0
 11
-191.96983546967499
 21
-59.68926779327542
 31
0.0
  0
LINE
  5
B6
  8
1
 62
     7
 10
-224.9698354696751
 20
-52.68926779327542
 30
0.0
 11
-191.96983546967499
 21
-52.68926779327542
 31
0.0
  0
LINE
  5
B7
  8
1
 62
     7
 10
-191.96983546967499
 20
-52.68926779327542
 30
0.0
 11
-191.96983546967499
 21
-59.68926779327542
 31
0.0
  0
LINE
  5
B8
  8
1
 62
     7
 10
-192.9698354696751
 20
-60.68926779327542
 30
0.0
 11
-192.9698354696751
 21
-78.18926779327542
 31
0.0
  0
LINE
  5
B9
  8
1
 62
     7
 10
-192.9698354696751
 20
-78.18926779327542
 30
0.0
 11
-182.46983546967499
 21
-78.18926779327542
 31
0.0
  0
LINE
  5
BA
  8
1
 62
     7
 10
-224.9698354696751
 20
-6.6892677932754188
 30
0.0
 11
-224.9698354696751
 21
-84.189267793275405
 31
0.0
  0
LINE
  5
BB
  8
1
 62
     7
 10
-166.06983546967501
 20
-85.189267793275405
 30
0.0
 11
-223.9698354696751
 21
-85.189267793275405
 31
0.0
  0
LINE
  5
BC
  8
1
 62
     7
 10
-206.96983546967499
 20
-6.6892677932754188
 30
0.0
 11
-206.96983546967499
 21
-39.189267793275413
 31
0.0
  0
LINE
  5
BD
  8
1
 62
     7
 10
-206.96983546967499
 20
-39.189267793275413
 30
0.0
 11
-204.46983546967499
 21
-39.189267793275413
 31
0.0
  0
LINE
  5
BE
  8
1
 62
     7
 10
-204.46983546967499
 20
-44.089267793275432
 30
0.0
 11
-204.46983546967499
 21
-37.68926779327542
 31
0.0
  0
LINE
  5
BF
  8
1
 62
     7
 10
-204.46983546967499
 20
-37.68926779327542
 30
0.0
 11
-201.9698354696751
 21
-37.68926779327542
 31
0.0
  0
LINE
  5
C0
  8
1
 62
     7
 10
-201.9698354696751
 20
-37.68926779327542
 30
0.0
 11
-201.9698354696751
 21
-44.089267793275432
 31
0.0
  0
LINE
  5
C1
  8
1
 62
     7
 10
-201.9698354696751
 20
-44.089267793275432
 30
0.0
 11
-204.46983546967499
 21
-44.089267793275432
 31
0.0
  0
LINE
  5
C2
  8
1
 62
     7
 10
-156.9698354696751
 20
-40.68926779327542
 30
0.0
 11
-156.9698354696751
 21
-6.6892677932754188
 31
0.0
  0
LINE
  5
C3
  8
1
 62
     7
 10
-159.4698354696751
 20
-40.18926779327542
 30
0.0
 11
-159.4698354696751
 21
-46.589267793275432
 31
0.0
  0
LINE
  5
C4
  8
1
 62
     7
 10
-200.46983546967499
 20
-43.68926779327542
 30
0.0
 11
-201.9698354696751
 21
-43.68926779327542
 31
0.0
  0
LINE
  5
C5
  8
1
 62
     7
 10
-200.46983546967499
 20
-51.889267793275422
 30
0.0
 11
-200.46983546967499
 21
-43.68926779327542
 31
0.0
  0
LINE
  5
C6
  8
1
 62
     7
 10
-190.4698354696751
 20
-51.889267793275422
 30
0.0
 11
-200.46983546967499
 21
-51.889267793275422
 31
0.0
  0
LINE
  5
C7
  8
1
 62
     7
 10
-190.4698354696751
 20
-69.93926779327542
 30
0.0
 11
-190.4698354696751
 21
-51.889267793275422
 31
0.0
  0
LINE
  5
C8
  8
1
 62
     7
 10
-191.4698354696751
 20
-69.93926779327542
 30
0.0
 11
-190.4698354696751
 21
-69.93926779327542
 31
0.0
  0
LINE
  5
C9
  8
1
 62
     7
 10
-191.4698354696751
 20
-77.389267793275422
 30
0.0
 11
-191.4698354696751
 21
-69.93926779327542
 31
0.0
  0
LINE
  5
CA
  8
1
 62
     7
 10
-181.4698354696751
 20
-77.389267793275422
 30
0.0
 11
-191.4698354696751
 21
-77.389267793275422
 31
0.0
  0
LINE
  5
CB
  8
1
 62
     7
 10
-157.9698354696751
 20
-41.689267793275413
 30
0.0
 11
-156.9698354696751
 21
-40.68926779327542
 31
0.0
  0
LINE
  5
CC
  8
1
 62
     7
 10
-156.9698354696751
 20
-31.68926779327542
 30
0.0
 11
-206.96983546967499
 21
-31.68926779327542
 31
0.0
  0
LINE
  5
CD
  8
1
 62
     7
 10
-206.96983546967499
 20
-34.189267793275413
 30
0.0
 11
-156.9698354696751
 21
-34.189267793275413
 31
0.0
  0
LINE
  5
CE
  8
1
 62
     7
 10
-181.4698354696751
 20
-40.18926779327542
 30
0.0
 11
-201.9698354696751
 21
-40.18926779327542
 31
0.0
  0
LINE
  5
CF
  8
1
 62
     7
 10
-157.9698354696751
 20
-41.689267793275413
 30
0.0
 11
-159.4698354696751
 21
-41.689267793275413
 31
0.0
  0
LINE
  5
D0
  8
1
 62
     7
 10
-161.9698354696751
 20
-46.589267793275432
 30
0.0
 11
-159.4698354696751
 21
-46.589267793275432
 31
0.0
  0
LINE
  5
D1
  8
1
 62
     7
 10
-161.9698354696751
 20
-50.68926779327542
 30
0.0
 11
-161.9698354696751
 21
-40.18926779327542
 31
0.0
  0
LINE
  5
D2
  8
1
 62
     7
 10
-157.46983546967499
 20
-50.68926779327542
 30
0.0
 11
-161.9698354696751
 21
-50.68926779327542
 31
0.0
  0
LINE
  5
D3
  8
1
 62
     7
 10
-159.4698354696751
 20
-77.68926779327542
 30
0.0
 11
-157.46983546967499
 21
-61.400574937326233
 31
0.0
  0
LINE
  5
D4
  8
1
 62
     7
 10
-157.46983546967499
 20
-61.400574937326233
 30
0.0
 11
-157.46983546967499
 21
-50.68926779327542
 31
0.0
  0
LINE
  5
D5
  8
1
 62
     7
 10
-159.4698354696751
 20
-77.68926779327542
 30
0.0
 11
-166.06983546967501
 21
-77.68926779327542
 31
0.0
  0
LINE
  5
D6
  8
1
 62
     7
 10
-166.06983546967501
 20
-42.43926779327542
 30
0.0
 11
-161.9698354696751
 21
-42.43926779327542
 31
0.0
  0
LINE
  5
D7
  8
1
 62
     7
 10
-166.06983546967501
 20
-46.689267793275413
 30
0.0
 11
-161.9698354696751
 21
-46.689267793275413
 31
0.0
  0
LINE
  5
D8
  8
1
 62
     7
 10
-157.46983546967499
 20
-50.68926779327542
 30
0.0
 11
-157.46983546967499
 21
-48.199159879606313
 31
0.0
  0
LINE
  5
D9
  8
1
 62
     7
 10
-181.4698354696751
 20
-40.18926779327542
 30
0.0
 11
-181.4698354696751
 21
-85.189267793275405
 31
0.0
  0
LINE
  5
DA
  8
1
 62
     3
 10
-167.66983546967501
 20
-85.189267793275405
 30
0.0
 11
-181.4698354696751
 21
-41.689267793275413
 31
0.0
  0
LINE
  5
DB
  8
1
 62
     3
 10
-181.4698354696751
 20
-85.189267793275405
 30
0.0
 11
-166.06983546967501
 21
-41.689267793275413
 31
0.0
  0
LINE
  5
DC
  8
1
 62
     7
 10
-161.9698354696751
 20
-46.18926779327542
 30
0.0
 11
-181.4698354696751
 21
-46.18926779327542
 31
0.0
  0
LINE
  5
DD
  8
1
 62
     7
 10
-161.9698354696751
 20
-41.689267793275413
 30
0.0
 11
-181.4698354696751
 21
-41.689267793275413
 31
0.0
  0
LINE
  5
DE
  8
1
 62
     7
 10
-159.4698354696751
 20
-40.18926779327542
 30
0.0
 11
-161.9698354696751
 21
-40.18926779327542
 31
0.0
  0
LINE
  5
DF
  8
1
 62
     7
 10
-323.9698354696751
 20
-6.6892677932754188
 30
0.0
 11
-323.9698354696751
 21
71.81073220672458
 31
0.0
  0
LINE
  5
E0
  8
1
 62
     7
 10
-323.9698354696751
 20
71.81073220672458
 30
0.0
 11
-324.9698354696751
 21
70.81073220672458
 31
0.0
  0
LINE
  5
E1
  8
1
 62
     7
 10
-283.4698354696751
 20
27.24976216509296
 30
0.0
 11
-266.06983546967513
 21
27.24976216509296
 31
0.0
  0
LINE
  5
E2
  8
1
 62
     7
 10
-283.4698354696751
 20
-6.6892677932754188
 30
0.0
 11
-283.4698354696751
 21
27.24976216509296
 31
0.0
  0
LINE
  5
E3
  8
1
 62
     7
 10
-283.4698354696751
 20
37.642067010506203
 30
0.0
 11
-283.4698354696751
 21
71.81073220672458
 31
0.0
  0
LINE
  5
E4
  8
1
 62
     3
 10
-281.4698354696751
 20
37.642067010506203
 30
0.0
 11
-267.66983546967492
 21
71.810732206724595
 31
0.0
  0
LINE
  5
E5
  8
1
 62
     3
 10
-281.4698354696751
 20
71.81073220672458
 30
0.0
 11
-267.66983546967492
 21
37.642067010506203
 31
0.0
  0
LINE
  5
E6
  8
1
 62
     7
 10
-266.06983546967513
 20
71.81073220672458
 30
0.0
 11
-266.06983546967513
 21
66.063739017439971
 31
0.0
  0
LINE
  5
E7
  8
1
 62
     7
 10
-267.66983546967492
 20
64.31073220672458
 30
0.0
 11
-266.06983546967513
 21
64.31073220672458
 31
0.0
  0
LINE
  5
E8
  8
1
 62
     7
 10
-266.06983546967513
 20
66.063739017439971
 30
0.0
 11
-267.66983546967492
 21
66.063739017439971
 31
0.0
  0
LINE
  5
E9
  8
1
 62
     7
 10
-281.4698354696751
 20
66.063739017439971
 30
0.0
 11
-283.4698354696751
 21
66.063739017439971
 31
0.0
  0
LINE
  5
EA
  8
1
 62
     7
 10
-267.66983546967492
 20
71.810732206724595
 30
0.0
 11
-267.66983546967492
 21
37.642067010506203
 31
0.0
  0
LINE
  5
EB
  8
1
 62
     7
 10
-267.66983546967492
 20
-6.6892677932754188
 30
0.0
 11
-267.66983546967492
 21
27.24976216509296
 31
0.0
  0
LINE
  5
EC
  8
1
 62
     7
 10
-281.4698354696751
 20
71.81073220672458
 30
0.0
 11
-281.4698354696751
 21
37.642067010506203
 31
0.0
  0
LINE
  5
ED
  8
1
 62
     7
 10
-266.06983546967513
 20
37.642067010506203
 30
0.0
 11
-283.4698354696751
 21
37.642067010506203
 31
0.0
  0
LINE
  5
EE
  8
1
 62
     7
 10
-266.06983546967501
 20
24.741926125242269
 30
0.0
 11
-267.66983546967492
 21
24.741926125242269
 31
0.0
  0
LINE
  5
EF
  8
1
 62
     7
 10
-281.4698354696751
 20
24.741926125242269
 30
0.0
 11
-283.4698354696751
 21
24.741926125242269
 31
0.0
  0
LINE
  5
F0
  8
1
 62
     7
 10
-257.4698354696751
 20
48.022039350775387
 30
0.0
 11
-257.4698354696751
 21
-6.6892677932754188
 31
0.0
  0
LINE
  5
F1
  8
1
 62
     7
 10
-259.4698354696751
 20
64.31073220672458
 30
0.0
 11
-259.4698354696751
 21
-6.6892677932754188
 31
0.0
  0
LINE
  5
F2
  8
1
 62
     7
 10
-266.06983546967513
 20
64.31073220672458
 30
0.0
 11
-266.06983546967513
 21
-6.6892677932754188
 31
0.0
  0
LINE
  5
F3
  8
1
 62
     7
 10
-281.4698354696751
 20
27.24976216509295
 30
0.0
 11
-281.4698354696751
 21
-6.6892677932754188
 31
0.0
  0
LINE
  5
F4
  8
1
 62
     7
 10
-257.4698354696751
 20
48.022039350775387
 30
0.0
 11
-259.4698354696751
 21
64.31073220672458
 31
0.0
  0
LINE
  5
F5
  8
1
 62
     7
 10
-266.06983546967513
 20
64.31073220672458
 30
0.0
 11
-259.4698354696751
 21
64.31073220672458
 31
0.0
  0
LINE
  5
F6
  8
1
 62
     7
 10
-323.9698354696751
 20
71.81073220672458
 30
0.0
 11
-266.06983546967513
 21
71.81073220672458
 31
0.0
  0
LINE
  5
F7
  8
1
 62
     7
 10
-283.4698354696751
 20
64.010732206724583
 30
0.0
 11
-281.4698354696751
 21
64.010732206724583
 31
0.0
  0
LINE
  5
F8
  8
1
 62
     7
 10
-324.9698354696751
 20
70.81073220672458
 30
0.0
 11
-324.9698354696751
 21
-6.6892677932754188
 31
0.0
  0
LINE
  5
F9
  8
1
 62
     7
 10
-49.0
 20
71.581096968874476
 30
0.0
 11
-49.0
 21
65.81073220672458
 31
0.0
  0
LINE
  5
FA
  8
1
 62
     7
 10
-61.0
 20
71.581096968874476
 30
0.0
 11
-61.0
 21
65.81073220672458
 31
0.0
  0
LINE
  5
FB
  8
1
 62
     7
 10
-61.0
 20
65.81073220672458
 30
0.0
 11
-49.0
 21
65.81073220672458
 31
0.0
  0
LINE
  5
FC
  8
1
 62
     7
 10
-119.78412424749619
 20
37.642067010506182
 30
0.0
 11
-114.78684177437169
 21
34.756884629431219
 31
0.0
  0
LINE
  5
FD
  8
1
 62
     7
 10
-125.78412424749619
 20
27.24976216509291
 30
0.0
 11
-120.78684177437179
 21
24.364579784017948
 31
0.0
  0
LINE
  5
FE
  8
1
 62
     7
 10
-120.78684177437179
 20
24.364579784017948
 30
0.0
 11
-114.78684177437169
 21
34.756884629431219
 31
0.0
  0
LINE
  5
FF
  8
1
 62
     7
 10
-125.78412424749619
 20
-40.628297751643721
 30
0.0
 11
-120.78684177437179
 21
-37.743115370568773
 31
0.0
  0
LINE
  5
100
  8
1
 62
     7
 10
-119.78412424749619
 20
-51.020602597057007
 30
0.0
 11
-114.78684177437169
 21
-48.135420215982037
 31
0.0
  0
LINE
  5
101
  8
1
 62
     7
 10
-114.78684177437169
 20
-48.135420215982037
 30
0.0
 11
-120.78684177437179
 21
-37.743115370568773
 31
0.0
  0
LINE
  5
102
  8
1
 62
     7
 10
-61.000000000000021
 20
-84.959632555425316
 30
0.0
 11
-61.000000000000028
 21
-79.189267793275448
 31
0.0
  0
LINE
  5
103
  8
1
 62
     7
 10
-49.000000000000007
 20
-84.959632555425344
 30
0.0
 11
-49.000000000000028
 21
-79.189267793275448
 31
0.0
  0
LINE
  5
104
  8
1
 62
     7
 10
-49.000000000000028
 20
-79.189267793275448
 30
0.0
 11
-61.000000000000028
 21
-79.189267793275448
 31
0.0
  0
LINE
  5
105
  8
1
 62
     7
 10
9.7841242474961518
 20
-51.020602597057028
 30
0.0
 11
4.7868417743718013
 21
-48.135420215982087
 31
0.0
  0
LINE
  5
106
  8
1
 62
     7
 10
15.78412424749618
 20
-40.628297751643757
 30
0.0
 11
10.78684177437178
 21
-37.743115370568809
 31
0.0
  0
LINE
  5
107
  8
1
 62
     7
 10
10.78684177437178
 20
-37.743115370568809
 30
0.0
 11
4.7868417743718013
 21
-48.135420215982087
 31
0.0
  0
LINE
  5
108
  8
1
 62
     7
 10
15.78412424749618
 20
27.249762165092861
 30
0.0
 11
10.786841774371849
 21
24.36457978401792
 31
0.0
  0
LINE
  5
109
  8
1
 62
     7
 10
9.7841242474962051
 20
37.642067010506139
 30
0.0
 11
4.7868417743718297
 21
34.756884629431177
 31
0.0
  0
LINE
  5
10A
  8
1
 62
     7
 10
4.7868417743718297
 20
34.756884629431177
 30
0.0
 11
10.786841774371849
 21
24.36457978401792
 31
0.0
  0
LINE
  5
10B
  8
1
  6
DASHDOT
 62
     3
 10
5.6217782649107084
 20
28.31073220672457
 30
0.0
 11
13.849019600862871
 21
33.060732206724573
 31
0.0
  0
LINE
  5
10C
  8
1
  6
DASHDOT
 62
     3
 10
-123.8490196008628
 20
33.060732206724573
 30
0.0
 11
-115.6217782649107
 21
28.31073220672457
 31
0.0
  0
LINE
  5
10D
  8
1
  6
DASHDOT
 62
     3
 10
13.849019600862871
 20
-46.439267793275398
 30
0.0
 11
5.6217782649107084
 21
-41.689267793275413
 31
0.0
  0
LINE
  5
10E
  8
1
  6
DASHDOT
 62
     3
 10
-115.6217782649107
 20
-41.689267793275413
 30
0.0
 11
-123.8490196008628
 21
-46.439267793275398
 31
0.0
  0
LINE
  5
10F
  8
1
 62
     7
 10
-62.0
 20
20.81073220672457
 30
0.0
 11
-48.0
 21
20.81073220672457
 31
0.0
  0
LINE
  5
110
  8
1
 62
     7
 10
-48.0
 20
20.81073220672457
 30
0.0
 11
-48.0
 21
17.31073220672458
 31
0.0
  0
LINE
  5
111
  8
1
 62
     7
 10
-62.0
 20
20.81073220672457
 30
0.0
 11
-62.0
 21
17.31073220672458
 31
0.0
  0
LINE
  5
112
  8
1
 62
     7
 10
-55.0
 20
78.192011950058784
 30
0.0
 11
-55.0
 21
71.81073220672458
 31
0.0
  0
LINE
  5
113
  8
1
 62
     7
 10
-55.0
 20
90.370255491566354
 30
0.0
 11
-55.0
 21
81.9147850468717
 31
0.0
  0
LINE
  5
114
  8
1
 62
     7
 10
-58.0
 20
90.370255491566354
 30
0.0
 11
-55.0
 21
90.370255491566354
 31
0.0
  0
LINE
  5
115
  8
1
 62
     7
 10
-52.0
 20
90.370255491566354
 30
0.0
 11
-52.0
 21
81.9147850468717
 31
0.0
  0
LINE
  5
116
  8
1
 62
     7
 10
-52.0
 20
78.192011950058799
 30
0.0
 11
-52.0
 21
71.75338641985023
 31
0.0
  0
LINE
  5
117
  8
1
 62
     7
 10
-58.0
 20
71.75338641985023
 30
0.0
 11
-58.0
 21
78.192011950058799
 31
0.0
  0
LINE
  5
118
  8
1
 62
     7
 10
-58.0
 20
90.370255491566354
 30
0.0
 11
-58.0
 21
81.9147850468717
 31
0.0
  0
LINE
  5
119
  8
1
 62
     7
 10
-55.0
 20
90.370255491566354
 30
0.0
 11
-52.0
 21
90.370255491566354
 31
0.0
  0
LINE
  5
11A
  8
1
 62
     7
 10
-53.100000000000023
 20
90.370255491566425
 30
0.0
 11
-53.100000000000023
 21
95.370255491566425
 31
0.0
  0
LINE
  5
11B
  8
1
 62
     7
 10
-53.300000000000068
 20
90.370255491566425
 30
0.0
 11
-53.300000000000068
 21
95.370255491566425
 31
0.0
  0
LINE
  5
11C
  8
1
 62
     7
 10
-53.5
 20
90.370255491566425
 30
0.0
 11
-53.5
 21
95.370255491566425
 31
0.0
  0
LINE
  5
11D
  8
1
 62
     7
 10
-53.700000000000038
 20
90.370255491566425
 30
0.0
 11
-53.700000000000038
 21
95.370255491566425
 31
0.0
  0
LINE
  5
11E
  8
1
 62
     7
 10
-53.900000000000098
 20
90.370255491566425
 30
0.0
 11
-53.900000000000098
 21
95.370255491566425
 31
0.0
  0
LINE
  5
11F
  8
1
 62
     7
 10
-56.100000000000023
 20
90.370255491566425
 30
0.0
 11
-56.100000000000023
 21
95.370255491566425
 31
0.0
  0
LINE
  5
120
  8
1
 62
     7
 10
-56.300000000000061
 20
90.370255491566425
 30
0.0
 11
-56.300000000000061
 21
95.370255491566425
 31
0.0
  0
LINE
  5
121
  8
1
 62
     7
 10
-56.5
 20
90.370255491566425
 30
0.0
 11
-56.5
 21
95.370255491566425
 31
0.0
  0
LINE
  5
122
  8
1
 62
     7
 10
-56.700000000000053
 20
90.370255491566425
 30
0.0
 11
-56.700000000000053
 21
95.370255491566425
 31
0.0
  0
LINE
  5
123
  8
1
 62
     7
 10
-56.900000000000098
 20
90.370255491566425
 30
0.0
 11
-56.900000000000098
 21
95.370255491566425
 31
0.0
  0
LINE
  5
124
  8
1
 62
     7
 10
-257.4698354696751
 20
27.81073220672457
 30
0.0
 11
-256.96983546967499
 21
27.31073220672457
 31
0.0
  0
LINE
  5
125
  8
1
 62
     7
 10
-256.96983546967499
 20
27.31073220672457
 30
0.0
 11
-256.96983546967499
 21
-6.6892677932754188
 31
0.0
  0
LINE
  5
126
  8
1
 62
     7
 10
-256.96983546967499
 20
-40.68926779327542
 30
0.0
 11
-257.4698354696751
 21
-41.18926779327542
 31
0.0
  0
LINE
  5
127
  8
1
 62
     3
 10
-281.4698354696751
 20
27.24976216509295
 30
0.0
 11
-267.66983546967492
 21
-40.628297751643792
 31
0.0
  0
LINE
  5
128
  8
1
 62
     3
 10
-281.4698354696751
 20
-40.628297751643792
 30
0.0
 11
-267.66983546967492
 21
27.24976216509296
 31
0.0
  0
LINE
  5
129
  8
1
 62
     7
 10
-224.9698354696751
 20
59.510732206724583
 30
0.0
 11
-210.56983546967501
 21
59.510732206724583
 31
0.0
  0
LINE
  5
12A
  8
1
 62
     7
 10
-210.56983546967501
 20
59.510732206724583
 30
0.0
 11
-210.56983546967501
 21
53.110732206724578
 31
0.0
  0
LINE
  5
12B
  8
1
 62
     7
 10
-210.56983546967501
 20
53.110732206724578
 30
0.0
 11
-224.9698354696751
 21
53.110732206724578
 31
0.0
  0
LINE
  5
12C
  8
1
 62
     7
 10
-210.56983546967501
 20
59.510732206724583
 30
0.0
 11
-208.26043439291649
 21
56.31073220672458
 31
0.0
  0
LINE
  5
12D
  8
1
 62
     7
 10
-208.26043439291649
 20
56.31073220672458
 30
0.0
 11
-210.56983546967501
 21
53.110732206724578
 31
0.0
  0
LINE
  5
12E
  8
1
 62
     3
 10
-224.9698354696751
 20
60.31073220672458
 30
0.0
 11
-216.96983546967499
 21
60.31073220672458
 31
0.0
  0
LINE
  5
12F
  8
1
 62
     3
 10
-216.96983546967499
 20
60.31073220672458
 30
0.0
 11
-216.96983546967499
 21
52.31073220672458
 31
0.0
  0
LINE
  5
130
  8
1
 62
     3
 10
-216.96983546967499
 20
52.31073220672458
 30
0.0
 11
-224.9698354696751
 21
52.31073220672458
 31
0.0
  0
LINE
  5
131
  8
1
 62
     3
 10
-216.96983546967499
 20
60.31073220672458
 30
0.0
 11
-215.5841948236199
 21
59.510732206724583
 31
0.0
  0
LINE
  5
132
  8
1
 62
     3
 10
-216.96983546967499
 20
52.31073220672458
 30
0.0
 11
-215.5841948236199
 21
53.110732206724578
 31
0.0
  0
LINE
  5
133
  8
1
  6
DASHDOT
 62
     3
 10
-226.9698354696751
 20
56.31073220672458
 30
0.0
 11
-206.26043439291649
 21
56.31073220672458
 31
0.0
  0
LINE
  5
134
  8
1
 62
     7
 10
-210.56983546967501
 20
-72.889267793275422
 30
0.0
 11
-224.9698354696751
 21
-72.889267793275422
 31
0.0
  0
LINE
  5
135
  8
1
 62
     7
 10
-210.56983546967501
 20
-66.489267793275417
 30
0.0
 11
-210.56983546967501
 21
-72.889267793275422
 31
0.0
  0
LINE
  5
136
  8
1
 62
     7
 10
-224.9698354696751
 20
-66.489267793275417
 30
0.0
 11
-210.56983546967501
 21
-66.489267793275417
 31
0.0
  0
LINE
  5
137
  8
1
 62
     7
 10
-208.26043439291649
 20
-69.68926779327542
 30
0.0
 11
-210.56983546967501
 21
-72.889267793275422
 31
0.0
  0
LINE
  5
138
  8
1
 62
     7
 10
-210.56983546967501
 20
-66.489267793275417
 30
0.0
 11
-208.26043439291649
 21
-69.68926779327542
 31
0.0
  0
LINE
  5
139
  8
1
 62
     3
 10
-216.96983546967499
 20
-73.68926779327542
 30
0.0
 11
-224.9698354696751
 21
-73.68926779327542
 31
0.0
  0
LINE
  5
13A
  8
1
 62
     3
 10
-216.96983546967499
 20
-65.68926779327542
 30
0.0
 11
-216.96983546967499
 21
-73.68926779327542
 31
0.0
  0
LINE
  5
13B
  8
1
 62
     3
 10
-224.9698354696751
 20
-65.68926779327542
 30
0.0
 11
-216.96983546967499
 21
-65.68926779327542
 31
0.0
  0
LINE
  5
13C
  8
1
 62
     3
 10
-215.5841948236199
 20
-72.889267793275422
 30
0.0
 11
-216.96983546967499
 21
-73.68926779327542
 31
0.0
  0
LINE
  5
13D
  8
1
 62
     3
 10
-215.5841948236199
 20
-66.489267793275417
 30
0.0
 11
-216.96983546967499
 21
-65.68926779327542
 31
0.0
  0
LINE
  5
13E
  8
1
  6
DASHDOT
 62
     3
 10
-206.26043439291649
 20
-69.68926779327542
 30
0.0
 11
-226.9698354696751
 21
-69.68926779327542
 31
0.0
  0
LINE
  5
13F
  8
1
  6
DASHDOT
 62
     3
 10
-405.9841066051311
 20
-6.6892677932754188
 30
0.0
 11
-447.9841066051311
 21
-6.6892677932754188
 31
0.0
  0
LINE
  5
140
  8
1
  6
DASHDOT
 62
     3
 10
-426.98410660513122
 20
14.31073220672457
 30
0.0
 11
-426.98410660513122
 21
-27.68926779327542
 31
0.0
  0
LINE
  5
141
  8
1
  6
DASHDOT
 62
     3
 10
-55.0
 20
14.31073220672457
 30
0.0
 11
-55.0
 21
-27.68926779327542
 31
0.0
  0
LINE
  5
142
  8
1
  6
DASHDOT
 62
     3
 10
-76.0
 20
-6.6892677932754188
 30
0.0
 11
-34.0
 21
-6.6892677932754188
 31
0.0
  0
LINE
  5
143
  8
1
  6
DASHDOT
 62
     3
 10
-224.9698354696751
 20
-6.6892677932754188
 30
0.0
 11
-234.19006391821489
 21
-6.6892677932754188
 31
0.0
  0
LINE
  5
144
  8
1
  6
DASHDOT
 62
     3
 10
-256.96983546967499
 20
-6.6892677932754188
 30
0.0
 11
-253.20496248424891
 21
-6.6892677932754188
 31
0.0
  0
ARC
  5
145
  8
1
 62
     7
 10
-428.48410660513122
 20
77.567011950058799
 30
0.0
 40
1.6249999999999949
 50
22.619864948039972
 51
157.3801350519596
  0
ARC
  5
146
  8
1
 62
     7
 10
-425.4841066051311
 20
77.567011950058799
 30
0.0
 40
1.625
 50
22.61986494804043
 51
157.38013505196
  0
ARC
  5
147
  8
1
 62
     7
 10
-425.4841066051311
 20
78.817011950058799
 30
0.0
 40
1.625000000000006
 50
202.6198649480408
 51
337.38013505195948
  0
ARC
  5
148
  8
1
 62
     7
 10
-428.48410660513122
 20
82.5397850468717
 30
0.0
 40
1.625
 50
202.6198649480404
 51
337.38013505195948
  0
ARC
  5
149
  8
1
 62
     7
 10
-425.4841066051311
 20
82.5397850468717
 30
0.0
 40
1.625
 50
202.6198649480404
 51
337.38013505195948
  0
ARC
  5
14A
  8
1
 62
     7
 10
-428.48410660513122
 20
81.2897850468717
 30
0.0
 40
1.625
 50
22.61986494804043
 51
157.3801350519596
  0
ARC
  5
14B
  8
1
 62
     7
 10
-211.7198354696751
 20
78.205433284433497
 30
0.0
 40
0.8125
 50
22.61986494804043
 51
157.3801350519596
  0
ARC
  5
14C
  8
1
 62
     7
 10
-210.2198354696751
 20
78.205433284433497
 30
0.0
 40
0.8125
 50
22.61986494804043
 51
157.3801350519596
  0
ARC
  5
14D
  8
1
 62
     7
 10
-210.2198354696751
 20
78.830433284433497
 30
0.0
 40
0.8125
 50
202.6198649480404
 51
337.38013505195948
  0
ARC
  5
14E
  8
1
 62
     7
 10
-211.7198354696751
 20
81.28116836813841
 30
0.0
 40
0.8125
 50
202.6198649480404
 51
337.38013505195948
  0
ARC
  5
14F
  8
1
 62
     7
 10
-211.7198354696751
 20
80.65616836813841
 30
0.0
 40
0.8125
 50
22.61986494804043
 51
157.3801350519596
  0
ARC
  5
150
  8
1
 62
     7
 10
-210.2198354696751
 20
81.28116836813841
 30
0.0
 40
0.8125
 50
202.6198649480404
 51
337.38013505195948
  0
ARC
  5
151
  8
1
 62
     7
 10
-426.9841066051311
 20
-6.6892677932754188
 30
0.0
 40
25.0
 50
106.260204708312
 51
73.739795291688054
  0
ARC
  5
152
  8
1
 62
     7
 10
-311.7198354696751
 20
78.205433284433497
 30
0.0
 40
0.8125
 50
22.61986494804043
 51
157.3801350519596
  0
ARC
  5
153
  8
1
 62
     7
 10
-310.2198354696751
 20
78.205433284433497
 30
0.0
 40
0.8125
 50
22.61986494804043
 51
157.3801350519596
  0
ARC
  5
154
  8
1
 62
     7
 10
-310.2198354696751
 20
78.830433284433497
 30
0.0
 40
0.8125
 50
202.6198649480404
 51
337.38013505195948
  0
ARC
  5
155
  8
1
 62
     7
 10
-311.7198354696751
 20
81.28116836813841
 30
0.0
 40
0.8125
 50
202.6198649480404
 51
337.38013505195948
  0
ARC
  5
156
  8
1
 62
     7
 10
-311.7198354696751
 20
80.65616836813841
 30
0.0
 40
0.8125
 50
22.61986494804043
 51
157.3801350519596
  0
ARC
  5
157
  8
1
 62
     7
 10
-310.2198354696751
 20
81.28116836813841
 30
0.0
 40
0.8125
 50
202.6198649480404
 51
337.38013505195948
  0
ARC
  5
158
  8
1
 62
     7
 10
-55.0
 20
-6.6892677932754188
 30
0.0
 40
73.0
 50
85.285439459117555
 51
94.714560540882417
  0
ARC
  5
159
  8
1
 62
     7
 10
-55.0
 20
-6.6892677932754188
 30
0.0
 40
73.0
 50
145.2854394591175
 51
154.71456054088239
  0
ARC
  5
15A
  8
1
 62
     7
 10
-55.0
 20
-6.6892677932754188
 30
0.0
 40
72.999999999999972
 50
205.28543945911761
 51
214.71456054088239
  0
ARC
  5
15B
  8
1
 62
     7
 10
-55.0
 20
-6.6892677932754188
 30
0.0
 40
73.000000000000028
 50
265.28543945911753
 51
274.71456054088242
  0
ARC
  5
15C
  8
1
 62
     7
 10
-55.0
 20
-6.6892677932754188
 30
0.0
 40
73.000000000000014
 50
325.28543945911758
 51
334.71456054088242
  0
ARC
  5
15D
  8
1
 62
     7
 10
-55.0
 20
-6.6892677932754188
 30
0.0
 40
73.000000000000014
 50
25.285439459117551
 51
34.714560540882388
  0
ARC
  5
15E
  8
1
 62
     7
 10
-55.0
 20
-6.6892677932754188
 30
0.0
 40
25.0
 50
106.260204708312
 51
73.739795291688054
  0
ARC
  5
15F
  8
1
 62
     7
 10
-56.5
 20
77.567011950058799
 30
0.0
 40
1.6249999999999949
 50
22.619864948039972
 51
157.3801350519596
  0
ARC
  5
160
  8
1
 62
     7
 10
-53.5
 20
77.567011950058799
 30
0.0
 40
1.625
 50
22.61986494804043
 51
157.38013505196
  0
ARC
  5
161
  8
1
 62
     7
 10
-53.5
 20
78.817011950058799
 30
0.0
 40
1.625000000000006
 50
202.6198649480408
 51
337.38013505195948
  0
ARC
  5
162
  8
1
 62
     7
 10
-56.5
 20
82.5397850468717
 30
0.0
 40
1.625
 50
202.6198649480404
 51
337.38013505195948
  0
ARC
  5
163
  8
1
 62
     7
 10
-53.5
 20
82.5397850468717
 30
0.0
 40
1.625
 50
202.6198649480404
 51
337.38013505195948
  0
ARC
  5
164
  8
1
 62
     7
 10
-56.5
 20
81.2897850468717
 30
0.0
 40
1.625
 50
22.61986494804043
 51
157.3801350519596
  0
CIRCLE
  5
165
  8
1
 62
     7
 10
-55.0
 20
-6.6892677932754188
 30
0.0
 40
34.0
  0
CIRCLE
  5
166
  8
1
 62
     7
 10
-372.42450616671152
 20
24.810732206724531
 30
0.0
 40
3.249999999999996
  0
CIRCLE
  5
167
  8
1
 62
     3
 10
-372.42450616671152
 20
24.810732206724531
 30
0.0
 40
3.999999999999996
  0
CIRCLE
  5
168
  8
1
 62
     7
 10
-372.42450616671152
 20
-38.189267793275462
 30
0.0
 40
3.249999999999996
  0
CIRCLE
  5
169
  8
1
 62
     3
 10
-372.42450616671152
 20
-38.189267793275462
 30
0.0
 40
3.999999999999996
  0
CIRCLE
  5
16A
  8
1
 62
     7
 10
-426.98410660513122
 20
-69.689267793275434
 30
0.0
 40
3.25
  0
CIRCLE
  5
16B
  8
1
 62
     3
 10
-426.98410660513122
 20
-69.689267793275434
 30
0.0
 40
4.0
  0
CIRCLE
  5
16C
  8
1
 62
     7
 10
-481.54370704355068
 20
-38.189267793275398
 30
0.0
 40
3.250000000000008
  0
CIRCLE
  5
16D
  8
1
 62
     3
 10
-481.54370704355068
 20
-38.189267793275398
 30
0.0
 40
3.999999999999996
  0
CIRCLE
  5
16E
  8
1
 62
     7
 10
-481.54370704355068
 20
24.810732206724591
 30
0.0
 40
3.2500000000000009
  0
CIRCLE
  5
16F
  8
1
 62
     3
 10
-481.54370704355068
 20
24.810732206724591
 30
0.0
 40
3.999999999999996
  0
CIRCLE
  5
170
  8
1
 62
     7
 10
-426.9841066051311
 20
56.31073220672458
 30
0.0
 40
3.25
  0
CIRCLE
  5
171
  8
1
 62
     3
 10
-426.9841066051311
 20
56.31073220672458
 30
0.0
 40
4.0
  0
CIRCLE
  5
172
  8
1
  6
DASHDOT
 62
     3
 10
-426.9841066051311
 20
-6.6892677932754188
 30
0.0
 40
63.0
  0
CIRCLE
  5
173
  8
1
 62
     7
 10
-426.9841066051311
 20
-6.6892677932754188
 30
0.0
 40
78.5
  0
CIRCLE
  5
174
  8
1
 62
     7
 10
-426.9841066051311
 20
-6.6892677932754188
 30
0.0
 40
46.0
  0
CIRCLE
  5
175
  8
1
 62
     7
 10
-426.9841066051311
 20
-6.6892677932754188
 30
0.0
 40
32.5
  0
CIRCLE
  5
176
  8
1
 62
     7
 10
-55.0
 20
-6.6892677932754188
 30
0.0
 40
71.0
  0
CIRCLE
  5
177
  8
1
 62
     7
 10
-55.0
 20
-6.6892677932754188
 30
0.0
 40
54.711307144050807
  0
CIRCLE
  5
178
  8
1
 62
     7
 10
-55.0
 20
-6.6892677932754188
 30
0.0
 40
35.0
  0
CIRCLE
  5
179
  8
1
 62
     7
 10
-55.0
 20
-6.6892677932754188
 30
0.0
 40
44.0
  0
CIRCLE
  5
17A
  8
1
 62
     7
 10
-55.0
 20
-6.6892677932754188
 30
0.0
 40
78.5
  0
CIRCLE
  5
17B
  8
1
 62
     7
 10
-426.9841066051311
 20
-6.6892677932754188
 30
0.0
 40
77.5
  0
TEXT
  5
17D
  8
1
 62
     7
 10
-516.82035107907302
 20
99.478103271969488
 30
0.0
 40
8.0
  1
MDB 20
 41
0.9
  7
SIMPLEX
 72
     1
 11
-496.42035107907299
 21
99.478103271969488
 31
0.0
  0
ENDSEC
  0
EOF
