  0
SECTION
  2
HEADER
  9
$ACADVER
  1
AC1009
  9
$INSBASE
 10
0
 20
0
  9
$EXTMIN
 10
-517.540612178973
 20
-85.18926779327543
  9
$EXTMAX
 10
23.5
 20
107.4781032719695
  9
$LIMMIN
 10
-517.540612178973
 20
-85.18926779327543
  9
$LIMMAX
 10
23.5
 20
107.4781032719695
  9
$VIEWCTR
 10
10
 20
10
  9
$VIEWSIZE
 40
10
  9
$SNAPMODE
 70
0
  9
$SNAPUNIT
 10
1
 20
1
  9
$SNAPBASE
 10
0
 20
0
  9
$SNAPANG
 50
0
  9
$SNAPSTYLE
 70
0
  9
$SNAPISOPAIR
 70
0
  9
$GRIDMODE
 70
0
  9
$GRIDUNIT
 10
0
 20
0
  9
$ORTHOMODE
 70
0
  9
$REGENMODE
 70
1
  9
$FILLMODE
 70
1
  9
$QTEXTMODE
 70
0
  9
$DRAGMODE
 70
2
  9
$LTSCALE
 40
1
  9
$OSMODE
 70
0
  9
$ATTMODE
 70
1
  9
$TEXTSIZE
 40
3.5
  9
$TRACEWID
 40
0.5
  9
$TEXTSTYLE
  7
STANDARD
  9
$CLAYER
  8
0
  9
$CELTYPE
  6
BYLAYER
  9
$CECOLOR
 62
256
  9
$DIMSCALE
 40
1
  9
$DIMASZ
 40
0.18
  9
$DIMEXO
 40
0.0625
  9
$DIMDLI
 40
0.38
  9
$DIMRND
 40
0
  9
$DIMDLE
 40
0
  9
$DIMEXE
 40
0.18
  9
$DIMTP
 40
0
  9
$DIMTM
 40
0
  9
$DIMTXT
 40
0.18
  9
$DIMCEN
 40
0.09
  9
$DIMTSZ
 40
0
  9
$DIMTOL
 70
0
  9
$DIMLIM
 70
0
  9
$DIMTIH
 70
1
  9
$DIMTOH
 70
1
  9
$DIMSE1
 70
0
  9
$DIMSE2
 70
0
  9
$DIMTAD
 70
0
  9
$DIMZIN
 70
0
  9
$DIMBLK
  1

  9
$DIMASO
 70
1
  9
$DIMSHO
 70
1
  9
$DIMPOST
  1

  9
$DIMAPOST
  1

  9
$DIMALT
 70
0
  9
$DIMALTD
 70
2
  9
$DIMALTF
 40
25.4
  9
$DIMLFAC
 40
1
  9
$DIMTOFL
 70
0
  9
$DIMTVP
 40
0
  9
$DIMTIX
 70
0
  9
$DIMSOXD
 70
0
  9
$DIMSAH
 70
0
  9
$DIMBLK1
  1

  9
$DIMBLK2
  1

  9
$DIMSTYLE
  2
*UNNAMED
  9
$DIMCLRD
 70
0
  9
$DIMCLRE
 70
0
  9
$DIMCLRT
 70
0
  9
$DIMTFAC
 40
1
  9
$DIMGAP
 40
0.09
  9
$LUNITS
 70
2
  9
$LUPREC
 70
4
  9
$AXISMODE
 70
0
  9
$AXISUNIT
 10
0
 20
0
  9
$SKETCHINC
 40
0.1
  9
$FILLETRAD
 40
2
  9
$AUNITS
 70
0
  9
$AUPREC
 70
0
  9
$MENU
  1
ACAD
  9
$ELEVATION
 40
0
  9
$THICKNESS
 40
0
  9
$VIEWDIR
 10
0
 20
0
 30
1
  9
$LIMCHECK
 70
0
  9
$BLIPMODE
 70
1
  9
$CHAMFERA
 40
0
  9
$CHAMFERB
 40
0
  9
$FASTZOOM
 70
1
  9
$SKPOLY
 70
0
  9
$ANGBASE
 50
0
  9
$ANGDIR
 70
0
  9
$PDMODE
 70
0
  9
$PDSIZE
 40
0
  9
$PLINEWID
 40
0
  9
$COORDS
 70
2
  0
ENDSEC
  0
SECTION
  2
TABLES
  0
TABLE
  2
DIMSTYLE
 70
0
  0
ENDTAB
  0
TABLE
  2
LTYPE
 70
9
  0
LTYPE
  2
CONTINUOUS
 70
64
  3
Solid line
 72
65
 73
0
 40
0
  0
LTYPE
  2
BORDER
 70
64
  3
__ __ . __ __ .
 72
65
 73
6
 40
24.91634398192639
 49
7.118955423407539
 49
-3.55947771170377
 49
7.118955423407539
 49
-3.55947771170377
 49
0
 49
-3.55947771170377
  0
LTYPE
  2
CENTER
 70
64
  3
____ _ ____ _
 72
65
 73
4
 40
28.47582169363016
 49
17.79738855851885
 49
-3.55947771170377
 49
3.55947771170377
 49
-3.55947771170377
  0
LTYPE
  2
DASHDOT
 70
64
  3
__ . __ . __ .
 72
65
 73
4
 40
14.23791084681508
 49
7.118955423407539
 49
-3.55947771170377
 49
0
 49
-3.55947771170377
  0
LTYPE
  2
DASHED
 70
64
  3
__ __ __ __ __
 72
65
 73
2
 40
10.67843313511131
 49
7.118955423407539
 49
-3.55947771170377
  0
LTYPE
  2
DIVIDE
 70
64
  3
__ . . __ . . 
 72
65
 73
6
 40
17.79738855851885
 49
7.118955423407539
 49
-3.55947771170377
 49
0
 49
-3.55947771170377
 49
0
 49
-3.55947771170377
  0
LTYPE
  2
DOT
 70
64
  3
..............
 72
65
 73
4
 40
7.118955423407539
 49
0
 49
-3.55947771170377
 49
0
 49
-3.55947771170377
  0
LTYPE
  2
HIDDEN
 70
64
  3
_ _ _ _ _ _ _
 72
65
 73
2
 40
5.339216567555654
 49
3.55947771170377
 49
-1.779738855851885
  0
LTYPE
  2
PHANTOM
 70
64
  3
_____ _ _ _____ _ _ 
 72
65
 73
6
 40
35.59477711703769
 49
17.79738855851885
 49
-3.55947771170377
 49
3.55947771170377
 49
-3.55947771170377
 49
3.55947771170377
 49
-3.55947771170377
  0
ENDTAB
  0
TABLE
  2
LAYER
 70
3
  0
LAYER
  2
1
 70
0
 62
7
  6
CONTINUOUS
  0
LAYER
  2
0
 70
0
 62
7
  6
CONTINUOUS
  0
ENDTAB
  0
TABLE
  2
STYLE
 70
4
  0
STYLE
  2
STANDARD
 70
0
 40
0
 41
1
 50
0
 71
0
 42
3.5
  3
txt
  4

  0
STYLE
  2
SIMPLEX
 70
0
 40
0
 41
1
 50
0
 71
0
 42
3.5
  3
simplex
  4

  0
STYLE
  2
COMPLEX
 70
0
 40
0
 41
1
 50
0
 71
0
 42
3.5
  3
complex
  4

  0
STYLE
  2
ITALIC
 70
0
 40
0
 41
1
 50
0
 71
0
 42
3.5
  3
italic
  4

  0
ENDTAB
  0
TABLE
  2
VIEW
 70
0
  0
ENDTAB
  0
ENDSEC
  0
SECTION
  2
BLOCKS
  0
ENDSEC
  0
SECTION
  2
ENTITIES
  0
LINE
  8
1
 62
7
 10
-426.9841066051311
 20
78.19201195005878
 30
0
 11
-426.9841066051311
 21
71.81073220672458
 31
0
  0
LINE
  8
1
 62
7
 10
-426.9841066051311
 20
90.37025549156634
 30
0
 11
-426.9841066051311
 21
81.91478504687171
 31
0
  0
LINE
  8
1
 62
7
 10
-212.4698354696751
 20
78.5179332844335
 30
0
 11
-212.4698354696749
 21
71.81073220672458
 31
0
  0
LINE
  8
1
 62
7
 10
-209.4698354696751
 20
78.5179332844335
 30
0
 11
-209.4698354696751
 21
71.81073220672458
 31
0
  0
LINE
  8
1
 62
7
 10
-429.9841066051311
 20
90.37025549156634
 30
0
 11
-426.9841066051311
 21
90.37025549156634
 31
0
  0
LINE
  8
1
 62
7
 10
-423.9841066051311
 20
90.37025549156634
 30
0
 11
-423.9841066051311
 21
81.91478504687171
 31
0
  0
LINE
  8
1
 62
7
 10
-423.9841066051311
 20
78.1920119500588
 30
0
 11
-423.9841066051311
 21
71.75338641985024
 31
0
  0
LINE
  8
1
 62
7
 10
-429.9841066051311
 20
71.75338641985024
 30
0
 11
-429.9841066051311
 21
78.1920119500588
 31
0
  0
LINE
  8
1
 62
7
 10
-429.9841066051311
 20
90.37025549156634
 30
0
 11
-429.9841066051311
 21
81.91478504687171
 31
0
  0
LINE
  8
1
 62
7
 10
-426.9841066051311
 20
90.37025549156634
 30
0
 11
-423.9841066051311
 21
90.37025549156634
 31
0
  0
LINE
  8
1
 62
7
 10
-425.0841066051311
 20
90.37025549156643
 30
0
 11
-425.0841066051311
 21
95.37025549156643
 31
0
  0
LINE
  8
1
 62
7
 10
-425.2841066051312
 20
90.37025549156643
 30
0
 11
-425.2841066051312
 21
95.37025549156643
 31
0
  0
LINE
  8
1
 62
7
 10
-425.4841066051311
 20
90.37025549156643
 30
0
 11
-425.4841066051311
 21
95.37025549156643
 31
0
  0
LINE
  8
1
 62
7
 10
-425.6841066051312
 20
90.37025549156643
 30
0
 11
-425.6841066051312
 21
95.37025549156643
 31
0
  0
LINE
  8
1
 62
7
 10
-425.8841066051312
 20
90.37025549156643
 30
0
 11
-425.8841066051312
 21
95.37025549156643
 31
0
  0
LINE
  8
1
 62
7
 10
-428.0841066051311
 20
90.37025549156643
 30
0
 11
-428.0841066051311
 21
95.37025549156643
 31
0
  0
LINE
  8
1
 62
7
 10
-428.2841066051312
 20
90.37025549156643
 30
0
 11
-428.2841066051312
 21
95.37025549156643
 31
0
  0
LINE
  8
1
 62
7
 10
-428.4841066051311
 20
90.37025549156643
 30
0
 11
-428.4841066051311
 21
95.37025549156643
 31
0
  0
LINE
  8
1
 62
7
 10
-428.6841066051312
 20
90.37025549156643
 30
0
 11
-428.6841066051312
 21
95.37025549156643
 31
0
  0
LINE
  8
1
 62
7
 10
-428.8841066051312
 20
90.37025549156643
 30
0
 11
-428.8841066051312
 21
95.37025549156643
 31
0
  0
LINE
  8
1
 62
7
 10
-209.4698354696751
 20
85.63890599204069
 30
0
 11
-209.4698354696751
 21
80.9686683681384
 31
0
  0
LINE
  8
1
 62
7
 10
-212.4698354696751
 20
85.63890599204069
 30
0
 11
-212.4698354696751
 21
80.9686683681384
 31
0
  0
LINE
  8
1
 62
7
 10
-212.4698354696751
 20
85.63890599204069
 30
0
 11
-209.4698354696751
 21
85.63890599204069
 31
0
  0
LINE
  8
1
 62
7
 10
-210.569835469675
 20
85.63890599204069
 30
0
 11
-210.569835469675
 21
90.63890599204069
 31
0
  0
LINE
  8
1
 62
7
 10
-210.7698354696751
 20
85.63890599204069
 30
0
 11
-210.7698354696751
 21
90.63890599204069
 31
0
  0
LINE
  8
1
 62
7
 10
-211.1698354696749
 20
85.63890599204069
 30
0
 11
-211.1698354696749
 21
90.63890599204069
 31
0
  0
LINE
  8
1
 62
7
 10
-211.369835469675
 20
85.63890599204069
 30
0
 11
-211.369835469675
 21
90.63890599204069
 31
0
  0
LINE
  8
1
 62
7
 10
-218.9698354696751
 20
39.31073220672458
 30
0
 11
-218.9698354696751
 21
-6.68926779327542
 31
0
  0
LINE
  8
1
 62
7
 10
-224.9698354696751
 20
70.81073220672458
 30
0
 11
-223.9698354696751
 21
71.81073220672458
 31
0
  0
LINE
  8
1
 62
3
  6
DASHDOT
 10
-476.8623535099426
 20
22.10795148392412
 30
0
 11
-486.2635849330654
 21
27.53575497677803
 31
0
  0
LINE
  8
1
 62
3
  6
DASHDOT
 10
-486.2635849330654
 20
-40.91429056332887
 30
0
 11
-476.8623535099426
 21
-35.48648707047496
 31
0
  0
LINE
  8
1
 62
3
  6
DASHDOT
 10
-377.1058597003196
 20
-35.48648707047496
 30
0
 11
-367.7046282771968
 21
-40.91429056332887
 31
0
  0
LINE
  8
1
 62
3
  6
DASHDOT
 10
-367.7046282771968
 20
27.53575497677803
 30
0
 11
-377.1058597003196
 21
22.10795148392412
 31
0
  0
LINE
  8
1
 62
7
 10
-166.069835469675
 20
71.81073220672458
 30
0
 11
-166.069835469675
 21
66.31073220672458
 31
0
  0
LINE
  8
1
 62
7
 10
-167.669835469675
 20
64.31073220672458
 30
0
 11
-166.069835469675
 21
64.31073220672458
 31
0
  0
LINE
  8
1
 62
7
 10
-167.669835469675
 20
71.81073220672458
 30
0
 11
-167.669835469675
 21
64.31073220672458
 31
0
  0
LINE
  8
1
 62
7
 10
-166.069835469675
 20
64.31073220672458
 30
0
 11
-166.069835469675
 21
28.31073220672458
 31
0
  0
LINE
  8
1
 62
7
 10
-182.4698354696751
 20
66.31073220672458
 30
0
 11
-166.069835469675
 21
66.31073220672458
 31
0
  0
LINE
  8
1
 62
7
 10
-182.4698354696751
 20
64.81073220672458
 30
0
 11
-182.4698354696751
 21
71.81073220672458
 31
0
  0
LINE
  8
1
 62
7
 10
-191.9698354696751
 20
46.31073220672458
 30
0
 11
-192.9698354696751
 21
47.31073220672458
 31
0
  0
LINE
  8
1
 62
7
 10
-191.9698354696751
 20
39.31073220672458
 30
0
 11
-224.9698354696751
 21
39.31073220672458
 31
0
  0
LINE
  8
1
 62
7
 10
-191.9698354696751
 20
46.31073220672458
 30
0
 11
-191.9698354696751
 21
39.31073220672458
 31
0
  0
LINE
  8
1
 62
7
 10
-192.9698354696751
 20
64.81073220672458
 30
0
 11
-192.9698354696751
 21
47.31073220672458
 31
0
  0
LINE
  8
1
 62
7
 10
-182.4698354696751
 20
64.81073220672458
 30
0
 11
-192.9698354696751
 21
64.81073220672458
 31
0
  0
LINE
  8
1
 62
7
 10
-224.9698354696751
 20
70.81073220672458
 30
0
 11
-224.9698354696751
 21
-6.68926779327542
 31
0
  0
LINE
  8
1
 62
7
 10
-223.9698354696751
 20
71.81073220672458
 30
0
 11
-166.069835469675
 21
71.81073220672458
 31
0
  0
LINE
  8
1
 62
3
  6
DASHDOT
 10
-151.665097075924
 20
-6.68926779327542
 30
0
 11
-156.9698354696751
 21
-6.68926779327542
 31
0
  0
LINE
  8
1
 62
7
 10
-206.9698354696751
 20
25.81073220672458
 30
0
 11
-206.9698354696751
 21
-6.68926779327542
 31
0
  0
LINE
  8
1
 62
7
 10
-204.4698354696751
 20
25.81073220672458
 30
0
 11
-206.9698354696751
 21
25.81073220672458
 31
0
  0
LINE
  8
1
 62
7
 10
-204.4698354696751
 20
24.31073220672458
 30
0
 11
-204.4698354696751
 21
30.71073220672458
 31
0
  0
LINE
  8
1
 62
7
 10
-201.9698354696751
 20
24.31073220672458
 30
0
 11
-204.4698354696751
 21
24.31073220672458
 31
0
  0
LINE
  8
1
 62
7
 10
-201.9698354696751
 20
30.71073220672458
 30
0
 11
-201.9698354696751
 21
24.31073220672458
 31
0
  0
LINE
  8
1
 62
7
 10
-204.4698354696751
 20
30.71073220672458
 30
0
 11
-201.9698354696751
 21
30.71073220672458
 31
0
  0
LINE
  8
1
 62
7
 10
-156.9698354696751
 20
-6.68926779327542
 30
0
 11
-156.9698354696751
 21
27.31073220672458
 31
0
  0
LINE
  8
1
 62
7
 10
-159.4698354696751
 20
33.21073220672459
 30
0
 11
-159.4698354696751
 21
26.81073220672458
 31
0
  0
LINE
  8
1
 62
7
 10
-201.9698354696751
 20
30.31073220672458
 30
0
 11
-200.4698354696751
 21
30.31073220672458
 31
0
  0
LINE
  8
1
 62
7
 10
-200.4698354696751
 20
30.31073220672458
 30
0
 11
-200.4698354696751
 21
38.51073220672458
 31
0
  0
LINE
  8
1
 62
7
 10
-200.4698354696751
 20
38.51073220672458
 30
0
 11
-190.4698354696751
 21
38.51073220672458
 31
0
  0
LINE
  8
1
 62
7
 10
-190.4698354696751
 20
38.51073220672458
 30
0
 11
-190.4698354696751
 21
56.56073220672458
 31
0
  0
LINE
  8
1
 62
7
 10
-190.4698354696751
 20
56.56073220672458
 30
0
 11
-191.4698354696751
 21
56.56073220672458
 31
0
  0
LINE
  8
1
 62
7
 10
-191.4698354696751
 20
56.56073220672458
 30
0
 11
-191.4698354696751
 21
64.01073220672458
 31
0
  0
LINE
  8
1
 62
7
 10
-191.4698354696751
 20
64.01073220672458
 30
0
 11
-181.4698354696751
 21
64.01073220672458
 31
0
  0
LINE
  8
1
 62
7
 10
-156.9698354696751
 20
27.31073220672458
 30
0
 11
-157.9698354696751
 21
28.31073220672458
 31
0
  0
LINE
  8
1
 62
7
 10
-206.9698354696751
 20
17.31073220672458
 30
0
 11
-156.9698354696751
 21
17.31073220672458
 31
0
  0
LINE
  8
1
 62
7
 10
-156.9698354696751
 20
20.81073220672458
 30
0
 11
-206.9698354696751
 21
20.81073220672458
 31
0
  0
LINE
  8
1
 62
7
 10
-201.9698354696751
 20
26.81073220672458
 30
0
 11
-181.4698354696751
 21
26.81073220672458
 31
0
  0
LINE
  8
1
 62
7
 10
-159.4698354696751
 20
28.31073220672458
 30
0
 11
-157.9698354696751
 21
28.31073220672458
 31
0
  0
LINE
  8
1
 62
7
 10
-159.4698354696751
 20
33.21073220672459
 30
0
 11
-161.9698354696751
 21
33.21073220672459
 31
0
  0
LINE
  8
1
 62
7
 10
-161.9698354696751
 20
26.81073220672458
 30
0
 11
-161.9698354696751
 21
37.31073220672458
 31
0
  0
LINE
  8
1
 62
7
 10
-161.9698354696751
 20
37.31073220672458
 30
0
 11
-157.4698354696751
 21
37.31073220672458
 31
0
  0
LINE
  8
1
 62
7
 10
-157.4698354696751
 20
48.02203935077539
 30
0
 11
-159.4698354696751
 21
64.31073220672458
 31
0
  0
LINE
  8
1
 62
7
 10
-157.4698354696751
 20
37.31073220672458
 30
0
 11
-157.4698354696751
 21
48.02203935077539
 31
0
  0
LINE
  8
1
 62
7
 10
-166.069835469675
 20
64.31073220672458
 30
0
 11
-159.4698354696751
 21
64.31073220672458
 31
0
  0
LINE
  8
1
 62
7
 10
-161.9698354696751
 20
29.06073220672458
 30
0
 11
-166.069835469675
 21
29.06073220672458
 31
0
  0
LINE
  8
1
 62
7
 10
-161.9698354696751
 20
33.31073220672458
 30
0
 11
-166.069835469675
 21
33.31073220672458
 31
0
  0
LINE
  8
1
 62
7
 10
-157.4698354696751
 20
34.82062429305547
 30
0
 11
-157.4698354696751
 21
37.31073220672458
 31
0
  0
LINE
  8
1
 62
7
 10
-181.4698354696751
 20
71.81073220672458
 30
0
 11
-181.4698354696751
 21
26.81073220672458
 31
0
  0
LINE
  8
1
 62
3
 10
-181.4698354696751
 20
28.31073220672458
 30
0
 11
-167.669835469675
 21
71.81073220672458
 31
0
  0
LINE
  8
1
 62
3
 10
-166.069835469675
 20
28.31073220672458
 30
0
 11
-181.4698354696751
 21
71.81073220672458
 31
0
  0
LINE
  8
1
 62
7
 10
-181.4698354696751
 20
32.81073220672458
 30
0
 11
-161.9698354696751
 21
32.81073220672458
 31
0
  0
LINE
  8
1
 62
7
 10
-181.4698354696751
 20
28.31073220672458
 30
0
 11
-161.9698354696751
 21
28.31073220672458
 31
0
  0
LINE
  8
1
 62
7
 10
-161.9698354696751
 20
26.81073220672458
 30
0
 11
-159.4698354696751
 21
26.81073220672458
 31
0
  0
LINE
  8
1
 62
7
 10
-433.9841066051311
 20
20.81073220672458
 30
0
 11
-419.9841066051311
 21
20.81073220672458
 31
0
  0
LINE
  8
1
 62
7
 10
-419.9841066051311
 20
20.81073220672458
 30
0
 11
-419.9841066051311
 21
17.31073220672458
 31
0
  0
LINE
  8
1
 62
7
 10
-433.9841066051311
 20
20.81073220672458
 30
0
 11
-433.9841066051311
 21
17.31073220672458
 31
0
  0
LINE
  8
1
 62
7
 10
-312.4698354696751
 20
78.5179332844335
 30
0
 11
-312.4698354696749
 21
71.81073220672458
 31
0
  0
LINE
  8
1
 62
7
 10
-309.4698354696751
 20
78.5179332844335
 30
0
 11
-309.4698354696751
 21
71.81073220672458
 31
0
  0
LINE
  8
1
 62
7
 10
-309.4698354696751
 20
85.63890599204069
 30
0
 11
-309.4698354696751
 21
80.9686683681384
 31
0
  0
LINE
  8
1
 62
7
 10
-312.4698354696751
 20
85.63890599204069
 30
0
 11
-312.4698354696751
 21
80.9686683681384
 31
0
  0
LINE
  8
1
 62
7
 10
-312.4698354696751
 20
85.63890599204069
 30
0
 11
-309.4698354696751
 21
85.63890599204069
 31
0
  0
LINE
  8
1
 62
7
 10
-310.569835469675
 20
85.63890599204069
 30
0
 11
-310.569835469675
 21
90.63890599204069
 31
0
  0
LINE
  8
1
 62
7
 10
-310.7698354696751
 20
85.63890599204069
 30
0
 11
-310.7698354696751
 21
90.63890599204069
 31
0
  0
LINE
  8
1
 62
7
 10
-311.1698354696749
 20
85.63890599204069
 30
0
 11
-311.1698354696749
 21
90.63890599204069
 31
0
  0
LINE
  8
1
 62
7
 10
-311.369835469675
 20
85.63890599204069
 30
0
 11
-311.369835469675
 21
90.63890599204069
 31
0
  0
LINE
  8
1
 62
7
 10
-323.9698354696751
 20
-85.18926779327542
 30
0
 11
-323.9698354696751
 21
-6.68926779327542
 31
0
  0
LINE
  8
1
 62
7
 10
-324.9698354696751
 20
-84.18926779327542
 30
0
 11
-323.9698354696751
 21
-85.18926779327542
 31
0
  0
LINE
  8
1
 62
7
 10
-266.0698354696751
 20
-40.6282977516438
 30
0
 11
-283.4698354696751
 21
-40.6282977516438
 31
0
  0
LINE
  8
1
 62
7
 10
-283.4698354696751
 20
-40.6282977516438
 30
0
 11
-283.4698354696751
 21
-6.68926779327542
 31
0
  0
LINE
  8
1
 62
7
 10
-283.4698354696751
 20
-85.18926779327542
 30
0
 11
-283.4698354696751
 21
-51.02060259705704
 31
0
  0
LINE
  8
1
 62
3
 10
-267.669835469675
 20
-85.18926779327543
 30
0
 11
-281.4698354696751
 21
-51.02060259705704
 31
0
  0
LINE
  8
1
 62
3
 10
-267.669835469675
 20
-51.02060259705704
 30
0
 11
-281.4698354696751
 21
-85.18926779327542
 31
0
  0
LINE
  8
1
 62
7
 10
-266.0698354696751
 20
-79.44227460399083
 30
0
 11
-266.0698354696751
 21
-85.18926779327542
 31
0
  0
LINE
  8
1
 62
7
 10
-266.0698354696751
 20
-77.68926779327542
 30
0
 11
-267.669835469675
 21
-77.68926779327542
 31
0
  0
LINE
  8
1
 62
7
 10
-267.669835469675
 20
-79.44227460399083
 30
0
 11
-266.0698354696751
 21
-79.44227460399083
 31
0
  0
LINE
  8
1
 62
7
 10
-283.4698354696751
 20
-79.44227460399083
 30
0
 11
-281.4698354696751
 21
-79.44227460399083
 31
0
  0
LINE
  8
1
 62
7
 10
-267.669835469675
 20
-51.02060259705704
 30
0
 11
-267.669835469675
 21
-85.18926779327543
 31
0
  0
LINE
  8
1
 62
7
 10
-267.669835469675
 20
-40.6282977516438
 30
0
 11
-267.669835469675
 21
-6.68926779327542
 31
0
  0
LINE
  8
1
 62
7
 10
-281.4698354696751
 20
-51.02060259705704
 30
0
 11
-281.4698354696751
 21
-85.18926779327542
 31
0
  0
LINE
  8
1
 62
7
 10
-283.4698354696751
 20
-51.02060259705704
 30
0
 11
-266.0698354696751
 21
-51.02060259705704
 31
0
  0
LINE
  8
1
 62
7
 10
-267.669835469675
 20
-38.12046171179311
 30
0
 11
-266.069835469675
 21
-38.12046171179311
 31
0
  0
LINE
  8
1
 62
7
 10
-283.4698354696751
 20
-38.12046171179311
 30
0
 11
-281.4698354696751
 21
-38.12046171179311
 31
0
  0
LINE
  8
1
 62
7
 10
-256.9698354696751
 20
-6.68926779327542
 30
0
 11
-256.9698354696751
 21
-40.68926779327542
 31
0
  0
LINE
  8
1
 62
7
 10
-257.4698354696751
 20
-6.68926779327542
 30
0
 11
-257.4698354696751
 21
-61.40057493732623
 31
0
  0
LINE
  8
1
 62
7
 10
-259.4698354696751
 20
-6.68926779327542
 30
0
 11
-259.4698354696751
 21
-77.68926779327542
 31
0
  0
LINE
  8
1
 62
7
 10
-266.0698354696751
 20
-6.68926779327542
 30
0
 11
-266.0698354696751
 21
-77.68926779327542
 31
0
  0
LINE
  8
1
 62
7
 10
-281.4698354696751
 20
-6.68926779327542
 30
0
 11
-281.4698354696751
 21
-40.62829775164379
 31
0
  0
LINE
  8
1
 62
7
 10
-259.4698354696751
 20
-77.68926779327542
 30
0
 11
-257.4698354696751
 21
-61.40057493732623
 31
0
  0
LINE
  8
1
 62
7
 10
-259.4698354696751
 20
-77.68926779327542
 30
0
 11
-266.0698354696751
 21
-77.68926779327542
 31
0
  0
LINE
  8
1
 62
7
 10
-266.0698354696751
 20
-85.18926779327542
 30
0
 11
-323.9698354696751
 21
-85.18926779327542
 31
0
  0
LINE
  8
1
 62
7
 10
-281.4698354696751
 20
-78.18926779327542
 30
0
 11
-283.4698354696751
 21
-78.18926779327542
 31
0
  0
LINE
  8
1
 62
3
  6
DASHDOT
 10
-329.204962484249
 20
-6.68926779327542
 30
0
 11
-324.9698354696751
 21
-6.68926779327542
 31
0
  0
LINE
  8
1
 62
7
 10
-324.9698354696751
 20
-6.68926779327542
 30
0
 11
-324.9698354696751
 21
-84.18926779327542
 31
0
  0
LINE
  8
1
 62
7
 10
-218.9698354696751
 20
-6.68926779327542
 30
0
 11
-218.9698354696751
 21
-52.68926779327542
 31
0
  0
LINE
  8
1
 62
7
 10
-223.9698354696751
 20
-85.18926779327542
 30
0
 11
-224.9698354696751
 21
-84.18926779327542
 31
0
  0
LINE
  8
1
 62
7
 10
-166.069835469675
 20
-79.68926779327542
 30
0
 11
-166.069835469675
 21
-85.18926779327542
 31
0
  0
LINE
  8
1
 62
7
 10
-166.069835469675
 20
-77.68926779327542
 30
0
 11
-167.669835469675
 21
-77.68926779327542
 31
0
  0
LINE
  8
1
 62
7
 10
-167.669835469675
 20
-77.68926779327542
 30
0
 11
-167.669835469675
 21
-85.18926779327542
 31
0
  0
LINE
  8
1
 62
7
 10
-166.069835469675
 20
-41.68926779327542
 30
0
 11
-166.069835469675
 21
-77.68926779327542
 31
0
  0
LINE
  8
1
 62
7
 10
-166.069835469675
 20
-79.68926779327542
 30
0
 11
-182.4698354696751
 21
-79.68926779327542
 31
0
  0
LINE
  8
1
 62
7
 10
-182.4698354696751
 20
-85.18926779327542
 30
0
 11
-182.4698354696751
 21
-78.18926779327542
 31
0
  0
LINE
  8
1
 62
7
 10
-192.9698354696751
 20
-60.68926779327542
 30
0
 11
-191.9698354696751
 21
-59.68926779327542
 31
0
  0
LINE
  8
1
 62
7
 10
-224.9698354696751
 20
-52.68926779327542
 30
0
 11
-191.9698354696751
 21
-52.68926779327542
 31
0
  0
LINE
  8
1
 62
7
 10
-191.9698354696751
 20
-52.68926779327542
 30
0
 11
-191.9698354696751
 21
-59.68926779327542
 31
0
  0
LINE
  8
1
 62
7
 10
-192.9698354696751
 20
-60.68926779327542
 30
0
 11
-192.9698354696751
 21
-78.18926779327542
 31
0
  0
LINE
  8
1
 62
7
 10
-192.9698354696751
 20
-78.18926779327542
 30
0
 11
-182.4698354696751
 21
-78.18926779327542
 31
0
  0
LINE
  8
1
 62
7
 10
-224.9698354696751
 20
-6.68926779327542
 30
0
 11
-224.9698354696751
 21
-84.18926779327542
 31
0
  0
LINE
  8
1
 62
7
 10
-166.069835469675
 20
-85.18926779327542
 30
0
 11
-223.9698354696751
 21
-85.18926779327542
 31
0
  0
LINE
  8
1
 62
7
 10
-206.9698354696751
 20
-6.68926779327542
 30
0
 11
-206.9698354696751
 21
-39.18926779327542
 31
0
  0
LINE
  8
1
 62
7
 10
-206.9698354696751
 20
-39.18926779327542
 30
0
 11
-204.4698354696751
 21
-39.18926779327542
 31
0
  0
LINE
  8
1
 62
7
 10
-204.4698354696751
 20
-44.08926779327542
 30
0
 11
-204.4698354696751
 21
-37.68926779327542
 31
0
  0
LINE
  8
1
 62
7
 10
-204.4698354696751
 20
-37.68926779327542
 30
0
 11
-201.9698354696751
 21
-37.68926779327542
 31
0
  0
LINE
  8
1
 62
7
 10
-201.9698354696751
 20
-37.68926779327542
 30
0
 11
-201.9698354696751
 21
-44.08926779327542
 31
0
  0
LINE
  8
1
 62
7
 10
-201.9698354696751
 20
-44.08926779327542
 30
0
 11
-204.4698354696751
 21
-44.08926779327542
 31
0
  0
LINE
  8
1
 62
7
 10
-156.9698354696751
 20
-40.68926779327542
 30
0
 11
-156.9698354696751
 21
-6.68926779327542
 31
0
  0
LINE
  8
1
 62
7
 10
-159.4698354696751
 20
-40.18926779327542
 30
0
 11
-159.4698354696751
 21
-46.58926779327543
 31
0
  0
LINE
  8
1
 62
7
 10
-200.4698354696751
 20
-43.68926779327542
 30
0
 11
-201.9698354696751
 21
-43.68926779327542
 31
0
  0
LINE
  8
1
 62
7
 10
-200.4698354696751
 20
-51.88926779327542
 30
0
 11
-200.4698354696751
 21
-43.68926779327542
 31
0
  0
LINE
  8
1
 62
7
 10
-190.4698354696751
 20
-51.88926779327542
 30
0
 11
-200.4698354696751
 21
-51.88926779327542
 31
0
  0
LINE
  8
1
 62
7
 10
-190.4698354696751
 20
-69.93926779327542
 30
0
 11
-190.4698354696751
 21
-51.88926779327542
 31
0
  0
LINE
  8
1
 62
7
 10
-191.4698354696751
 20
-69.93926779327542
 30
0
 11
-190.4698354696751
 21
-69.93926779327542
 31
0
  0
LINE
  8
1
 62
7
 10
-191.4698354696751
 20
-77.38926779327542
 30
0
 11
-191.4698354696751
 21
-69.93926779327542
 31
0
  0
LINE
  8
1
 62
7
 10
-181.4698354696751
 20
-77.38926779327542
 30
0
 11
-191.4698354696751
 21
-77.38926779327542
 31
0
  0
LINE
  8
1
 62
7
 10
-157.9698354696751
 20
-41.68926779327542
 30
0
 11
-156.9698354696751
 21
-40.68926779327542
 31
0
  0
LINE
  8
1
 62
7
 10
-156.9698354696751
 20
-31.68926779327542
 30
0
 11
-206.9698354696751
 21
-31.68926779327542
 31
0
  0
LINE
  8
1
 62
7
 10
-206.9698354696751
 20
-34.18926779327542
 30
0
 11
-156.9698354696751
 21
-34.18926779327542
 31
0
  0
LINE
  8
1
 62
7
 10
-181.4698354696751
 20
-40.18926779327542
 30
0
 11
-201.9698354696751
 21
-40.18926779327542
 31
0
  0
LINE
  8
1
 62
7
 10
-157.9698354696751
 20
-41.68926779327542
 30
0
 11
-159.4698354696751
 21
-41.68926779327542
 31
0
  0
LINE
  8
1
 62
7
 10
-161.9698354696751
 20
-46.58926779327543
 30
0
 11
-159.4698354696751
 21
-46.58926779327543
 31
0
  0
LINE
  8
1
 62
7
 10
-161.9698354696751
 20
-50.68926779327542
 30
0
 11
-161.9698354696751
 21
-40.18926779327542
 31
0
  0
LINE
  8
1
 62
7
 10
-157.4698354696751
 20
-50.68926779327542
 30
0
 11
-161.9698354696751
 21
-50.68926779327542
 31
0
  0
LINE
  8
1
 62
7
 10
-159.4698354696751
 20
-77.68926779327542
 30
0
 11
-157.4698354696751
 21
-61.40057493732623
 31
0
  0
LINE
  8
1
 62
7
 10
-157.4698354696751
 20
-61.40057493732623
 30
0
 11
-157.4698354696751
 21
-50.68926779327542
 31
0
  0
LINE
  8
1
 62
7
 10
-159.4698354696751
 20
-77.68926779327542
 30
0
 11
-166.069835469675
 21
-77.68926779327542
 31
0
  0
LINE
  8
1
 62
7
 10
-166.069835469675
 20
-42.43926779327542
 30
0
 11
-161.9698354696751
 21
-42.43926779327542
 31
0
  0
LINE
  8
1
 62
7
 10
-166.069835469675
 20
-46.68926779327542
 30
0
 11
-161.9698354696751
 21
-46.68926779327542
 31
0
  0
LINE
  8
1
 62
7
 10
-157.4698354696751
 20
-50.68926779327542
 30
0
 11
-157.4698354696751
 21
-48.19915987960631
 31
0
  0
LINE
  8
1
 62
7
 10
-181.4698354696751
 20
-40.18926779327542
 30
0
 11
-181.4698354696751
 21
-85.18926779327542
 31
0
  0
LINE
  8
1
 62
3
 10
-167.669835469675
 20
-85.18926779327542
 30
0
 11
-181.4698354696751
 21
-41.68926779327542
 31
0
  0
LINE
  8
1
 62
3
 10
-181.4698354696751
 20
-85.18926779327542
 30
0
 11
-166.069835469675
 21
-41.68926779327542
 31
0
  0
LINE
  8
1
 62
7
 10
-161.9698354696751
 20
-46.18926779327542
 30
0
 11
-181.4698354696751
 21
-46.18926779327542
 31
0
  0
LINE
  8
1
 62
7
 10
-161.9698354696751
 20
-41.68926779327542
 30
0
 11
-181.4698354696751
 21
-41.68926779327542
 31
0
  0
LINE
  8
1
 62
7
 10
-159.4698354696751
 20
-40.18926779327542
 30
0
 11
-161.9698354696751
 21
-40.18926779327542
 31
0
  0
LINE
  8
1
 62
7
 10
-323.9698354696751
 20
-6.68926779327542
 30
0
 11
-323.9698354696751
 21
71.81073220672458
 31
0
  0
LINE
  8
1
 62
7
 10
-323.9698354696751
 20
71.81073220672458
 30
0
 11
-324.9698354696751
 21
70.81073220672458
 31
0
  0
LINE
  8
1
 62
7
 10
-283.4698354696751
 20
27.24976216509296
 30
0
 11
-266.0698354696751
 21
27.24976216509296
 31
0
  0
LINE
  8
1
 62
7
 10
-283.4698354696751
 20
-6.68926779327542
 30
0
 11
-283.4698354696751
 21
27.24976216509296
 31
0
  0
LINE
  8
1
 62
7
 10
-283.4698354696751
 20
37.6420670105062
 30
0
 11
-283.4698354696751
 21
71.81073220672458
 31
0
  0
LINE
  8
1
 62
3
 10
-281.4698354696751
 20
37.6420670105062
 30
0
 11
-267.669835469675
 21
71.8107322067246
 31
0
  0
LINE
  8
1
 62
3
 10
-281.4698354696751
 20
71.81073220672458
 30
0
 11
-267.669835469675
 21
37.6420670105062
 31
0
  0
LINE
  8
1
 62
7
 10
-266.0698354696751
 20
71.81073220672458
 30
0
 11
-266.0698354696751
 21
66.06373901743997
 31
0
  0
LINE
  8
1
 62
7
 10
-267.669835469675
 20
64.31073220672458
 30
0
 11
-266.0698354696751
 21
64.31073220672458
 31
0
  0
LINE
  8
1
 62
7
 10
-266.0698354696751
 20
66.06373901743997
 30
0
 11
-267.669835469675
 21
66.06373901743997
 31
0
  0
LINE
  8
1
 62
7
 10
-281.4698354696751
 20
66.06373901743997
 30
0
 11
-283.4698354696751
 21
66.06373901743997
 31
0
  0
LINE
  8
1
 62
7
 10
-267.669835469675
 20
71.8107322067246
 30
0
 11
-267.669835469675
 21
37.6420670105062
 31
0
  0
LINE
  8
1
 62
7
 10
-267.669835469675
 20
-6.68926779327542
 30
0
 11
-267.669835469675
 21
27.24976216509296
 31
0
  0
LINE
  8
1
 62
7
 10
-281.4698354696751
 20
71.81073220672458
 30
0
 11
-281.4698354696751
 21
37.6420670105062
 31
0
  0
LINE
  8
1
 62
7
 10
-266.0698354696751
 20
37.6420670105062
 30
0
 11
-283.4698354696751
 21
37.6420670105062
 31
0
  0
LINE
  8
1
 62
7
 10
-266.069835469675
 20
24.74192612524227
 30
0
 11
-267.669835469675
 21
24.74192612524227
 31
0
  0
LINE
  8
1
 62
7
 10
-281.4698354696751
 20
24.74192612524227
 30
0
 11
-283.4698354696751
 21
24.74192612524227
 31
0
  0
LINE
  8
1
 62
7
 10
-257.4698354696751
 20
48.02203935077539
 30
0
 11
-257.4698354696751
 21
-6.68926779327542
 31
0
  0
LINE
  8
1
 62
7
 10
-259.4698354696751
 20
64.31073220672458
 30
0
 11
-259.4698354696751
 21
-6.68926779327542
 31
0
  0
LINE
  8
1
 62
7
 10
-266.0698354696751
 20
64.31073220672458
 30
0
 11
-266.0698354696751
 21
-6.68926779327542
 31
0
  0
LINE
  8
1
 62
7
 10
-281.4698354696751
 20
27.24976216509295
 30
0
 11
-281.4698354696751
 21
-6.68926779327542
 31
0
  0
LINE
  8
1
 62
7
 10
-257.4698354696751
 20
48.02203935077539
 30
0
 11
-259.4698354696751
 21
64.31073220672458
 31
0
  0
LINE
  8
1
 62
7
 10
-266.0698354696751
 20
64.31073220672458
 30
0
 11
-259.4698354696751
 21
64.31073220672458
 31
0
  0
LINE
  8
1
 62
7
 10
-323.9698354696751
 20
71.81073220672458
 30
0
 11
-266.0698354696751
 21
71.81073220672458
 31
0
  0
LINE
  8
1
 62
7
 10
-283.4698354696751
 20
64.01073220672458
 30
0
 11
-281.4698354696751
 21
64.01073220672458
 31
0
  0
LINE
  8
1
 62
7
 10
-324.9698354696751
 20
70.81073220672458
 30
0
 11
-324.9698354696751
 21
-6.68926779327542
 31
0
  0
LINE
  8
1
 62
7
 10
-49
 20
71.58109696887449
 30
0
 11
-49
 21
65.81073220672458
 31
0
  0
LINE
  8
1
 62
7
 10
-61
 20
71.58109696887449
 30
0
 11
-61
 21
65.81073220672458
 31
0
  0
LINE
  8
1
 62
7
 10
-61
 20
65.81073220672458
 30
0
 11
-49
 21
65.81073220672458
 31
0
  0
LINE
  8
1
 62
7
 10
-119.7841242474962
 20
37.64206701050618
 30
0
 11
-114.7868417743718
 21
34.75688462943123
 31
0
  0
LINE
  8
1
 62
7
 10
-125.7841242474962
 20
27.24976216509291
 30
0
 11
-120.7868417743718
 21
24.36457978401796
 31
0
  0
LINE
  8
1
 62
7
 10
-120.7868417743718
 20
24.36457978401796
 30
0
 11
-114.7868417743718
 21
34.75688462943123
 31
0
  0
LINE
  8
1
 62
7
 10
-125.7841242474962
 20
-40.62829775164373
 30
0
 11
-120.7868417743718
 21
-37.74311537056877
 31
0
  0
LINE
  8
1
 62
7
 10
-119.7841242474962
 20
-51.02060259705701
 30
0
 11
-114.7868417743718
 21
-48.13542021598204
 31
0
  0
LINE
  8
1
 62
7
 10
-114.7868417743718
 20
-48.13542021598204
 30
0
 11
-120.7868417743718
 21
-37.74311537056877
 31
0
  0
LINE
  8
1
 62
7
 10
-61.00000000000002
 20
-84.95963255542533
 30
0
 11
-61.00000000000003
 21
-79.18926779327543
 31
0
  0
LINE
  8
1
 62
7
 10
-49.00000000000001
 20
-84.95963255542534
 30
0
 11
-49.00000000000003
 21
-79.18926779327543
 31
0
  0
LINE
  8
1
 62
7
 10
-49.00000000000003
 20
-79.18926779327543
 30
0
 11
-61.00000000000003
 21
-79.18926779327543
 31
0
  0
LINE
  8
1
 62
7
 10
9.784124247496152
 20
-51.02060259705704
 30
0
 11
4.786841774371801
 21
-48.13542021598209
 31
0
  0
LINE
  8
1
 62
7
 10
15.78412424749618
 20
-40.62829775164377
 30
0
 11
10.78684177437179
 21
-37.74311537056882
 31
0
  0
LINE
  8
1
 62
7
 10
10.78684177437179
 20
-37.74311537056882
 30
0
 11
4.786841774371801
 21
-48.13542021598209
 31
0
  0
LINE
  8
1
 62
7
 10
15.78412424749618
 20
27.24976216509286
 30
0
 11
10.78684177437185
 21
24.36457978401792
 31
0
  0
LINE
  8
1
 62
7
 10
9.784124247496209
 20
37.64206701050615
 30
0
 11
4.78684177437183
 21
34.75688462943118
 31
0
  0
LINE
  8
1
 62
7
 10
4.78684177437183
 20
34.75688462943118
 30
0
 11
10.78684177437185
 21
24.36457978401792
 31
0
  0
LINE
  8
1
 62
3
  6
DASHDOT
 10
5.621778264910709
 20
28.31073220672457
 30
0
 11
13.84901960086287
 21
33.06073220672457
 31
0
  0
LINE
  8
1
 62
3
  6
DASHDOT
 10
-123.8490196008629
 20
33.06073220672457
 30
0
 11
-115.6217782649107
 21
28.31073220672457
 31
0
  0
LINE
  8
1
 62
3
  6
DASHDOT
 10
13.84901960086287
 20
-46.43926779327541
 30
0
 11
5.621778264910709
 21
-41.68926779327541
 31
0
  0
LINE
  8
1
 62
3
  6
DASHDOT
 10
-115.6217782649107
 20
-41.68926779327541
 30
0
 11
-123.8490196008629
 21
-46.43926779327541
 31
0
  0
LINE
  8
1
 62
7
 10
-62
 20
20.81073220672458
 30
0
 11
-48
 21
20.81073220672458
 31
0
  0
LINE
  8
1
 62
7
 10
-48
 20
20.81073220672458
 30
0
 11
-48
 21
17.31073220672458
 31
0
  0
LINE
  8
1
 62
7
 10
-62
 20
20.81073220672458
 30
0
 11
-62
 21
17.31073220672458
 31
0
  0
LINE
  8
1
 62
7
 10
-55
 20
78.19201195005878
 30
0
 11
-55
 21
71.81073220672458
 31
0
  0
LINE
  8
1
 62
7
 10
-55
 20
90.37025549156634
 30
0
 11
-55
 21
81.91478504687171
 31
0
  0
LINE
  8
1
 62
7
 10
-58
 20
90.37025549156634
 30
0
 11
-55
 21
90.37025549156634
 31
0
  0
LINE
  8
1
 62
7
 10
-52
 20
90.37025549156634
 30
0
 11
-52
 21
81.91478504687171
 31
0
  0
LINE
  8
1
 62
7
 10
-52
 20
78.1920119500588
 30
0
 11
-52
 21
71.75338641985024
 31
0
  0
LINE
  8
1
 62
7
 10
-58
 20
71.75338641985024
 30
0
 11
-58
 21
78.1920119500588
 31
0
  0
LINE
  8
1
 62
7
 10
-58
 20
90.37025549156634
 30
0
 11
-58
 21
81.91478504687171
 31
0
  0
LINE
  8
1
 62
7
 10
-55
 20
90.37025549156634
 30
0
 11
-52
 21
90.37025549156634
 31
0
  0
LINE
  8
1
 62
7
 10
-53.10000000000002
 20
90.37025549156643
 30
0
 11
-53.10000000000002
 21
95.37025549156643
 31
0
  0
LINE
  8
1
 62
7
 10
-53.30000000000007
 20
90.37025549156643
 30
0
 11
-53.30000000000007
 21
95.37025549156643
 31
0
  0
LINE
  8
1
 62
7
 10
-53.5
 20
90.37025549156643
 30
0
 11
-53.5
 21
95.37025549156643
 31
0
  0
LINE
  8
1
 62
7
 10
-53.70000000000005
 20
90.37025549156643
 30
0
 11
-53.70000000000005
 21
95.37025549156643
 31
0
  0
LINE
  8
1
 62
7
 10
-53.90000000000009
 20
90.37025549156643
 30
0
 11
-53.90000000000009
 21
95.37025549156643
 31
0
  0
LINE
  8
1
 62
7
 10
-56.10000000000002
 20
90.37025549156643
 30
0
 11
-56.10000000000002
 21
95.37025549156643
 31
0
  0
LINE
  8
1
 62
7
 10
-56.30000000000007
 20
90.37025549156643
 30
0
 11
-56.30000000000007
 21
95.37025549156643
 31
0
  0
LINE
  8
1
 62
7
 10
-56.5
 20
90.37025549156643
 30
0
 11
-56.5
 21
95.37025549156643
 31
0
  0
LINE
  8
1
 62
7
 10
-56.70000000000005
 20
90.37025549156643
 30
0
 11
-56.70000000000005
 21
95.37025549156643
 31
0
  0
LINE
  8
1
 62
7
 10
-56.90000000000009
 20
90.37025549156643
 30
0
 11
-56.90000000000009
 21
95.37025549156643
 31
0
  0
LINE
  8
1
 62
7
 10
-257.4698354696751
 20
27.81073220672458
 30
0
 11
-256.9698354696751
 21
27.31073220672458
 31
0
  0
LINE
  8
1
 62
7
 10
-256.9698354696751
 20
27.31073220672458
 30
0
 11
-256.9698354696751
 21
-6.68926779327542
 31
0
  0
LINE
  8
1
 62
7
 10
-256.9698354696751
 20
-40.68926779327542
 30
0
 11
-257.4698354696751
 21
-41.18926779327542
 31
0
  0
LINE
  8
1
 62
3
 10
-281.4698354696751
 20
27.24976216509295
 30
0
 11
-267.669835469675
 21
-40.6282977516438
 31
0
  0
LINE
  8
1
 62
3
 10
-281.4698354696751
 20
-40.62829775164379
 30
0
 11
-267.669835469675
 21
27.24976216509296
 31
0
  0
LINE
  8
1
 62
7
 10
-224.9698354696751
 20
59.51073220672458
 30
0
 11
-210.5698354696751
 21
59.51073220672458
 31
0
  0
LINE
  8
1
 62
7
 10
-210.5698354696751
 20
59.51073220672458
 30
0
 11
-210.5698354696751
 21
53.11073220672458
 31
0
  0
LINE
  8
1
 62
7
 10
-210.5698354696751
 20
53.11073220672458
 30
0
 11
-224.9698354696751
 21
53.11073220672458
 31
0
  0
LINE
  8
1
 62
7
 10
-210.5698354696751
 20
59.51073220672458
 30
0
 11
-208.2604343929166
 21
56.31073220672458
 31
0
  0
LINE
  8
1
 62
7
 10
-208.2604343929166
 20
56.31073220672458
 30
0
 11
-210.5698354696751
 21
53.11073220672458
 31
0
  0
LINE
  8
1
 62
3
 10
-224.9698354696751
 20
60.31073220672458
 30
0
 11
-216.9698354696751
 21
60.31073220672458
 31
0
  0
LINE
  8
1
 62
3
 10
-216.9698354696751
 20
60.31073220672458
 30
0
 11
-216.9698354696751
 21
52.31073220672458
 31
0
  0
LINE
  8
1
 62
3
 10
-216.9698354696751
 20
52.31073220672458
 30
0
 11
-224.9698354696751
 21
52.31073220672458
 31
0
  0
LINE
  8
1
 62
3
 10
-216.9698354696751
 20
60.31073220672458
 30
0
 11
-215.58419482362
 21
59.51073220672458
 31
0
  0
LINE
  8
1
 62
3
 10
-216.9698354696751
 20
52.31073220672458
 30
0
 11
-215.58419482362
 21
53.11073220672458
 31
0
  0
LINE
  8
1
 62
3
  6
DASHDOT
 10
-226.9698354696751
 20
56.31073220672458
 30
0
 11
-206.2604343929166
 21
56.31073220672458
 31
0
  0
LINE
  8
1
 62
7
 10
-210.5698354696751
 20
-72.88926779327542
 30
0
 11
-224.9698354696751
 21
-72.88926779327542
 31
0
  0
LINE
  8
1
 62
7
 10
-210.5698354696751
 20
-66.48926779327542
 30
0
 11
-210.5698354696751
 21
-72.88926779327542
 31
0
  0
LINE
  8
1
 62
7
 10
-224.9698354696751
 20
-66.48926779327542
 30
0
 11
-210.5698354696751
 21
-66.48926779327542
 31
0
  0
LINE
  8
1
 62
7
 10
-208.2604343929166
 20
-69.68926779327542
 30
0
 11
-210.5698354696751
 21
-72.88926779327542
 31
0
  0
LINE
  8
1
 62
7
 10
-210.5698354696751
 20
-66.48926779327542
 30
0
 11
-208.2604343929166
 21
-69.68926779327542
 31
0
  0
LINE
  8
1
 62
3
 10
-216.9698354696751
 20
-73.68926779327542
 30
0
 11
-224.9698354696751
 21
-73.68926779327542
 31
0
  0
LINE
  8
1
 62
3
 10
-216.9698354696751
 20
-65.68926779327542
 30
0
 11
-216.9698354696751
 21
-73.68926779327542
 31
0
  0
LINE
  8
1
 62
3
 10
-224.9698354696751
 20
-65.68926779327542
 30
0
 11
-216.9698354696751
 21
-65.68926779327542
 31
0
  0
LINE
  8
1
 62
3
 10
-215.58419482362
 20
-72.88926779327542
 30
0
 11
-216.9698354696751
 21
-73.68926779327542
 31
0
  0
LINE
  8
1
 62
3
 10
-215.58419482362
 20
-66.48926779327542
 30
0
 11
-216.9698354696751
 21
-65.68926779327542
 31
0
  0
LINE
  8
1
 62
3
  6
DASHDOT
 10
-206.2604343929166
 20
-69.68926779327542
 30
0
 11
-226.9698354696751
 21
-69.68926779327542
 31
0
  0
LINE
  8
1
 62
3
  6
DASHDOT
 10
-405.9841066051311
 20
-6.68926779327542
 30
0
 11
-447.9841066051311
 21
-6.68926779327542
 31
0
  0
LINE
  8
1
 62
3
  6
DASHDOT
 10
-426.9841066051312
 20
14.31073220672458
 30
0
 11
-426.9841066051312
 21
-27.68926779327542
 31
0
  0
LINE
  8
1
 62
3
  6
DASHDOT
 10
-55
 20
14.31073220672458
 30
0
 11
-55
 21
-27.68926779327542
 31
0
  0
LINE
  8
1
 62
3
  6
DASHDOT
 10
-76
 20
-6.68926779327542
 30
0
 11
-34
 21
-6.68926779327542
 31
0
  0
LINE
  8
1
 62
3
  6
DASHDOT
 10
-224.9698354696751
 20
-6.68926779327542
 30
0
 11
-234.190063918215
 21
-6.68926779327542
 31
0
  0
LINE
  8
1
 62
3
  6
DASHDOT
 10
-256.9698354696751
 20
-6.68926779327542
 30
0
 11
-253.204962484249
 21
-6.68926779327542
 31
0
  0
ARC
  8
1
 62
7
 10
-428.4841066051311
 20
77.5670119500588
 30
0
 40
1.624999999999995
 50
22.61986494803997
 51
157.3801350519596
  0
ARC
  8
1
 62
7
 10
-425.4841066051311
 20
77.5670119500588
 30
0
 40
1.625
 50
22.61986494804043
 51
157.3801350519601
  0
ARC
  8
1
 62
7
 10
-425.4841066051311
 20
78.8170119500588
 30
0
 40
1.625000000000006
 50
202.6198649480409
 51
337.3801350519596
  0
ARC
  8
1
 62
7
 10
-428.4841066051311
 20
82.53978504687171
 30
0
 40
1.625
 50
202.6198649480404
 51
337.3801350519596
  0
ARC
  8
1
 62
7
 10
-425.4841066051311
 20
82.53978504687171
 30
0
 40
1.625
 50
202.6198649480404
 51
337.3801350519596
  0
ARC
  8
1
 62
7
 10
-428.4841066051311
 20
81.28978504687171
 30
0
 40
1.625
 50
22.61986494804043
 51
157.3801350519596
  0
ARC
  8
1
 62
7
 10
-211.7198354696751
 20
78.2054332844335
 30
0
 40
0.8125
 50
22.61986494804043
 51
157.3801350519596
  0
ARC
  8
1
 62
7
 10
-210.2198354696751
 20
78.2054332844335
 30
0
 40
0.8125
 50
22.61986494804043
 51
157.3801350519596
  0
ARC
  8
1
 62
7
 10
-210.2198354696751
 20
78.8304332844335
 30
0
 40
0.8125
 50
202.6198649480404
 51
337.3801350519596
  0
ARC
  8
1
 62
7
 10
-211.7198354696751
 20
81.2811683681384
 30
0
 40
0.8125
 50
202.6198649480404
 51
337.3801350519596
  0
ARC
  8
1
 62
7
 10
-211.7198354696751
 20
80.6561683681384
 30
0
 40
0.8125
 50
22.61986494804043
 51
157.3801350519596
  0
ARC
  8
1
 62
7
 10
-210.2198354696751
 20
81.2811683681384
 30
0
 40
0.8125
 50
202.6198649480404
 51
337.3801350519596
  0
ARC
  8
1
 62
7
 10
-426.9841066051311
 20
-6.68926779327542
 30
0
 40
25
 50
106.260204708312
 51
73.73979529168804
  0
ARC
  8
1
 62
7
 10
-311.7198354696751
 20
78.2054332844335
 30
0
 40
0.8125
 50
22.61986494804043
 51
157.3801350519596
  0
ARC
  8
1
 62
7
 10
-310.2198354696751
 20
78.2054332844335
 30
0
 40
0.8125
 50
22.61986494804043
 51
157.3801350519596
  0
ARC
  8
1
 62
7
 10
-310.2198354696751
 20
78.8304332844335
 30
0
 40
0.8125
 50
202.6198649480404
 51
337.3801350519596
  0
ARC
  8
1
 62
7
 10
-311.7198354696751
 20
81.2811683681384
 30
0
 40
0.8125
 50
202.6198649480404
 51
337.3801350519596
  0
ARC
  8
1
 62
7
 10
-311.7198354696751
 20
80.6561683681384
 30
0
 40
0.8125
 50
22.61986494804043
 51
157.3801350519596
  0
ARC
  8
1
 62
7
 10
-310.2198354696751
 20
81.2811683681384
 30
0
 40
0.8125
 50
202.6198649480404
 51
337.3801350519596
  0
ARC
  8
1
 62
7
 10
-55
 20
-6.68926779327542
 30
0
 40
73
 50
85.28543945911758
 51
94.71456054088242
  0
ARC
  8
1
 62
7
 10
-55
 20
-6.68926779327542
 30
0
 40
73
 50
145.2854394591176
 51
154.7145605408824
  0
ARC
  8
1
 62
7
 10
-55
 20
-6.68926779327542
 30
0
 40
72.99999999999997
 50
205.2854394591176
 51
214.7145605408824
  0
ARC
  8
1
 62
7
 10
-55
 20
-6.68926779327542
 30
0
 40
73.00000000000003
 50
265.2854394591175
 51
274.7145605408824
  0
ARC
  8
1
 62
7
 10
-55
 20
-6.68926779327542
 30
0
 40
73.00000000000001
 50
325.2854394591176
 51
334.7145605408824
  0
ARC
  8
1
 62
7
 10
-55
 20
-6.68926779327542
 30
0
 40
73.00000000000001
 50
25.28543945911755
 51
34.71456054088239
  0
ARC
  8
1
 62
7
 10
-55
 20
-6.68926779327542
 30
0
 40
25
 50
106.260204708312
 51
73.73979529168804
  0
ARC
  8
1
 62
7
 10
-56.5
 20
77.5670119500588
 30
0
 40
1.624999999999995
 50
22.61986494803997
 51
157.3801350519596
  0
ARC
  8
1
 62
7
 10
-53.5
 20
77.5670119500588
 30
0
 40
1.625
 50
22.61986494804043
 51
157.3801350519601
  0
ARC
  8
1
 62
7
 10
-53.5
 20
78.8170119500588
 30
0
 40
1.625000000000006
 50
202.6198649480409
 51
337.3801350519596
  0
ARC
  8
1
 62
7
 10
-56.5
 20
82.53978504687171
 30
0
 40
1.625
 50
202.6198649480404
 51
337.3801350519596
  0
ARC
  8
1
 62
7
 10
-53.5
 20
82.53978504687171
 30
0
 40
1.625
 50
202.6198649480404
 51
337.3801350519596
  0
ARC
  8
1
 62
7
 10
-56.5
 20
81.28978504687171
 30
0
 40
1.625
 50
22.61986494804043
 51
157.3801350519596
  0
CIRCLE
  8
1
 62
7
 10
-55
 20
-6.68926779327542
 30
0
 40
34
  0
CIRCLE
  8
1
 62
7
 10
-372.4245061667115
 20
24.81073220672454
 30
0
 40
3.249999999999996
  0
CIRCLE
  8
1
 62
3
 10
-372.4245061667115
 20
24.81073220672454
 30
0
 40
3.999999999999996
  0
CIRCLE
  8
1
 62
7
 10
-372.4245061667115
 20
-38.18926779327546
 30
0
 40
3.249999999999996
  0
CIRCLE
  8
1
 62
3
 10
-372.4245061667115
 20
-38.18926779327546
 30
0
 40
3.999999999999996
  0
CIRCLE
  8
1
 62
7
 10
-426.9841066051312
 20
-69.68926779327543
 30
0
 40
3.25
  0
CIRCLE
  8
1
 62
3
 10
-426.9841066051312
 20
-69.68926779327543
 30
0
 40
4
  0
CIRCLE
  8
1
 62
7
 10
-481.5437070435507
 20
-38.18926779327541
 30
0
 40
3.250000000000008
  0
CIRCLE
  8
1
 62
3
 10
-481.5437070435507
 20
-38.18926779327541
 30
0
 40
3.999999999999996
  0
CIRCLE
  8
1
 62
7
 10
-481.5437070435507
 20
24.81073220672459
 30
0
 40
3.250000000000002
  0
CIRCLE
  8
1
 62
3
 10
-481.5437070435507
 20
24.81073220672459
 30
0
 40
3.999999999999996
  0
CIRCLE
  8
1
 62
7
 10
-426.9841066051311
 20
56.31073220672458
 30
0
 40
3.25
  0
CIRCLE
  8
1
 62
3
 10
-426.9841066051311
 20
56.31073220672458
 30
0
 40
4
  0
CIRCLE
  8
1
 62
3
  6
DASHDOT
 10
-426.9841066051311
 20
-6.68926779327542
 30
0
 40
63
  0
CIRCLE
  8
1
 62
7
 10
-426.9841066051311
 20
-6.68926779327542
 30
0
 40
78.5
  0
CIRCLE
  8
1
 62
7
 10
-426.9841066051311
 20
-6.68926779327542
 30
0
 40
46
  0
CIRCLE
  8
1
 62
7
 10
-426.9841066051311
 20
-6.68926779327542
 30
0
 40
32.5
  0
CIRCLE
  8
1
 62
7
 10
-55
 20
-6.68926779327542
 30
0
 40
71
  0
CIRCLE
  8
1
 62
7
 10
-55
 20
-6.68926779327542
 30
0
 40
54.71130714405081
  0
CIRCLE
  8
1
 62
7
 10
-55
 20
-6.68926779327542
 30
0
 40
35
  0
CIRCLE
  8
1
 62
7
 10
-55
 20
-6.68926779327542
 30
0
 40
44
  0
CIRCLE
  8
1
 62
7
 10
-55
 20
-6.68926779327542
 30
0
 40
78.5
  0
CIRCLE
  8
1
 62
7
 10
-426.9841066051311
 20
-6.68926779327542
 30
0
 40
77.5
  0
TEXT
  8
1
 62
7
 10
-517.940612178973
 20
85.70246239150561
 30
0
 40
8
  1
DC4225
 41
0.9
  7
SIMPLEX
 72
1
 11
-496.340612178973
 21
85.70246239150561
 31
0
  0
TEXT
  8
1
 62
7
 10
-518.020351079073
 20
99.47810327196949
 30
0
 40
8
  1
MDB 20
 41
0.9
  7
SIMPLEX
 72
1
 11
-496.420351079073
 21
99.47810327196949
 31
0
  0
ENDSEC
  0
EOF
