  0
SECTION
  2
HEADER
  9
$ACADVER
  1
AC1009
  9
$INSBASE
 10
0.0
 20
0.0
 30
0.0
  9
$EXTMIN
 10
-581.92455995678358
 20
-60.601435332198797
 30
0.0
  9
$EXTMAX
 10
-245.5
 20
74.707710275628457
 30
0.0
  9
$LIMMIN
 10
-581.92455995678358
 20
-58.32126489459209
  9
$LIMMAX
 10
-245.5
 20
74.707710275628401
  9
$ORTHOMODE
 70
     0
  9
$REGENMODE
 70
     1
  9
$FILLMODE
 70
     1
  9
$QTEXTMODE
 70
     0
  9
$MIRRTEXT
 70
     1
  9
$DRAGMODE
 70
     2
  9
$LTSCALE
 40
1.0
  9
$OSMODE
 70
    37
  9
$ATTMODE
 70
     1
  9
$TEXTSIZE
 40
3.5
  9
$TRACEWID
 40
0.5
  9
$TEXTSTYLE
  7
STANDARD
  9
$CLAYER
  8
0
  9
$CELTYPE
  6
BYLAYER
  9
$CECOLOR
 62
   256
  9
$DIMSCALE
 40
1.0
  9
$DIMASZ
 40
0.18
  9
$DIMEXO
 40
0.0625
  9
$DIMDLI
 40
0.38
  9
$DIMRND
 40
0.0
  9
$DIMDLE
 40
0.0
  9
$DIMEXE
 40
0.18
  9
$DIMTP
 40
0.0
  9
$DIMTM
 40
0.0
  9
$DIMTXT
 40
0.18
  9
$DIMCEN
 40
0.09
  9
$DIMTSZ
 40
0.0
  9
$DIMTOL
 70
     0
  9
$DIMLIM
 70
     0
  9
$DIMTIH
 70
     1
  9
$DIMTOH
 70
     1
  9
$DIMSE1
 70
     0
  9
$DIMSE2
 70
     0
  9
$DIMTAD
 70
     0
  9
$DIMZIN
 70
     0
  9
$DIMBLK
  1

  9
$DIMASO
 70
     1
  9
$DIMSHO
 70
     1
  9
$DIMPOST
  1

  9
$DIMAPOST
  1

  9
$DIMALT
 70
     0
  9
$DIMALTD
 70
     2
  9
$DIMALTF
 40
25.399999999999999
  9
$DIMLFAC
 40
1.0
  9
$DIMTOFL
 70
     0
  9
$DIMTVP
 40
0.0
  9
$DIMTIX
 70
     0
  9
$DIMSOXD
 70
     0
  9
$DIMSAH
 70
     0
  9
$DIMBLK1
  1

  9
$DIMBLK2
  1

  9
$DIMSTYLE
  2
STANDARD
  9
$DIMCLRD
 70
     0
  9
$DIMCLRE
 70
     0
  9
$DIMCLRT
 70
     0
  9
$DIMTFAC
 40
1.0
  9
$DIMGAP
 40
0.09
  9
$LUNITS
 70
     2
  9
$LUPREC
 70
     4
  9
$SKETCHINC
 40
0.1
  9
$FILLETRAD
 40
2.0
  9
$AUNITS
 70
     0
  9
$AUPREC
 70
     0
  9
$MENU
  1
ACAD
  9
$ELEVATION
 40
0.0
  9
$PELEVATION
 40
0.0
  9
$THICKNESS
 40
0.0
  9
$LIMCHECK
 70
     0
  9
$BLIPMODE
 70
     0
  9
$CHAMFERA
 40
0.0
  9
$CHAMFERB
 40
0.0
  9
$SKPOLY
 70
     0
  9
$TDCREATE
 40
2452095.0262326389
  9
$TDUPDATE
 40
2452095.0267366902
  9
$TDINDWG
 40
0.0005199074
  9
$TDUSRTIMER
 40
0.0005199074
  9
$USRTIMER
 70
     1
  9
$ANGBASE
 50
0.0
  9
$ANGDIR
 70
     0
  9
$PDMODE
 70
     0
  9
$PDSIZE
 40
0.0
  9
$PLINEWID
 40
0.0
  9
$COORDS
 70
     1
  9
$SPLFRAME
 70
     0
  9
$SPLINETYPE
 70
     6
  9
$SPLINESEGS
 70
     8
  9
$ATTDIA
 70
     0
  9
$ATTREQ
 70
     1
  9
$HANDLING
 70
 10241
  9
$HANDSEED
  5
189
  9
$SURFTAB1
 70
     6
  9
$SURFTAB2
 70
     6
  9
$SURFTYPE
 70
     6
  9
$SURFU
 70
     6
  9
$SURFV
 70
     6
  9
$UCSNAME
  2

  9
$UCSORG
 10
0.0
 20
0.0
 30
0.0
  9
$UCSXDIR
 10
1.0
 20
0.0
 30
0.0
  9
$UCSYDIR
 10
0.0
 20
1.0
 30
0.0
  9
$PUCSNAME
  2

  9
$PUCSORG
 10
0.0
 20
0.0
 30
0.0
  9
$PUCSXDIR
 10
1.0
 20
0.0
 30
0.0
  9
$PUCSYDIR
 10
0.0
 20
1.0
 30
0.0
  9
$USERI1
 70
     0
  9
$USERI2
 70
     0
  9
$USERI3
 70
     0
  9
$USERI4
 70
     0
  9
$USERI5
 70
     0
  9
$USERR1
 40
0.0
  9
$USERR2
 40
0.0
  9
$USERR3
 40
0.0
  9
$USERR4
 40
0.0
  9
$USERR5
 40
0.0
  9
$WORLDVIEW
 70
     1
  9
$SHADEDGE
 70
     3
  9
$SHADEDIF
 70
    70
  9
$TILEMODE
 70
     1
  9
$MAXACTVP
 70
    64
  9
$PLIMCHECK
 70
     0
  9
$PEXTMIN
 10
1.0000000000000000E+020
 20
1.0000000000000000E+020
 30
1.0000000000000000E+020
  9
$PEXTMAX
 10
-1.0000000000000000E+020
 20
-1.0000000000000000E+020
 30
-1.0000000000000000E+020
  9
$PLIMMIN
 10
0.0
 20
0.0
  9
$PLIMMAX
 10
12.0
 20
9.0
  9
$UNITMODE
 70
     0
  9
$VISRETAIN
 70
     1
  9
$PLINEGEN
 70
     0
  9
$PSLTSCALE
 70
     1
  0
ENDSEC
  0
SECTION
  2
TABLES
  0
TABLE
  2
VPORT
 70
     2
  0
VPORT
  2
*ACTIVE
 70
     0
 10
0.0
 20
0.0
 11
1.0
 21
1.0
 12
-556.52795300258197
 22
70.449862171728626
 13
0.0
 23
0.0
 14
1.0
 24
1.0
 15
0.0
 25
0.0
 16
0.0
 26
0.0
 36
1.0
 17
0.0
 27
0.0
 37
0.0
 40
9.0000000070780288
 41
2.4144144144144142
 42
50.0
 43
0.0
 44
0.0
 50
0.0
 51
0.0
 71
     0
 72
   100
 73
     1
 74
     1
 75
     0
 76
     0
 77
     0
 78
     0
  0
ENDTAB
  0
TABLE
  2
LTYPE
 70
     9
  0
LTYPE
  2
CONTINUOUS
 70
     0
  3
Solid line
 72
    65
 73
     0
 40
0.0
  0
LTYPE
  2
BORDER
 70
     0
  3
__ __ . __ __ .
 72
    65
 73
     6
 40
15.493236313799249
 49
4.4266389467997849
 49
-2.213319473399892
 49
4.4266389467997849
 49
-2.213319473399892
 49
0.0
 49
-2.213319473399892
  0
LTYPE
  2
CENTER
 70
     0
  3
____ _ ____ _
 72
    65
 73
     4
 40
17.706555787199139
 49
11.06659736699946
 49
-2.213319473399892
 49
2.213319473399892
 49
-2.213319473399892
  0
LTYPE
  2
DASHDOT
 70
     0
  3
__ . __ . __ .
 72
    65
 73
     4
 40
8.8532778935995715
 49
4.4266389467997849
 49
-2.213319473399892
 49
0.0
 49
-2.213319473399892
  0
LTYPE
  2
DASHED
 70
     0
  3
__ __ __ __ __
 72
    65
 73
     2
 40
6.6399584201996786
 49
4.4266389467997849
 49
-2.213319473399892
  0
LTYPE
  2
DIVIDE
 70
     0
  3
__ . . __ . . 
 72
    65
 73
     6
 40
11.06659736699946
 49
4.4266389467997849
 49
-2.213319473399892
 49
0.0
 49
-2.213319473399892
 49
0.0
 49
-2.213319473399892
  0
LTYPE
  2
DOT
 70
     0
  3
..............
 72
    65
 73
     4
 40
4.4266389467997849
 49
0.0
 49
-2.213319473399892
 49
0.0
 49
-2.213319473399892
  0
LTYPE
  2
HIDDEN
 70
     0
  3
_ _ _ _ _ _ _
 72
    65
 73
     2
 40
3.319979210099838
 49
2.213319473399892
 49
-1.1066597366999451
  0
LTYPE
  2
PHANTOM
 70
     0
  3
_____ _ _ _____ _ _ 
 72
    65
 73
     6
 40
22.13319473399892
 49
11.06659736699946
 49
-2.213319473399892
 49
2.213319473399892
 49
-2.213319473399892
 49
2.213319473399892
 49
-2.213319473399892
  0
ENDTAB
  0
TABLE
  2
LAYER
 70
     2
  0
LAYER
  2
0
 70
     0
 62
     7
  6
CONTINUOUS
  0
LAYER
  2
1
 70
     0
 62
     7
  6
CONTINUOUS
  0
ENDTAB
  0
TABLE
  2
STYLE
 70
     4
  0
STYLE
  2
STANDARD
 70
     0
 40
0.0
 41
1.0
 50
0.0
 71
     0
 42
3.5
  3
txt
  4

  0
STYLE
  2
SIMPLEX
 70
     0
 40
0.0
 41
1.0
 50
0.0
 71
     0
 42
3.5
  3
simplex
  4

  0
STYLE
  2
COMPLEX
 70
     0
 40
0.0
 41
1.0
 50
0.0
 71
     0
 42
3.5
  3
complex
  4

  0
STYLE
  2
ITALIC
 70
     0
 40
0.0
 41
1.0
 50
0.0
 71
     0
 42
3.5
  3
italic
  4

  0
ENDTAB
  0
TABLE
  2
VIEW
 70
     0
  0
ENDTAB
  0
TABLE
  2
UCS
 70
     0
  0
ENDTAB
  0
TABLE
  2
APPID
 70
     1
  0
APPID
  2
ACAD
 70
     0
  0
ENDTAB
  0
TABLE
  2
DIMSTYLE
 70
     1
  0
DIMSTYLE
  2
STANDARD
 70
     0
  3

  4

  5

  6

  7

 40
1.0
 41
0.18
 42
0.0625
 43
0.38
 44
0.18
 45
0.0
 46
0.0
 47
0.0
 48
0.0
140
0.18
141
0.09
142
0.0
143
25.399999999999999
144
1.0
145
0.0
146
1.0
147
0.09
 71
     0
 72
     0
 73
     1
 74
     1
 75
     0
 76
     0
 77
     0
 78
     0
170
     0
171
     2
172
     0
173
     0
174
     0
175
     0
176
     0
177
     0
178
     0
  0
ENDTAB
  0
ENDSEC
  0
SECTION
  2
BLOCKS
  0
BLOCK
  8
0
  2
$MODEL_SPACE
 70
     0
 10
0.0
 20
0.0
 30
0.0
  3
$MODEL_SPACE
  1

  0
ENDBLK
  5
20
  8
0
  0
BLOCK
 67
     1
  8
0
  2
$PAPER_SPACE
 70
     0
 10
0.0
 20
0.0
 30
0.0
  3
$PAPER_SPACE
  1

  0
ENDBLK
  5
1C
 67
     1
  8
0
  0
ENDSEC
  0
SECTION
  2
ENTITIES
  0
LINE
  5
33
  8
1
  6
DASHDOT
 62
     3
 10
-522.42455995678358
 20
-9.8212648945920904
 30
0.0
 11
-544.42455995678358
 21
-9.8212648945920904
 31
0.0
  0
LINE
  5
34
  8
1
  6
DASHDOT
 62
     3
 10
-533.4245599567837
 20
1.1787351054079089
 30
0.0
 11
-533.4245599567837
 21
-20.82126489459209
 31
0.0
  0
LINE
  5
35
  8
1
  6
DASHDOT
 62
     3
 10
-418.5
 20
-9.8212648945920904
 30
0.0
 11
-414.9514894592121
 21
-9.8212648945920904
 31
0.0
  0
LINE
  5
36
  8
1
  6
DASHDOT
 62
     3
 10
-357.49999999999977
 20
-9.8212648945920904
 30
0.0
 11
-353.95148945921198
 21
-9.8212648945920904
 31
0.0
  0
LINE
  5
37
  8
1
  6
DASHDOT
 62
     3
 10
-305.0
 20
-9.8212648945920904
 30
0.0
 11
-283.0
 21
-9.8212648945920904
 31
0.0
  0
LINE
  5
38
  8
1
  6
DASHDOT
 62
     3
 10
-294.0
 20
1.1787351054079089
 30
0.0
 11
-294.0
 21
-20.82126489459209
 31
0.0
  0
LINE
  5
39
  8
1
 62
     7
 10
-433.99999999999977
 20
18.629651912394689
 30
0.0
 11
-433.99999999999977
 21
38.678735105407902
 31
0.0
  0
LINE
  5
3A
  8
1
  6
DASHDOT
 62
     3
 10
-390.96794919243098
 20
-46.821264894592098
 30
0.0
 11
-407.49999999999977
 21
-46.821264894592098
 31
0.0
  0
LINE
  5
3B
  8
1
 62
     3
 10
-398.46076951545848
 20
-44.421264894592092
 30
0.0
 11
-399.49999999999977
 21
-43.82126489459209
 31
0.0
  0
LINE
  5
3C
  8
1
 62
     3
 10
-398.46076951545848
 20
-49.221264894592089
 30
0.0
 11
-399.49999999999977
 21
-49.821264894592098
 31
0.0
  0
LINE
  5
3D
  8
1
 62
     3
 10
-405.49999999999972
 20
-43.82126489459209
 30
0.0
 11
-399.49999999999977
 21
-43.82126489459209
 31
0.0
  0
LINE
  5
3E
  8
1
 62
     3
 10
-399.49999999999977
 20
-43.82126489459209
 30
0.0
 11
-399.49999999999977
 21
-49.821264894592098
 31
0.0
  0
LINE
  5
3F
  8
1
 62
     3
 10
-399.49999999999977
 20
-49.821264894592098
 30
0.0
 11
-405.49999999999972
 21
-49.821264894592098
 31
0.0
  0
LINE
  5
40
  8
1
 62
     7
 10
-394.69999999999982
 20
-44.421264894592092
 30
0.0
 11
-392.96794919243098
 21
-46.821264894592098
 31
0.0
  0
LINE
  5
41
  8
1
 62
     7
 10
-392.96794919243098
 20
-46.821264894592098
 30
0.0
 11
-394.69999999999982
 21
-49.221264894592089
 31
0.0
  0
LINE
  5
42
  8
1
 62
     7
 10
-405.49999999999972
 20
-44.421264894592092
 30
0.0
 11
-394.69999999999982
 21
-44.421264894592092
 31
0.0
  0
LINE
  5
43
  8
1
 62
     7
 10
-394.69999999999982
 20
-44.421264894592092
 30
0.0
 11
-394.69999999999982
 21
-49.221264894592089
 31
0.0
  0
LINE
  5
44
  8
1
 62
     7
 10
-394.69999999999982
 20
-49.221264894592089
 30
0.0
 11
-405.49999999999972
 21
-49.221264894592089
 31
0.0
  0
LINE
  5
45
  8
1
  6
DASHDOT
 62
     3
 10
-407.49999999999977
 20
27.178735105407899
 30
0.0
 11
-390.96794919243098
 21
27.178735105407899
 31
0.0
  0
LINE
  5
46
  8
1
 62
     3
 10
-399.49999999999977
 20
24.17873510540791
 30
0.0
 11
-398.46076951545848
 21
24.778735105407911
 31
0.0
  0
LINE
  5
47
  8
1
 62
     3
 10
-399.49999999999977
 20
30.17873510540791
 30
0.0
 11
-398.46076951545848
 21
29.578735105407912
 31
0.0
  0
LINE
  5
48
  8
1
 62
     3
 10
-399.49999999999977
 20
24.17873510540791
 30
0.0
 11
-405.49999999999972
 21
24.17873510540791
 31
0.0
  0
LINE
  5
49
  8
1
 62
     3
 10
-399.49999999999977
 20
30.17873510540791
 30
0.0
 11
-399.49999999999977
 21
24.17873510540791
 31
0.0
  0
LINE
  5
4A
  8
1
 62
     3
 10
-405.49999999999972
 20
30.17873510540791
 30
0.0
 11
-399.49999999999977
 21
30.17873510540791
 31
0.0
  0
LINE
  5
4B
  8
1
 62
     7
 10
-392.96794919243098
 20
27.178735105407899
 30
0.0
 11
-394.69999999999982
 21
24.778735105407911
 31
0.0
  0
LINE
  5
4C
  8
1
 62
     7
 10
-394.69999999999982
 20
29.578735105407912
 30
0.0
 11
-392.96794919243098
 21
27.178735105407899
 31
0.0
  0
LINE
  5
4D
  8
1
 62
     7
 10
-394.69999999999982
 20
24.778735105407911
 30
0.0
 11
-405.49999999999972
 21
24.778735105407911
 31
0.0
  0
LINE
  5
4E
  8
1
 62
     7
 10
-394.69999999999982
 20
29.578735105407912
 30
0.0
 11
-394.69999999999982
 21
24.778735105407911
 31
0.0
  0
LINE
  5
4F
  8
1
 62
     7
 10
-405.49999999999972
 20
29.578735105407912
 30
0.0
 11
-394.69999999999982
 21
29.578735105407912
 31
0.0
  0
LINE
  5
50
  8
1
 62
     7
 10
-357.49999999999977
 20
12.778735105407909
 30
0.0
 11
-357.49999999999977
 21
-9.8212648945920904
 31
0.0
  0
LINE
  5
51
  8
1
 62
     7
 10
-358.99999999999977
 20
12.778735105407909
 30
0.0
 11
-357.49999999999977
 21
12.778735105407909
 31
0.0
  0
LINE
  5
52
  8
1
 62
     7
 10
-358.99999999999977
 20
11.17873510540791
 30
0.0
 11
-358.99999999999977
 21
13.4787351054079
 31
0.0
  0
LINE
  5
53
  8
1
 62
     7
 10
-372.30000000000001
 20
8.1787351054079203
 30
0.0
 11
-383.49999999999977
 21
8.1787351054079203
 31
0.0
  0
LINE
  5
54
  8
1
 62
     7
 10
-378.80000000000013
 20
32.428735105407902
 30
0.0
 11
-372.29999999999961
 21
32.428735105407902
 31
0.0
  0
LINE
  5
55
  8
1
 62
     7
 10
-378.80000000000013
 20
28.428735105407899
 30
0.0
 11
-378.80000000000013
 21
32.428735105407902
 31
0.0
  0
LINE
  5
56
  8
1
 62
     7
 10
-377.30000000000013
 20
14.928735105407901
 30
0.0
 11
-377.30000000000013
 21
28.428735105407899
 31
0.0
  0
LINE
  5
57
  8
1
 62
     7
 10
-382.99999999999977
 20
14.928735105407901
 30
0.0
 11
-377.30000000000013
 21
14.928735105407901
 31
0.0
  0
LINE
  5
58
  8
1
 62
     7
 10
-382.99999999999977
 20
10.178735105407901
 30
0.0
 11
-382.99999999999977
 21
14.928735105407901
 31
0.0
  0
LINE
  5
59
  8
1
 62
     7
 10
-383.49999999999977
 20
10.178735105407901
 30
0.0
 11
-382.99999999999977
 21
10.178735105407901
 31
0.0
  0
LINE
  5
5A
  8
1
 62
     7
 10
-378.80000000000013
 20
28.428735105407899
 30
0.0
 11
-377.30000000000013
 21
28.428735105407899
 31
0.0
  0
LINE
  5
5B
  8
1
 62
     7
 10
-360.49999999999977
 20
13.4787351054079
 30
0.0
 11
-358.99999999999977
 21
13.4787351054079
 31
0.0
  0
LINE
  5
5C
  8
1
 62
     7
 10
-357.99999999999977
 20
15.178735105407901
 30
0.0
 11
-360.49999999999977
 21
15.178735105407901
 31
0.0
  0
LINE
  5
5D
  8
1
 62
     7
 10
-357.99999999999977
 20
20.712215463446011
 30
0.0
 11
-359.49999999999977
 21
32.928735105407902
 31
0.0
  0
LINE
  5
5E
  8
1
 62
     7
 10
-360.49999999999977
 20
15.178735105407901
 30
0.0
 11
-360.49999999999977
 21
9.778735105407911
 31
0.0
  0
LINE
  5
5F
  8
1
 62
     7
 10
-364.3499999999998
 20
32.928735105407902
 30
0.0
 11
-359.49999999999977
 21
32.928735105407902
 31
0.0
  0
LINE
  5
60
  8
1
 62
     7
 10
-362.99999999999977
 20
9.778735105407911
 30
0.0
 11
-360.49999999999977
 21
9.778735105407911
 31
0.0
  0
LINE
  5
61
  8
1
 62
     7
 10
-360.49999999999977
 20
13.178735105407901
 30
0.0
 11
-362.99999999999977
 21
13.178735105407901
 31
0.0
  0
LINE
  5
62
  8
1
 62
     7
 10
-372.29999999999961
 20
37.678735105407902
 30
0.0
 11
-364.3499999999998
 21
37.678735105407902
 31
0.0
  0
LINE
  5
63
  8
1
 62
     7
 10
-362.99999999999977
 20
9.1787351054079007
 30
0.0
 11
-362.99999999999977
 21
32.928735105407902
 31
0.0
  0
LINE
  5
64
  8
1
 62
     7
 10
-372.30000000000001
 20
8.1787351054079203
 30
0.0
 11
-372.29999999999961
 21
37.678735105407902
 31
0.0
  0
LINE
  5
65
  8
1
 62
     3
 10
-364.3499999999998
 20
37.678735105407902
 30
0.0
 11
-372.30000000000001
 21
9.1787351054079007
 31
0.0
  0
LINE
  5
66
  8
1
 62
     3
 10
-362.99999999999977
 20
9.1787351054079007
 30
0.0
 11
-372.29999999999961
 21
37.678735105407902
 31
0.0
  0
LINE
  5
67
  8
1
 62
     7
 10
-357.99999999999977
 20
13.70369389620191
 30
0.0
 11
-357.99999999999977
 21
20.712215463446011
 31
0.0
  0
LINE
  5
68
  8
1
 62
     7
 10
-372.30000000000001
 20
12.778735105407909
 30
0.0
 11
-360.49999999999977
 21
12.778735105407909
 31
0.0
  0
LINE
  5
69
  8
1
 62
     7
 10
-372.30000000000001
 20
9.1787351054079007
 30
0.0
 11
-357.49999999999977
 21
9.1787351054079007
 31
0.0
  0
LINE
  5
6A
  8
1
 62
     7
 10
-360.49999999999977
 20
11.17873510540791
 30
0.0
 11
-358.99999999999977
 21
11.17873510540791
 31
0.0
  0
LINE
  5
6B
  8
1
  6
DASHDOT
 62
     3
 10
-409.09415673693849
 20
-9.8212648945920904
 30
0.0
 11
-405.49999999999972
 21
-9.8212648945920904
 31
0.0
  0
LINE
  5
6C
  8
1
 62
     7
 10
-384.99999999999977
 20
10.67873510540791
 30
0.0
 11
-383.49999999999977
 21
10.67873510540791
 31
0.0
  0
LINE
  5
6D
  8
1
 62
     7
 10
-383.49999999999977
 20
10.67873510540791
 30
0.0
 11
-383.49999999999977
 21
6.6787351054079096
 31
0.0
  0
LINE
  5
6E
  8
1
 62
     7
 10
-383.49999999999977
 20
6.6787351054079096
 30
0.0
 11
-384.99999999999977
 21
6.6787351054079096
 31
0.0
  0
LINE
  5
6F
  8
1
 62
     7
 10
-384.99999999999977
 20
6.6787351054079096
 30
0.0
 11
-384.99999999999977
 21
10.67873510540791
 31
0.0
  0
LINE
  5
70
  8
1
 62
     7
 10
-384.99999999999977
 20
7.6787351054079203
 30
0.0
 11
-387.49999999999977
 21
7.6787351054079203
 31
0.0
  0
LINE
  5
71
  8
1
 62
     7
 10
-387.49999999999977
 20
7.6787351054079203
 30
0.0
 11
-387.49999999999977
 21
-9.8212648945920904
 31
0.0
  0
LINE
  5
72
  8
1
 62
     7
 10
-387.49999999999977
 20
4.378735105407908
 30
0.0
 11
-357.49999999999977
 21
4.378735105407908
 31
0.0
  0
LINE
  5
73
  8
1
 62
     7
 10
-387.49999999999977
 20
2.021454387734936
 30
0.0
 11
-357.49999999999977
 21
2.021454387734916
 31
0.0
  0
LINE
  5
74
  8
1
 62
     7
 10
-404.49999999999977
 20
38.678735105407902
 30
0.0
 11
-362.99999999999977
 21
38.678735105407902
 31
0.0
  0
LINE
  5
75
  8
1
 62
     7
 10
-405.49999999999972
 20
37.678735105407902
 30
0.0
 11
-405.49999999999972
 21
-9.8212648945920904
 31
0.0
  0
LINE
  5
76
  8
1
 62
     7
 10
-372.99999999999977
 20
33.17873510540791
 30
0.0
 11
-379.99999999999977
 21
33.17873510540791
 31
0.0
  0
LINE
  5
77
  8
1
 62
     7
 10
-405.49999999999972
 20
15.178735105407901
 30
0.0
 11
-401.49999999999977
 21
15.178735105407901
 31
0.0
  0
LINE
  5
78
  8
1
 62
     7
 10
-401.49999999999977
 20
15.42873510540791
 30
0.0
 11
-384.99999999999977
 21
15.42873510540791
 31
0.0
  0
LINE
  5
79
  8
1
 62
     7
 10
-384.99999999999977
 20
15.42873510540791
 30
0.0
 11
-384.99999999999977
 21
15.67873510540791
 31
0.0
  0
LINE
  5
7A
  8
1
 62
     7
 10
-384.99999999999977
 20
15.67873510540791
 30
0.0
 11
-378.80000000000001
 21
15.67873510540791
 31
0.0
  0
LINE
  5
7B
  8
1
 62
     7
 10
-378.80000000000001
 20
19.47873510540791
 30
0.0
 11
-378.80000000000001
 21
15.67873510540791
 31
0.0
  0
LINE
  5
7C
  8
1
 62
     7
 10
-379.99999999999977
 20
33.17873510540791
 30
0.0
 11
-379.99999999999977
 21
20.67873510540791
 31
0.0
  0
LINE
  5
7D
  8
1
 62
     7
 10
-378.80000000000001
 20
19.47873510540791
 30
0.0
 11
-379.99999999999977
 21
20.67873510540791
 31
0.0
  0
LINE
  5
7E
  8
1
 62
     7
 10
-372.99999999999977
 20
34.42873510540791
 30
0.0
 11
-362.99999999999977
 21
34.42873510540791
 31
0.0
  0
LINE
  5
7F
  8
1
 62
     7
 10
-364.3499999999998
 20
32.928735105407902
 30
0.0
 11
-364.3499999999998
 21
38.678735105407902
 31
0.0
  0
LINE
  5
80
  8
1
 62
     7
 10
-362.99999999999977
 20
38.678735105407902
 30
0.0
 11
-362.99999999999977
 21
34.42873510540791
 31
0.0
  0
LINE
  5
81
  8
1
 62
     7
 10
-372.99999999999977
 20
33.17873510540791
 30
0.0
 11
-372.99999999999977
 21
38.678735105407902
 31
0.0
  0
LINE
  5
82
  8
1
 62
     7
 10
-401.49999999999977
 20
-9.8212648945920904
 30
0.0
 11
-401.49999999999977
 21
15.42873510540791
 31
0.0
  0
LINE
  5
83
  8
1
 62
     7
 10
-537.4245599567837
 20
4.378735105407908
 30
0.0
 11
-529.4245599567837
 21
4.378735105407908
 31
0.0
  0
LINE
  5
84
  8
1
 62
     7
 10
-393.49999999999977
 20
68.67873510540791
 30
0.0
 11
-393.49999999999977
 21
63.678735105407902
 31
0.0
  0
LINE
  5
85
  8
1
 62
     7
 10
-393.30000000000001
 20
68.67873510540791
 30
0.0
 11
-393.30000000000001
 21
63.678735105407902
 31
0.0
  0
LINE
  5
86
  8
1
 62
     7
 10
-393.0999999999998
 20
68.67873510540791
 30
0.0
 11
-393.0999999999998
 21
63.678735105407902
 31
0.0
  0
LINE
  5
87
  8
1
 62
     7
 10
-393.69999999999987
 20
68.67873510540791
 30
0.0
 11
-393.69999999999987
 21
63.678735105407902
 31
0.0
  0
LINE
  5
88
  8
1
 62
     7
 10
-393.89999999999998
 20
68.67873510540791
 30
0.0
 11
-393.89999999999998
 21
63.678735105407902
 31
0.0
  0
LINE
  5
89
  8
1
 62
     7
 10
-394.49999999999977
 20
63.678735105407902
 30
0.0
 11
-392.49999999999977
 21
63.678735105407902
 31
0.0
  0
LINE
  5
8A
  8
1
 62
     7
 10
-394.49999999999977
 20
38.629925564294417
 30
0.0
 11
-394.49999999999977
 21
50.87033020480937
 31
0.0
  0
LINE
  5
8B
  8
1
 62
     7
 10
-392.49999999999977
 20
63.678735105407902
 30
0.0
 11
-392.49999999999977
 21
52.488075722859683
 31
0.0
  0
LINE
  5
8C
  8
1
 62
     7
 10
-392.49999999999977
 20
50.87033020480937
 30
0.0
 11
-392.49999999999977
 21
38.678735105407902
 31
0.0
  0
LINE
  5
8D
  8
1
 62
     7
 10
-394.49999999999977
 20
52.488075722859683
 30
0.0
 11
-394.49999999999977
 21
63.678735105407902
 31
0.0
  0
LINE
  5
8E
  8
1
 62
     7
 10
-532.4245599567837
 20
68.67873510540791
 30
0.0
 11
-532.4245599567837
 21
63.678735105407902
 31
0.0
  0
LINE
  5
8F
  8
1
 62
     7
 10
-534.4245599567837
 20
68.67873510540791
 30
0.0
 11
-534.4245599567837
 21
63.678735105407902
 31
0.0
  0
LINE
  5
90
  8
1
 62
     7
 10
-532.22455995678365
 20
68.67873510540791
 30
0.0
 11
-532.22455995678365
 21
63.678735105407902
 31
0.0
  0
LINE
  5
91
  8
1
 62
     7
 10
-532.02455995678361
 20
68.67873510540791
 30
0.0
 11
-532.02455995678361
 21
63.678735105407902
 31
0.0
  0
LINE
  5
92
  8
1
 62
     7
 10
-532.62455995678363
 20
68.67873510540791
 30
0.0
 11
-532.62455995678363
 21
63.678735105407902
 31
0.0
  0
LINE
  5
93
  8
1
 62
     7
 10
-532.82455995678367
 20
68.67873510540791
 30
0.0
 11
-532.82455995678367
 21
63.678735105407902
 31
0.0
  0
LINE
  5
94
  8
1
 62
     7
 10
-534.22455995678365
 20
68.67873510540791
 30
0.0
 11
-534.22455995678365
 21
63.678735105407902
 31
0.0
  0
LINE
  5
95
  8
1
 62
     7
 10
-534.02455995678349
 20
68.67873510540791
 30
0.0
 11
-534.02455995678349
 21
63.678735105407902
 31
0.0
  0
LINE
  5
96
  8
1
 62
     7
 10
-534.62455995678351
 20
68.67873510540791
 30
0.0
 11
-534.62455995678351
 21
63.678735105407902
 31
0.0
  0
LINE
  5
97
  8
1
 62
     7
 10
-534.82455995678356
 20
68.67873510540791
 30
0.0
 11
-534.82455995678356
 21
63.678735105407902
 31
0.0
  0
LINE
  5
98
  8
1
 62
     7
 10
-535.42455995678358
 20
63.678735105407902
 30
0.0
 11
-531.42455995678358
 21
63.678735105407902
 31
0.0
  0
LINE
  5
99
  8
1
 62
     7
 10
-531.42455995678358
 20
63.678735105407902
 30
0.0
 11
-531.42455995678358
 21
52.488075722859683
 31
0.0
  0
LINE
  5
9A
  8
1
 62
     7
 10
-535.42455995678358
 20
38.629925564294417
 30
0.0
 11
-535.42455995678358
 21
50.87033020480937
 31
0.0
  0
LINE
  5
9B
  8
1
 62
     7
 10
-531.42455995678358
 20
50.87033020480937
 30
0.0
 11
-531.42455995678358
 21
38.629925564294417
 31
0.0
  0
LINE
  5
9C
  8
1
 62
     7
 10
-535.42455995678358
 20
52.488075722859683
 30
0.0
 11
-535.42455995678358
 21
63.678735105407902
 31
0.0
  0
LINE
  5
9D
  8
1
 62
     7
 10
-405.49999999999972
 20
37.678735105407902
 30
0.0
 11
-404.49999999999977
 21
38.678735105407902
 31
0.0
  0
LINE
  5
9E
  8
1
 62
     7
 10
-529.4245599567837
 20
4.378735105407908
 30
0.0
 11
-529.4245599567837
 21
2.0214543877349191
 31
0.0
  0
LINE
  5
9F
  8
1
 62
     7
 10
-537.4245599567837
 20
4.378735105407908
 30
0.0
 11
-537.4245599567837
 21
2.0214543877349191
 31
0.0
  0
LINE
  5
A0
  8
1
 62
     7
 10
-420.5
 20
-52.571264894592098
 30
0.0
 11
-419.0
 21
-40.35474525263021
 31
0.0
  0
LINE
  5
A1
  8
1
 62
     7
 10
-420.5
 20
-52.571264894592098
 30
0.0
 11
-424.0
 21
-52.571264894592098
 31
0.0
  0
LINE
  5
A2
  8
1
 62
     7
 10
-418.5
 20
-32.421264894592099
 30
0.0
 11
-419.0
 21
-32.421264894592099
 31
0.0
  0
LINE
  5
A3
  8
1
 62
     7
 10
-433.30000000000013
 20
-52.071264894592069
 30
0.0
 11
-433.99999999999977
 21
-52.071264894592069
 31
0.0
  0
LINE
  5
A4
  8
1
 62
     7
 10
-433.30000000000013
 20
-9.8212648945920904
 30
0.0
 11
-433.30000000000013
 21
-29.109192410283871
 31
0.0
  0
LINE
  5
A5
  8
1
 62
     7
 10
-424.0
 20
-9.8212648945920904
 30
0.0
 11
-424.0
 21
-52.571264894592098
 31
0.0
  0
LINE
  5
A6
  8
1
 62
     7
 10
-419.0
 20
-9.8212648945920904
 30
0.0
 11
-419.0
 21
-40.35474525263021
 31
0.0
  0
LINE
  5
A7
  8
1
 62
     7
 10
-420.5
 20
-9.8212648945920904
 30
0.0
 11
-420.5
 21
-52.571264894592098
 31
0.0
  0
LINE
  5
A8
  8
1
 62
     7
 10
-418.5
 20
-9.8212648945920904
 30
0.0
 11
-418.5
 21
-32.421264894592099
 31
0.0
  0
LINE
  5
A9
  8
1
  6
DASHDOT
 62
     3
 10
-470.09415673693837
 20
-9.8212648945920904
 30
0.0
 11
-466.5
 21
-9.8212648945920904
 31
0.0
  0
LINE
  5
AA
  8
1
 62
     7
 10
-465.5
 20
-58.32126489459209
 30
0.0
 11
-424.0
 21
-58.32126489459209
 31
0.0
  0
LINE
  5
AB
  8
1
 62
     7
 10
-424.0
 20
-52.571264894592098
 30
0.0
 11
-425.3499999999998
 21
-52.571264894592098
 31
0.0
  0
LINE
  5
AC
  8
1
 62
     7
 10
-425.3499999999998
 20
-9.8212648945920904
 30
0.0
 11
-425.3499999999998
 21
-29.109192410283871
 31
0.0
  0
LINE
  5
AD
  8
1
 62
     7
 10
-425.3499999999998
 20
-57.321264894592098
 30
0.0
 11
-433.30000000000013
 21
-57.321264894592098
 31
0.0
  0
LINE
  5
AE
  8
1
 62
     7
 10
-433.99999999999977
 20
-27.726034434907671
 30
0.0
 11
-433.29999999999961
 21
-27.726034434907671
 31
0.0
  0
LINE
  5
AF
  8
1
 62
     7
 10
-433.99999999999977
 20
-29.611927663734459
 30
0.0
 11
-424.0
 21
-29.611927663734459
 31
0.0
  0
LINE
  5
B0
  8
1
 62
     7
 10
-433.99999999999977
 20
-38.272181701578859
 30
0.0
 11
-424.0
 21
-38.272181701578859
 31
0.0
  0
LINE
  5
B1
  8
1
 62
     7
 10
-433.30000000000013
 20
-29.109192410283871
 30
0.0
 11
-425.3499999999998
 21
-29.109192410283871
 31
0.0
  0
LINE
  5
B2
  8
1
 62
     7
 10
-425.3499999999998
 20
-27.726034434907671
 30
0.0
 11
-424.0
 21
-27.726034434907671
 31
0.0
  0
LINE
  5
B3
  8
1
 62
     7
 10
-433.29999999999961
 20
-38.272181701578859
 30
0.0
 11
-433.30000000000013
 21
-57.321264894592098
 31
0.0
  0
LINE
  5
B4
  8
1
 62
     7
 10
-425.3499999999998
 20
-38.272181701578859
 30
0.0
 11
-425.3499999999998
 21
-57.321264894592098
 31
0.0
  0
LINE
  5
B5
  8
1
 62
     7
 10
-425.3499999999998
 20
-53.787871541000428
 30
0.0
 11
-424.0
 21
-53.787871541000428
 31
0.0
  0
LINE
  5
B6
  8
1
 62
     7
 10
-424.0
 20
-53.787871541000428
 30
0.0
 11
-424.0
 21
-58.32126489459209
 31
0.0
  0
LINE
  5
B7
  8
1
 62
     7
 10
-433.29999999999961
 20
-53.787871541000428
 30
0.0
 11
-433.99999999999977
 21
-53.787871541000428
 31
0.0
  0
LINE
  5
B8
  8
1
 62
     7
 10
-433.99999999999977
 20
-9.8212648945920904
 30
0.0
 11
-433.99999999999977
 21
-29.611927663734459
 31
0.0
  0
LINE
  5
B9
  8
1
 62
     7
 10
-433.99999999999977
 20
-38.272181701578859
 30
0.0
 11
-433.99999999999977
 21
-58.32126489459209
 31
0.0
  0
LINE
  5
BA
  8
1
 62
     3
 10
-433.29999999999961
 20
-38.272181701578859
 30
0.0
 11
-425.3499999999998
 21
-57.321264894592098
 31
0.0
  0
LINE
  5
BB
  8
1
 62
     3
 10
-425.3499999999998
 20
-38.272181701578859
 30
0.0
 11
-433.30000000000013
 21
-57.321264894592098
 31
0.0
  0
LINE
  5
BC
  8
1
 62
     7
 10
-465.5
 20
-58.32126489459209
 30
0.0
 11
-466.5
 21
-57.321264894592098
 31
0.0
  0
LINE
  5
BD
  8
1
 62
     7
 10
-465.5
 20
-58.32126489459209
 30
0.0
 11
-465.5
 21
-9.8212648945920904
 31
0.0
  0
LINE
  5
BE
  8
1
 62
     7
 10
-357.49999999999977
 20
-9.8212648945920904
 30
0.0
 11
-357.49999999999977
 21
-32.421264894592092
 31
0.0
  0
LINE
  5
BF
  8
1
 62
     7
 10
-357.49999999999977
 20
-32.421264894592092
 30
0.0
 11
-358.99999999999977
 21
-32.421264894592092
 31
0.0
  0
LINE
  5
C0
  8
1
 62
     7
 10
-358.99999999999977
 20
-33.12126489459208
 30
0.0
 11
-358.99999999999977
 21
-30.82126489459209
 31
0.0
  0
LINE
  5
C1
  8
1
 62
     7
 10
-383.49999999999977
 20
-27.82126489459209
 30
0.0
 11
-372.30000000000001
 21
-27.82126489459209
 31
0.0
  0
LINE
  5
C2
  8
1
 62
     7
 10
-372.29999999999961
 20
-52.071264894592069
 30
0.0
 11
-378.80000000000013
 21
-52.071264894592069
 31
0.0
  0
LINE
  5
C3
  8
1
 62
     7
 10
-378.80000000000013
 20
-52.071264894592069
 30
0.0
 11
-378.80000000000013
 21
-48.071264894592069
 31
0.0
  0
LINE
  5
C4
  8
1
 62
     7
 10
-377.30000000000013
 20
-48.071264894592069
 30
0.0
 11
-377.30000000000013
 21
-34.571264894592083
 31
0.0
  0
LINE
  5
C5
  8
1
 62
     7
 10
-377.30000000000013
 20
-34.571264894592083
 30
0.0
 11
-382.99999999999977
 21
-34.571264894592083
 31
0.0
  0
LINE
  5
C6
  8
1
 62
     7
 10
-382.99999999999977
 20
-34.571264894592083
 30
0.0
 11
-382.99999999999977
 21
-29.82126489459208
 31
0.0
  0
LINE
  5
C7
  8
1
 62
     7
 10
-382.99999999999977
 20
-29.82126489459208
 30
0.0
 11
-383.49999999999977
 21
-29.82126489459208
 31
0.0
  0
LINE
  5
C8
  8
1
 62
     7
 10
-377.30000000000013
 20
-48.071264894592069
 30
0.0
 11
-378.80000000000013
 21
-48.071264894592069
 31
0.0
  0
LINE
  5
C9
  8
1
 62
     7
 10
-358.99999999999977
 20
-33.12126489459208
 30
0.0
 11
-360.49999999999977
 21
-33.12126489459208
 31
0.0
  0
LINE
  5
CA
  8
1
 62
     7
 10
-360.49999999999977
 20
-34.821264894592083
 30
0.0
 11
-357.99999999999977
 21
-34.821264894592083
 31
0.0
  0
LINE
  5
CB
  8
1
 62
     7
 10
-359.49999999999977
 20
-52.571264894592069
 30
0.0
 11
-357.99999999999977
 21
-40.35474525263021
 31
0.0
  0
LINE
  5
CC
  8
1
 62
     7
 10
-360.49999999999977
 20
-29.421264894592088
 30
0.0
 11
-360.49999999999977
 21
-34.821264894592083
 31
0.0
  0
LINE
  5
CD
  8
1
 62
     7
 10
-359.49999999999977
 20
-52.571264894592069
 30
0.0
 11
-364.3499999999998
 21
-52.571264894592069
 31
0.0
  0
LINE
  5
CE
  8
1
 62
     7
 10
-360.49999999999977
 20
-29.421264894592088
 30
0.0
 11
-362.99999999999977
 21
-29.421264894592088
 31
0.0
  0
LINE
  5
CF
  8
1
 62
     7
 10
-362.99999999999977
 20
-32.821264894592083
 30
0.0
 11
-360.49999999999977
 21
-32.821264894592083
 31
0.0
  0
LINE
  5
D0
  8
1
 62
     7
 10
-364.3499999999998
 20
-57.321264894592083
 30
0.0
 11
-372.29999999999961
 21
-57.321264894592083
 31
0.0
  0
LINE
  5
D1
  8
1
 62
     7
 10
-362.99999999999977
 20
-52.571264894592069
 30
0.0
 11
-362.99999999999977
 21
-28.82126489459208
 31
0.0
  0
LINE
  5
D2
  8
1
 62
     7
 10
-372.29999999999961
 20
-57.321264894592083
 30
0.0
 11
-372.30000000000001
 21
-27.82126489459209
 31
0.0
  0
LINE
  5
D3
  8
1
 62
     3
 10
-372.30000000000001
 20
-28.82126489459208
 30
0.0
 11
-364.3499999999998
 21
-57.321264894592083
 31
0.0
  0
LINE
  5
D4
  8
1
 62
     3
 10
-372.29999999999961
 20
-57.321264894592083
 30
0.0
 11
-362.99999999999977
 21
-28.82126489459208
 31
0.0
  0
LINE
  5
D5
  8
1
 62
     7
 10
-357.99999999999977
 20
-40.35474525263021
 30
0.0
 11
-357.99999999999977
 21
-33.346223685386093
 31
0.0
  0
LINE
  5
D6
  8
1
 62
     7
 10
-360.49999999999977
 20
-32.421264894592092
 30
0.0
 11
-372.30000000000001
 21
-32.421264894592092
 31
0.0
  0
LINE
  5
D7
  8
1
 62
     7
 10
-357.49999999999977
 20
-28.82126489459208
 30
0.0
 11
-372.30000000000001
 21
-28.82126489459208
 31
0.0
  0
LINE
  5
D8
  8
1
 62
     7
 10
-358.99999999999977
 20
-30.82126489459209
 30
0.0
 11
-360.49999999999977
 21
-30.82126489459209
 31
0.0
  0
LINE
  5
D9
  8
1
 62
     7
 10
-383.49999999999977
 20
-30.32126489459209
 30
0.0
 11
-384.99999999999977
 21
-30.32126489459209
 31
0.0
  0
LINE
  5
DA
  8
1
 62
     7
 10
-383.49999999999977
 20
-26.32126489459209
 30
0.0
 11
-383.49999999999977
 21
-30.32126489459209
 31
0.0
  0
LINE
  5
DB
  8
1
 62
     7
 10
-384.99999999999977
 20
-26.32126489459209
 30
0.0
 11
-383.49999999999977
 21
-26.32126489459209
 31
0.0
  0
LINE
  5
DC
  8
1
 62
     7
 10
-384.99999999999977
 20
-30.32126489459209
 30
0.0
 11
-384.99999999999977
 21
-26.32126489459209
 31
0.0
  0
LINE
  5
DD
  8
1
 62
     7
 10
-387.49999999999977
 20
-27.321264894592101
 30
0.0
 11
-384.99999999999977
 21
-27.321264894592101
 31
0.0
  0
LINE
  5
DE
  8
1
 62
     7
 10
-387.49999999999977
 20
-9.8212648945920904
 30
0.0
 11
-387.49999999999977
 21
-27.321264894592101
 31
0.0
  0
LINE
  5
DF
  8
1
 62
     7
 10
-357.49999999999977
 20
-24.02126489459209
 30
0.0
 11
-387.49999999999977
 21
-24.02126489459209
 31
0.0
  0
LINE
  5
E0
  8
1
 62
     7
 10
-357.49999999999977
 20
-22.321264894592069
 30
0.0
 11
-387.49999999999977
 21
-22.32126489459209
 31
0.0
  0
LINE
  5
E1
  8
1
 62
     7
 10
-362.99999999999977
 20
-58.32126489459209
 30
0.0
 11
-404.49999999999977
 21
-58.32126489459209
 31
0.0
  0
LINE
  5
E2
  8
1
 62
     7
 10
-405.49999999999972
 20
-9.8212648945920904
 30
0.0
 11
-405.49999999999972
 21
-57.321264894592098
 31
0.0
  0
LINE
  5
E3
  8
1
 62
     7
 10
-379.99999999999977
 20
-52.82126489459209
 30
0.0
 11
-372.99999999999977
 21
-52.82126489459209
 31
0.0
  0
LINE
  5
E4
  8
1
 62
     7
 10
-401.49999999999977
 20
-34.82126489459209
 30
0.0
 11
-405.49999999999972
 21
-34.82126489459209
 31
0.0
  0
LINE
  5
E5
  8
1
 62
     7
 10
-384.99999999999977
 20
-35.07126489459209
 30
0.0
 11
-401.49999999999977
 21
-35.07126489459209
 31
0.0
  0
LINE
  5
E6
  8
1
 62
     7
 10
-384.99999999999977
 20
-35.32126489459209
 30
0.0
 11
-384.99999999999977
 21
-35.07126489459209
 31
0.0
  0
LINE
  5
E7
  8
1
 62
     7
 10
-378.80000000000001
 20
-35.32126489459209
 30
0.0
 11
-384.99999999999977
 21
-35.32126489459209
 31
0.0
  0
LINE
  5
E8
  8
1
 62
     7
 10
-378.80000000000001
 20
-35.32126489459209
 30
0.0
 11
-378.80000000000001
 21
-39.121264894592088
 31
0.0
  0
LINE
  5
E9
  8
1
 62
     7
 10
-379.99999999999977
 20
-40.32126489459209
 30
0.0
 11
-379.99999999999977
 21
-52.82126489459209
 31
0.0
  0
LINE
  5
EA
  8
1
 62
     7
 10
-379.99999999999977
 20
-40.32126489459209
 30
0.0
 11
-378.80000000000001
 21
-39.121264894592088
 31
0.0
  0
LINE
  5
EB
  8
1
 62
     7
 10
-362.99999999999977
 20
-54.07126489459209
 30
0.0
 11
-372.99999999999977
 21
-54.07126489459209
 31
0.0
  0
LINE
  5
EC
  8
1
 62
     7
 10
-364.3499999999998
 20
-58.32126489459209
 30
0.0
 11
-364.3499999999998
 21
-52.571264894592069
 31
0.0
  0
LINE
  5
ED
  8
1
 62
     7
 10
-362.99999999999977
 20
-54.07126489459209
 30
0.0
 11
-362.99999999999977
 21
-58.32126489459209
 31
0.0
  0
LINE
  5
EE
  8
1
 62
     7
 10
-372.99999999999977
 20
-58.32126489459209
 30
0.0
 11
-372.99999999999977
 21
-52.82126489459209
 31
0.0
  0
LINE
  5
EF
  8
1
 62
     7
 10
-401.49999999999977
 20
-35.07126489459209
 30
0.0
 11
-401.49999999999977
 21
-9.8212648945920904
 31
0.0
  0
LINE
  5
F0
  8
1
 62
     7
 10
-404.49999999999977
 20
-58.32126489459209
 30
0.0
 11
-405.49999999999972
 21
-57.321264894592098
 31
0.0
  0
LINE
  5
F1
  8
1
 62
     7
 10
-466.5
 20
-9.8212648945920904
 30
0.0
 11
-466.5
 21
-57.321264894592098
 31
0.0
  0
LINE
  5
F2
  8
1
 62
     7
 10
-419.0
 20
20.712215463446029
 30
0.0
 11
-420.5
 21
32.928735105407917
 31
0.0
  0
LINE
  5
F3
  8
1
 62
     7
 10
-424.0
 20
32.928735105407917
 30
0.0
 11
-420.5
 21
32.928735105407917
 31
0.0
  0
LINE
  5
F4
  8
1
 62
     7
 10
-419.0
 20
12.778735105407931
 30
0.0
 11
-418.5
 21
12.778735105407931
 31
0.0
  0
LINE
  5
F5
  8
1
 62
     7
 10
-433.99999999999977
 20
32.428735105407902
 30
0.0
 11
-433.30000000000013
 21
32.428735105407902
 31
0.0
  0
LINE
  5
F6
  8
1
 62
     7
 10
-433.30000000000013
 20
9.4666626210996885
 30
0.0
 11
-433.30000000000013
 21
-9.8212648945920904
 31
0.0
  0
LINE
  5
F7
  8
1
 62
     7
 10
-424.0
 20
32.928735105407917
 30
0.0
 11
-424.0
 21
-9.8212648945920904
 31
0.0
  0
LINE
  5
F8
  8
1
 62
     7
 10
-419.0
 20
20.712215463446029
 30
0.0
 11
-419.0
 21
-9.8212648945920904
 31
0.0
  0
LINE
  5
F9
  8
1
 62
     7
 10
-420.5
 20
32.928735105407917
 30
0.0
 11
-420.5
 21
-9.8212648945920904
 31
0.0
  0
LINE
  5
FA
  8
1
 62
     7
 10
-418.5
 20
12.778735105407931
 30
0.0
 11
-418.5
 21
-9.8212648945920904
 31
0.0
  0
LINE
  5
FB
  8
1
 62
     7
 10
-424.0
 20
38.678735105407902
 30
0.0
 11
-465.5
 21
38.678735105407902
 31
0.0
  0
LINE
  5
FC
  8
1
 62
     7
 10
-425.3499999999998
 20
32.928735105407917
 30
0.0
 11
-424.0
 21
32.928735105407917
 31
0.0
  0
LINE
  5
FD
  8
1
 62
     7
 10
-425.3499999999998
 20
9.4666626210996885
 30
0.0
 11
-425.3499999999998
 21
-9.8212648945920904
 31
0.0
  0
LINE
  5
FE
  8
1
 62
     7
 10
-433.30000000000013
 20
37.67873510540791
 30
0.0
 11
-425.3499999999998
 21
37.67873510540791
 31
0.0
  0
LINE
  5
FF
  8
1
 62
     7
 10
-433.29999999999961
 20
8.0835046457234903
 30
0.0
 11
-433.99999999999977
 21
8.0835046457234903
 31
0.0
  0
LINE
  5
100
  8
1
 62
     7
 10
-424.0
 20
9.9693978745502871
 30
0.0
 11
-433.99999999999977
 21
9.9693978745502871
 31
0.0
  0
LINE
  5
101
  8
1
 62
     7
 10
-424.0
 20
18.629651912394689
 30
0.0
 11
-433.99999999999977
 21
18.629651912394689
 31
0.0
  0
LINE
  5
102
  8
1
 62
     7
 10
-425.3499999999998
 20
9.4666626210996885
 30
0.0
 11
-433.30000000000013
 21
9.4666626210996885
 31
0.0
  0
LINE
  5
103
  8
1
 62
     7
 10
-424.0
 20
8.0835046457234903
 30
0.0
 11
-425.3499999999998
 21
8.0835046457234903
 31
0.0
  0
LINE
  5
104
  8
1
 62
     7
 10
-433.30000000000013
 20
37.67873510540791
 30
0.0
 11
-433.29999999999961
 21
18.629651912394689
 31
0.0
  0
LINE
  5
105
  8
1
 62
     7
 10
-425.3499999999998
 20
37.67873510540791
 30
0.0
 11
-425.3499999999998
 21
18.629651912394689
 31
0.0
  0
LINE
  5
106
  8
1
 62
     7
 10
-424.0
 20
34.145341751816268
 30
0.0
 11
-425.3499999999998
 21
34.145341751816268
 31
0.0
  0
LINE
  5
107
  8
1
 62
     7
 10
-424.0
 20
38.678735105407902
 30
0.0
 11
-424.0
 21
34.145341751816268
 31
0.0
  0
LINE
  5
108
  8
1
 62
     7
 10
-433.99999999999977
 20
34.145341751816268
 30
0.0
 11
-433.29999999999961
 21
34.145341751816268
 31
0.0
  0
LINE
  5
109
  8
1
 62
     7
 10
-433.99999999999977
 20
9.9693978745502871
 30
0.0
 11
-433.99999999999977
 21
-9.8212648945920904
 31
0.0
  0
LINE
  5
10A
  8
1
 62
     3
 10
-425.3499999999998
 20
37.67873510540791
 30
0.0
 11
-433.29999999999961
 21
18.629651912394689
 31
0.0
  0
LINE
  5
10B
  8
1
 62
     3
 10
-433.30000000000013
 20
37.67873510540791
 30
0.0
 11
-425.3499999999998
 21
18.629651912394689
 31
0.0
  0
LINE
  5
10C
  8
1
 62
     7
 10
-466.5
 20
37.678735105407902
 30
0.0
 11
-465.5
 21
38.678735105407902
 31
0.0
  0
LINE
  5
10D
  8
1
 62
     7
 10
-465.5
 20
-9.8212648945920904
 30
0.0
 11
-465.5
 21
38.678735105407902
 31
0.0
  0
LINE
  5
10E
  8
1
 62
     7
 10
-466.5
 20
37.678735105407902
 30
0.0
 11
-466.5
 21
-9.8212648945920904
 31
0.0
  0
LINE
  5
10F
  8
1
 62
     7
 10
-454.49999999999989
 20
68.67873510540791
 30
0.0
 11
-454.49999999999989
 21
63.678735105407902
 31
0.0
  0
LINE
  5
110
  8
1
 62
     7
 10
-454.30000000000013
 20
68.67873510540791
 30
0.0
 11
-454.30000000000013
 21
63.678735105407902
 31
0.0
  0
LINE
  5
111
  8
1
 62
     7
 10
-454.0999999999998
 20
68.67873510540791
 30
0.0
 11
-454.0999999999998
 21
63.678735105407902
 31
0.0
  0
LINE
  5
112
  8
1
 62
     7
 10
-454.69999999999982
 20
68.67873510540791
 30
0.0
 11
-454.69999999999982
 21
63.678735105407902
 31
0.0
  0
LINE
  5
113
  8
1
 62
     7
 10
-454.90000000000009
 20
68.67873510540791
 30
0.0
 11
-454.90000000000009
 21
63.678735105407902
 31
0.0
  0
LINE
  5
114
  8
1
 62
     7
 10
-455.49999999999989
 20
63.678735105407902
 30
0.0
 11
-453.5
 21
63.678735105407902
 31
0.0
  0
LINE
  5
115
  8
1
 62
     7
 10
-455.49999999999989
 20
38.629925564294417
 30
0.0
 11
-455.49999999999989
 21
50.87033020480937
 31
0.0
  0
LINE
  5
116
  8
1
 62
     7
 10
-453.5
 20
63.678735105407902
 30
0.0
 11
-453.5
 21
52.488075722859683
 31
0.0
  0
LINE
  5
117
  8
1
 62
     7
 10
-453.5
 20
50.87033020480937
 30
0.0
 11
-453.5
 21
38.678735105407902
 31
0.0
  0
LINE
  5
118
  8
1
 62
     7
 10
-455.49999999999989
 20
52.488075722859683
 30
0.0
 11
-455.49999999999989
 21
63.678735105407902
 31
0.0
  0
LINE
  5
119
  8
1
 62
     7
 10
-289.0
 20
38.420314681537043
 30
0.0
 11
-289.0
 21
33.92873510540791
 31
0.0
  0
LINE
  5
11A
  8
1
 62
     7
 10
-299.0
 20
38.420314681537043
 30
0.0
 11
-299.0
 21
33.92873510540791
 31
0.0
  0
LINE
  5
11B
  8
1
 62
     7
 10
-299.0
 20
33.92873510540791
 30
0.0
 11
-289.0
 21
33.92873510540791
 31
0.0
  0
LINE
  5
11C
  8
1
 62
     7
 10
-333.27843343161629
 20
18.629651912394689
 30
0.0
 11
-329.38861141556907
 21
16.383862124330118
 31
0.0
  0
LINE
  5
11D
  8
1
 62
     7
 10
-338.27843343161629
 20
9.9693978745502836
 30
0.0
 11
-334.38861141556907
 21
7.7236080864857124
 31
0.0
  0
LINE
  5
11E
  8
1
 62
     7
 10
-334.38861141556907
 20
7.7236080864857124
 30
0.0
 11
-329.38861141556907
 21
16.383862124330118
 31
0.0
  0
LINE
  5
11F
  8
1
 62
     7
 10
-338.27843343161629
 20
-29.611927663734431
 30
0.0
 11
-334.38861141556907
 21
-27.366137875669889
 31
0.0
  0
LINE
  5
120
  8
1
 62
     7
 10
-333.27843343161629
 20
-38.27218170157883
 30
0.0
 11
-329.38861141556907
 21
-36.026391913514253
 31
0.0
  0
LINE
  5
121
  8
1
 62
     7
 10
-329.38861141556907
 20
-36.026391913514253
 30
0.0
 11
-334.38861141556907
 21
-27.366137875669889
 31
0.0
  0
LINE
  5
122
  8
1
 62
     7
 10
-299.0
 20
-58.062844470721252
 30
0.0
 11
-299.0
 21
-53.571264894592133
 31
0.0
  0
LINE
  5
123
  8
1
 62
     7
 10
-289.0
 20
-58.062844470721252
 30
0.0
 11
-289.0
 21
-53.571264894592083
 31
0.0
  0
LINE
  5
124
  8
1
 62
     7
 10
-289.0
 20
-53.571264894592083
 30
0.0
 11
-299.0
 21
-53.571264894592133
 31
0.0
  0
LINE
  5
125
  8
1
 62
     7
 10
-254.72156656838359
 20
-38.272181701578923
 30
0.0
 11
-258.61138858443081
 21
-36.02639191351436
 31
0.0
  0
LINE
  5
126
  8
1
 62
     7
 10
-249.72156656838351
 20
-29.611927663734519
 30
0.0
 11
-253.6113885844307
 21
-27.366137875669949
 31
0.0
  0
LINE
  5
127
  8
1
 62
     7
 10
-253.6113885844307
 20
-27.366137875669949
 30
0.0
 11
-258.61138858443081
 21
-36.02639191351436
 31
0.0
  0
LINE
  5
128
  8
1
 62
     7
 10
-249.72156656838351
 20
9.9693978745502232
 30
0.0
 11
-253.6113885844307
 21
7.7236080864856547
 31
0.0
  0
LINE
  5
129
  8
1
 62
     7
 10
-254.72156656838359
 20
18.629651912394639
 30
0.0
 11
-258.61138858443081
 21
16.383862124330012
 31
0.0
  0
LINE
  5
12A
  8
1
 62
     7
 10
-258.61138858443081
 20
16.383862124330012
 30
0.0
 11
-253.6113885844307
 21
7.7236080864856547
 31
0.0
  0
LINE
  5
12B
  8
1
  6
DASHDOT
 62
     3
 10
-257.84343939199971
 20
11.053735105407901
 30
0.0
 11
-251.13174251267029
 21
14.92873510540791
 31
0.0
  0
LINE
  5
12C
  8
1
  6
DASHDOT
 62
     3
 10
-336.86825748732969
 20
14.92873510540791
 30
0.0
 11
-330.15656060800029
 21
11.053735105407901
 31
0.0
  0
LINE
  5
12D
  8
1
  6
DASHDOT
 62
     3
 10
-251.13174251267029
 20
-34.571264894592083
 30
0.0
 11
-257.84343939199971
 21
-30.69626489459209
 31
0.0
  0
LINE
  5
12E
  8
1
  6
DASHDOT
 62
     3
 10
-330.15656060800029
 20
-30.69626489459209
 30
0.0
 11
-336.86825748732969
 21
-34.571264894592083
 31
0.0
  0
LINE
  5
12F
  8
1
 62
     7
 10
-298.0
 20
4.378735105407908
 30
0.0
 11
-290.0
 21
4.378735105407908
 31
0.0
  0
LINE
  5
130
  8
1
 62
     7
 10
-290.0
 20
4.378735105407908
 30
0.0
 11
-290.0
 21
2.0214543877349191
 31
0.0
  0
LINE
  5
131
  8
1
 62
     7
 10
-298.0
 20
4.378735105407908
 30
0.0
 11
-298.0
 21
2.0214543877349191
 31
0.0
  0
LINE
  5
132
  8
1
 62
     7
 10
-293.0
 20
68.67873510540791
 30
0.0
 11
-293.0
 21
63.678735105407902
 31
0.0
  0
LINE
  5
133
  8
1
 62
     7
 10
-295.0
 20
68.67873510540791
 30
0.0
 11
-295.0
 21
63.678735105407902
 31
0.0
  0
LINE
  5
134
  8
1
 62
     7
 10
-292.80000000000001
 20
68.67873510540791
 30
0.0
 11
-292.80000000000001
 21
63.678735105407902
 31
0.0
  0
LINE
  5
135
  8
1
 62
     7
 10
-292.59999999999991
 20
68.67873510540791
 30
0.0
 11
-292.59999999999991
 21
63.678735105407902
 31
0.0
  0
LINE
  5
136
  8
1
 62
     7
 10
-293.19999999999982
 20
68.67873510540791
 30
0.0
 11
-293.19999999999982
 21
63.678735105407902
 31
0.0
  0
LINE
  5
137
  8
1
 62
     7
 10
-293.39999999999992
 20
68.67873510540791
 30
0.0
 11
-293.39999999999992
 21
63.678735105407902
 31
0.0
  0
LINE
  5
138
  8
1
 62
     7
 10
-294.80000000000001
 20
68.67873510540791
 30
0.0
 11
-294.80000000000001
 21
63.678735105407902
 31
0.0
  0
LINE
  5
139
  8
1
 62
     7
 10
-294.59999999999991
 20
68.67873510540791
 30
0.0
 11
-294.59999999999991
 21
63.678735105407902
 31
0.0
  0
LINE
  5
13A
  8
1
 62
     7
 10
-295.19999999999982
 20
68.67873510540791
 30
0.0
 11
-295.19999999999982
 21
63.678735105407902
 31
0.0
  0
LINE
  5
13B
  8
1
 62
     7
 10
-295.39999999999992
 20
68.67873510540791
 30
0.0
 11
-295.39999999999992
 21
63.678735105407902
 31
0.0
  0
LINE
  5
13C
  8
1
 62
     7
 10
-296.0
 20
63.678735105407902
 30
0.0
 11
-292.0
 21
63.678735105407902
 31
0.0
  0
LINE
  5
13D
  8
1
 62
     7
 10
-292.0
 20
63.678735105407902
 30
0.0
 11
-292.0
 21
52.488075722859683
 31
0.0
  0
LINE
  5
13E
  8
1
 62
     7
 10
-296.0
 20
38.629925564294417
 30
0.0
 11
-296.0
 21
50.87033020480937
 31
0.0
  0
LINE
  5
13F
  8
1
 62
     7
 10
-292.0
 20
50.87033020480937
 30
0.0
 11
-292.0
 21
38.629925564294417
 31
0.0
  0
LINE
  5
140
  8
1
 62
     7
 10
-296.0
 20
52.488075722859683
 30
0.0
 11
-296.0
 21
63.678735105407902
 31
0.0
  0
LINE
  5
141
  8
1
 62
     7
 10
-294.0
 20
38.678735105407902
 30
0.0
 11
-294.0
 21
50.87033020480937
 31
0.0
  0
LINE
  5
142
  8
1
 62
     7
 10
-294.0
 20
52.488075722859683
 30
0.0
 11
-294.0
 21
63.678735105407902
 31
0.0
  0
LINE
  5
143
  8
1
 62
     7
 10
-533.4245599567837
 20
50.87033020480937
 30
0.0
 11
-533.4245599567837
 21
38.678735105407902
 31
0.0
  0
LINE
  5
144
  8
1
 62
     7
 10
-533.4245599567837
 20
63.678735105407902
 30
0.0
 11
-533.4245599567837
 21
52.488075722859683
 31
0.0
  0
LINE
  5
145
  8
1
 62
     3
 10
-433.30000000000013
 20
9.4666626210996885
 30
0.0
 11
-425.3499999999998
 21
-29.109192410283871
 31
0.0
  0
LINE
  5
146
  8
1
 62
     3
 10
-433.30000000000013
 20
-29.109192410283871
 30
0.0
 11
-425.3499999999998
 21
9.4666626210996885
 31
0.0
  0
ARC
  5
147
  8
1
 62
     7
 10
-393.99999999999977
 20
52.670218580002548
 30
0.0
 40
0.5321428571428596
 50
200.01595960288341
 51
339.98404039711659
  0
ARC
  5
148
  8
1
 62
     7
 10
-392.99999999999977
 20
52.670218580002548
 30
0.0
 40
0.5321428571428596
 50
200.01595960288341
 51
339.98404039711659
  0
ARC
  5
149
  8
1
 62
     7
 10
-393.99999999999977
 20
50.688187347666549
 30
0.0
 40
0.5321428571428425
 50
20.01595960287834
 51
159.9840403971217
  0
ARC
  5
14A
  8
1
 62
     7
 10
-392.99999999999977
 20
50.688187347666549
 30
0.0
 40
0.5321428571428425
 50
20.01595960287834
 51
159.9840403971217
  0
ARC
  5
14B
  8
1
 62
     7
 10
-392.99999999999977
 20
51.052473061952249
 30
0.0
 40
0.5321428571428668
 50
200.0159596028854
 51
339.98404039711443
  0
ARC
  5
14C
  8
1
 62
     7
 10
-393.99999999999977
 20
52.305932865716848
 30
0.0
 40
0.5321428571428499
 50
20.015959602880489
 51
159.98404039711949
  0
ARC
  5
14D
  8
1
 62
     7
 10
-532.4245599567837
 20
50.120330204809378
 30
0.0
 40
1.25
 50
36.86989764584402
 51
143.13010235415601
  0
ARC
  5
14E
  8
1
 62
     7
 10
-532.4245599567837
 20
51.62033020480937
 30
0.0
 40
1.25
 50
216.86989764584391
 51
323.13010235415601
  0
ARC
  5
14F
  8
1
 62
     7
 10
-534.4245599567837
 20
50.120330204809378
 30
0.0
 40
1.25
 50
36.86989764584402
 51
143.13010235415601
  0
ARC
  5
150
  8
1
 62
     7
 10
-534.4245599567837
 20
53.238075722859683
 30
0.0
 40
1.25
 50
216.86989764584391
 51
323.13010235415601
  0
ARC
  5
151
  8
1
 62
     7
 10
-534.4245599567837
 20
51.738075722859669
 30
0.0
 40
1.25
 50
36.86989764584402
 51
143.13010235415601
  0
ARC
  5
152
  8
1
 62
     7
 10
-532.4245599567837
 20
53.238075722859683
 30
0.0
 40
1.25
 50
216.86989764584391
 51
323.13010235415601
  0
ARC
  5
153
  8
1
 62
     7
 10
-533.4245599567837
 20
-9.8212648945920904
 30
0.0
 40
12.5
 50
108.6629248849424
 51
71.337075115057516
  0
ARC
  5
154
  8
1
 62
     7
 10
-455.0
 20
52.670218580002548
 30
0.0
 40
0.5321428571428596
 50
200.01595960288341
 51
339.98404039711659
  0
ARC
  5
155
  8
1
 62
     7
 10
-454.0
 20
52.670218580002548
 30
0.0
 40
0.5321428571428596
 50
200.01595960288341
 51
339.98404039711659
  0
ARC
  5
156
  8
1
 62
     7
 10
-455.0
 20
50.688187347666549
 30
0.0
 40
0.5321428571428425
 50
20.01595960287834
 51
159.9840403971217
  0
ARC
  5
157
  8
1
 62
     7
 10
-454.0
 20
50.688187347666549
 30
0.0
 40
0.5321428571428425
 50
20.01595960287834
 51
159.9840403971217
  0
ARC
  5
158
  8
1
 62
     7
 10
-454.0
 20
51.052473061952249
 30
0.0
 40
0.5321428571428668
 50
200.0159596028854
 51
339.98404039711443
  0
ARC
  5
159
  8
1
 62
     7
 10
-455.0
 20
52.305932865716848
 30
0.0
 40
0.5321428571428499
 50
20.015959602880489
 51
159.98404039711949
  0
ARC
  5
15A
  8
1
 62
     7
 10
-294.0
 20
-9.8212648945920904
 30
0.0
 40
44.249999999999993
 50
83.512044275330183
 51
96.487955724669803
  0
ARC
  5
15B
  8
1
 62
     7
 10
-294.0
 20
-9.8212648945920904
 30
0.0
 40
44.250000000000028
 50
143.51204427533011
 51
156.4879557246698
  0
ARC
  5
15C
  8
1
 62
     7
 10
-294.0
 20
-9.8212648945920904
 30
0.0
 40
44.25
 50
203.5120442753302
 51
216.4879557246698
  0
ARC
  5
15D
  8
1
 62
     7
 10
-294.0
 20
-9.8212648945920904
 30
0.0
 40
44.249999999999993
 50
263.5120442753302
 51
276.4879557246698
  0
ARC
  5
15E
  8
1
 62
     7
 10
-294.0
 20
-9.8212648945920904
 30
0.0
 40
44.250000000000057
 50
323.51204427533008
 51
336.4879557246698
  0
ARC
  5
15F
  8
1
 62
     7
 10
-294.0
 20
-9.8212648945920904
 30
0.0
 40
44.249999999999957
 50
23.512044275330101
 51
36.48795572466976
  0
ARC
  5
160
  8
1
 62
     7
 10
-294.0
 20
-9.8212648945920904
 30
0.0
 40
47.500000000000028
 50
36.042328419053987
 51
83.957671580945899
  0
ARC
  5
161
  8
1
 62
     7
 10
-294.0
 20
-9.8212648945920904
 30
0.0
 40
47.499999999999993
 50
156.042328419054
 51
180.0
  0
ARC
  5
162
  8
1
 62
     7
 10
-294.0
 20
-9.8212648945920904
 30
0.0
 40
47.499999999999993
 50
96.042328419054087
 51
143.95767158094591
  0
ARC
  5
163
  8
1
 62
     7
 10
-294.0
 20
-9.8212648945920904
 30
0.0
 40
47.5
 50
180.0
 51
203.9576715809458
  0
ARC
  5
164
  8
1
 62
     7
 10
-294.0
 20
-9.8212648945920904
 30
0.0
 40
47.499999999999993
 50
216.04232841905409
 51
263.95767158094583
  0
ARC
  5
165
  8
1
 62
     7
 10
-294.0
 20
-9.8212648945920904
 30
0.0
 40
47.499999999999972
 50
276.04232841905412
 51
323.95767158094583
  0
ARC
  5
166
  8
1
 62
     7
 10
-294.0
 20
-9.8212648945920904
 30
0.0
 40
47.499999999999993
 50
336.04232841905389
 51
23.957671580945782
  0
ARC
  5
167
  8
1
 62
     7
 10
-294.0
 20
-9.8212648945920904
 30
0.0
 40
12.5
 50
108.6629248849424
 51
71.337075115057516
  0
ARC
  5
168
  8
1
 62
     7
 10
-293.0
 20
50.120330204809378
 30
0.0
 40
1.25
 50
36.86989764584402
 51
143.13010235415601
  0
ARC
  5
169
  8
1
 62
     7
 10
-293.0
 20
51.62033020480937
 30
0.0
 40
1.25
 50
216.86989764584391
 51
323.13010235415601
  0
ARC
  5
16A
  8
1
 62
     7
 10
-295.0
 20
50.120330204809378
 30
0.0
 40
1.25
 50
36.86989764584402
 51
143.13010235415601
  0
ARC
  5
16B
  8
1
 62
     7
 10
-295.0
 20
53.238075722859683
 30
0.0
 40
1.25
 50
216.86989764584391
 51
323.13010235415601
  0
ARC
  5
16C
  8
1
 62
     7
 10
-295.0
 20
51.738075722859669
 30
0.0
 40
1.25
 50
36.86989764584402
 51
143.13010235415601
  0
ARC
  5
16D
  8
1
 62
     7
 10
-293.0
 20
53.238075722859683
 30
0.0
 40
1.25
 50
216.86989764584391
 51
323.13010235415601
  0
CIRCLE
  5
16E
  8
1
 62
     7
 10
-533.4245599567837
 20
-9.8212648945920904
 30
0.0
 40
17.500000000000011
  0
CIRCLE
  5
16F
  8
1
 62
     7
 10
-533.4245599567837
 20
-9.8212648945920904
 30
0.0
 40
25.0
  0
CIRCLE
  5
170
  8
1
 62
     7
 10
-533.4245599567837
 20
-9.8212648945920904
 30
0.0
 40
48.5
  0
CIRCLE
  5
171
  8
1
  6
DASHDOT
 62
     3
 10
-533.4245599567837
 20
-9.8212648945920904
 30
0.0
 40
37.0
  0
CIRCLE
  5
172
  8
1
 62
     3
 10
-533.4245599567837
 20
27.178735105407899
 30
0.0
 40
3.0
  0
CIRCLE
  5
173
  8
1
 62
     7
 10
-533.4245599567837
 20
27.178735105407899
 30
0.0
 40
2.5
  0
CIRCLE
  5
174
  8
1
 62
     3
 10
-570.4245599567837
 20
-9.8212648945920904
 30
0.0
 40
3.0
  0
CIRCLE
  5
175
  8
1
 62
     7
 10
-570.4245599567837
 20
-9.8212648945920904
 30
0.0
 40
2.5
  0
CIRCLE
  5
176
  8
1
 62
     3
 10
-533.4245599567837
 20
-46.821264894592098
 30
0.0
 40
3.0
  0
CIRCLE
  5
177
  8
1
 62
     7
 10
-533.4245599567837
 20
-46.821264894592098
 30
0.0
 40
2.5
  0
CIRCLE
  5
178
  8
1
 62
     3
 10
-496.42455995678358
 20
-9.8212648945920993
 30
0.0
 40
3.0
  0
CIRCLE
  5
179
  8
1
 62
     7
 10
-496.42455995678358
 20
-9.8212648945920993
 30
0.0
 40
2.5
  0
CIRCLE
  5
17A
  8
1
 62
     7
 10
-294.0
 20
-9.8212648945920904
 30
0.0
 40
48.5
  0
CIRCLE
  5
17B
  8
1
 62
     7
 10
-294.0
 20
-9.8212648945920904
 30
0.0
 40
30.533480358038108
  0
CIRCLE
  5
17C
  8
1
 62
     7
 10
-294.0
 20
-9.8212648945920904
 30
0.0
 40
22.600000000000019
  0
CIRCLE
  5
17D
  8
1
 62
     7
 10
-294.0
 20
-9.8212648945920904
 30
0.0
 40
42.75
  0
CIRCLE
  5
17E
  8
1
 62
     7
 10
-294.0
 20
-9.8212648945920904
 30
0.0
 40
25.0
  0
CIRCLE
  5
17F
  8
1
 62
     7
 10
-533.4245599567837
 20
-9.8212648945920904
 30
0.0
 40
47.5
  0
TEXT
  5
181
  8
1
 62
     7
 10
-579.8127821092545
 20
70.707710275628401
 30
0.0
 40
4.0
  1
MDB 2.5N
 41
0.9
  7
SIMPLEX
 72
     1
 11
-567.0413535378259
 21
70.707710275628401
 31
0.0
  0
ENDSEC
  0
EOF
