  0
SECTION
  2
HEADER
  9
$ACADVER
  1
AC1009
  9
$INSBASE
 10
0.0
 20
0.0
 30
0.0
  9
$EXTMIN
 10
-1225.388572032816
 20
-105.2661854041755
 30
0.0
  9
$EXTMAX
 10
-571.49999999999989
 20
157.91300808496601
 30
0.0
  9
$LIMMIN
 10
-1226.87428631853
 20
-98.500000000000014
  9
$LIMMAX
 10
-571.49999999999989
 20
157.9130080849659
  9
$ORTHOMODE
 70
     0
  9
$REGENMODE
 70
     1
  9
$FILLMODE
 70
     1
  9
$QTEXTMODE
 70
     0
  9
$MIRRTEXT
 70
     1
  9
$DRAGMODE
 70
     2
  9
$LTSCALE
 40
1.0
  9
$OSMODE
 70
    37
  9
$ATTMODE
 70
     1
  9
$TEXTSIZE
 40
3.5
  9
$TRACEWID
 40
0.5
  9
$TEXTSTYLE
  7
STANDARD
  9
$CLAYER
  8
0
  9
$CELTYPE
  6
BYLAYER
  9
$CECOLOR
 62
   256
  9
$DIMSCALE
 40
1.0
  9
$DIMASZ
 40
0.18
  9
$DIMEXO
 40
0.0625
  9
$DIMDLI
 40
0.38
  9
$DIMRND
 40
0.0
  9
$DIMDLE
 40
0.0
  9
$DIMEXE
 40
0.18
  9
$DIMTP
 40
0.0
  9
$DIMTM
 40
0.0
  9
$DIMTXT
 40
0.18
  9
$DIMCEN
 40
0.09
  9
$DIMTSZ
 40
0.0
  9
$DIMTOL
 70
     0
  9
$DIMLIM
 70
     0
  9
$DIMTIH
 70
     1
  9
$DIMTOH
 70
     1
  9
$DIMSE1
 70
     0
  9
$DIMSE2
 70
     0
  9
$DIMTAD
 70
     0
  9
$DIMZIN
 70
     0
  9
$DIMBLK
  1

  9
$DIMASO
 70
     1
  9
$DIMSHO
 70
     1
  9
$DIMPOST
  1

  9
$DIMAPOST
  1

  9
$DIMALT
 70
     0
  9
$DIMALTD
 70
     2
  9
$DIMALTF
 40
25.399999999999999
  9
$DIMLFAC
 40
1.0
  9
$DIMTOFL
 70
     0
  9
$DIMTVP
 40
0.0
  9
$DIMTIX
 70
     0
  9
$DIMSOXD
 70
     0
  9
$DIMSAH
 70
     0
  9
$DIMBLK1
  1

  9
$DIMBLK2
  1

  9
$DIMSTYLE
  2
STANDARD
  9
$DIMCLRD
 70
     0
  9
$DIMCLRE
 70
     0
  9
$DIMCLRT
 70
     0
  9
$DIMTFAC
 40
1.0
  9
$DIMGAP
 40
0.09
  9
$LUNITS
 70
     2
  9
$LUPREC
 70
     4
  9
$SKETCHINC
 40
0.1
  9
$FILLETRAD
 40
2.0
  9
$AUNITS
 70
     0
  9
$AUPREC
 70
     0
  9
$MENU
  1
ACAD
  9
$ELEVATION
 40
0.0
  9
$PELEVATION
 40
0.0
  9
$THICKNESS
 40
0.0
  9
$LIMCHECK
 70
     0
  9
$BLIPMODE
 70
     0
  9
$CHAMFERA
 40
0.0
  9
$CHAMFERB
 40
0.0
  9
$SKPOLY
 70
     0
  9
$TDCREATE
 40
2452095.0298491898
  9
$TDUPDATE
 40
2452095.0302833328
  9
$TDINDWG
 40
0.0004513889
  9
$TDUSRTIMER
 40
0.0004513889
  9
$USRTIMER
 70
     1
  9
$ANGBASE
 50
0.0
  9
$ANGDIR
 70
     0
  9
$PDMODE
 70
     0
  9
$PDSIZE
 40
0.0
  9
$PLINEWID
 40
0.0
  9
$COORDS
 70
     1
  9
$SPLFRAME
 70
     0
  9
$SPLINETYPE
 70
     6
  9
$SPLINESEGS
 70
     8
  9
$ATTDIA
 70
     0
  9
$ATTREQ
 70
     1
  9
$HANDLING
 70
 10241
  9
$HANDSEED
  5
18C
  9
$SURFTAB1
 70
     6
  9
$SURFTAB2
 70
     6
  9
$SURFTYPE
 70
     6
  9
$SURFU
 70
     6
  9
$SURFV
 70
     6
  9
$UCSNAME
  2

  9
$UCSORG
 10
0.0
 20
0.0
 30
0.0
  9
$UCSXDIR
 10
1.0
 20
0.0
 30
0.0
  9
$UCSYDIR
 10
0.0
 20
1.0
 30
0.0
  9
$PUCSNAME
  2

  9
$PUCSORG
 10
0.0
 20
0.0
 30
0.0
  9
$PUCSXDIR
 10
1.0
 20
0.0
 30
0.0
  9
$PUCSYDIR
 10
0.0
 20
1.0
 30
0.0
  9
$USERI1
 70
     0
  9
$USERI2
 70
     0
  9
$USERI3
 70
     0
  9
$USERI4
 70
     0
  9
$USERI5
 70
     0
  9
$USERR1
 40
0.0
  9
$USERR2
 40
0.0
  9
$USERR3
 40
0.0
  9
$USERR4
 40
0.0
  9
$USERR5
 40
0.0
  9
$WORLDVIEW
 70
     1
  9
$SHADEDGE
 70
     3
  9
$SHADEDIF
 70
    70
  9
$TILEMODE
 70
     1
  9
$MAXACTVP
 70
    64
  9
$PLIMCHECK
 70
     0
  9
$PEXTMIN
 10
1.0000000000000000E+020
 20
1.0000000000000000E+020
 30
1.0000000000000000E+020
  9
$PEXTMAX
 10
-1.0000000000000000E+020
 20
-1.0000000000000000E+020
 30
-1.0000000000000000E+020
  9
$PLIMMIN
 10
0.0
 20
0.0
  9
$PLIMMAX
 10
12.0
 20
9.0
  9
$UNITMODE
 70
     0
  9
$VISRETAIN
 70
     1
  9
$PLINEGEN
 70
     0
  9
$PSLTSCALE
 70
     1
  0
ENDSEC
  0
SECTION
  2
TABLES
  0
TABLE
  2
VPORT
 70
     2
  0
VPORT
  2
*ACTIVE
 70
     0
 10
0.0
 20
0.0
 11
1.0
 21
1.0
 12
-1209.82380988249
 22
137.64494383968821
 13
0.0
 23
0.0
 14
1.0
 24
1.0
 15
0.0
 25
0.0
 16
0.0
 26
0.0
 36
1.0
 17
0.0
 27
0.0
 37
0.0
 40
9.0000001897233233
 41
2.4144144144144142
 42
50.0
 43
0.0
 44
0.0
 50
0.0
 51
0.0
 71
     0
 72
   100
 73
     1
 74
     1
 75
     0
 76
     0
 77
     0
 78
     0
  0
ENDTAB
  0
TABLE
  2
LTYPE
 70
     9
  0
LTYPE
  2
CONTINUOUS
 70
     0
  3
Solid line
 72
    65
 73
     0
 40
0.0
  0
LTYPE
  2
BORDER
 70
     0
  3
__ __ . __ __ .
 72
    65
 73
     6
 40
30.181710554142828
 49
8.6233458726122372
 49
-4.3116729363061177
 49
8.6233458726122372
 49
-4.3116729363061177
 49
0.0
 49
-4.3116729363061177
  0
LTYPE
  2
CENTER
 70
     0
  3
____ _ ____ _
 72
    65
 73
     4
 40
34.493383490448949
 49
21.558364681530591
 49
-4.3116729363061177
 49
4.3116729363061177
 49
-4.3116729363061177
  0
LTYPE
  2
DASHDOT
 70
     0
  3
__ . __ . __ .
 72
    65
 73
     4
 40
17.246691745224471
 49
8.6233458726122372
 49
-4.3116729363061177
 49
0.0
 49
-4.3116729363061177
  0
LTYPE
  2
DASHED
 70
     0
  3
__ __ __ __ __
 72
    65
 73
     2
 40
12.93501880891835
 49
8.6233458726122372
 49
-4.3116729363061177
  0
LTYPE
  2
DIVIDE
 70
     0
  3
__ . . __ . . 
 72
    65
 73
     6
 40
21.558364681530591
 49
8.6233458726122372
 49
-4.3116729363061177
 49
0.0
 49
-4.3116729363061177
 49
0.0
 49
-4.3116729363061177
  0
LTYPE
  2
DOT
 70
     0
  3
..............
 72
    65
 73
     4
 40
8.6233458726122372
 49
0.0
 49
-4.3116729363061177
 49
0.0
 49
-4.3116729363061177
  0
LTYPE
  2
HIDDEN
 70
     0
  3
_ _ _ _ _ _ _
 72
    65
 73
     2
 40
6.4675094044591761
 49
4.3116729363061177
 49
-2.1558364681530588
  0
LTYPE
  2
PHANTOM
 70
     0
  3
_____ _ _ _____ _ _ 
 72
    65
 73
     6
 40
43.116729363061182
 49
21.558364681530591
 49
-4.3116729363061177
 49
4.3116729363061177
 49
-4.3116729363061177
 49
4.3116729363061177
 49
-4.3116729363061177
  0
ENDTAB
  0
TABLE
  2
LAYER
 70
     2
  0
LAYER
  2
0
 70
     0
 62
     7
  6
CONTINUOUS
  0
LAYER
  2
1
 70
     0
 62
     7
  6
CONTINUOUS
  0
ENDTAB
  0
TABLE
  2
STYLE
 70
     4
  0
STYLE
  2
STANDARD
 70
     0
 40
0.0
 41
1.0
 50
0.0
 71
     0
 42
3.5
  3
txt
  4

  0
STYLE
  2
SIMPLEX
 70
     0
 40
0.0
 41
1.0
 50
0.0
 71
     0
 42
3.5
  3
simplex
  4

  0
STYLE
  2
COMPLEX
 70
     0
 40
0.0
 41
1.0
 50
0.0
 71
     0
 42
3.5
  3
complex
  4

  0
STYLE
  2
ITALIC
 70
     0
 40
0.0
 41
1.0
 50
0.0
 71
     0
 42
3.5
  3
italic
  4

  0
ENDTAB
  0
TABLE
  2
VIEW
 70
     0
  0
ENDTAB
  0
TABLE
  2
UCS
 70
     0
  0
ENDTAB
  0
TABLE
  2
APPID
 70
     1
  0
APPID
  2
ACAD
 70
     0
  0
ENDTAB
  0
TABLE
  2
DIMSTYLE
 70
     1
  0
DIMSTYLE
  2
STANDARD
 70
     0
  3

  4

  5

  6

  7

 40
1.0
 41
0.18
 42
0.0625
 43
0.38
 44
0.18
 45
0.0
 46
0.0
 47
0.0
 48
0.0
140
0.18
141
0.09
142
0.0
143
25.399999999999999
144
1.0
145
0.0
146
1.0
147
0.09
 71
     0
 72
     0
 73
     1
 74
     1
 75
     0
 76
     0
 77
     0
 78
     0
170
     0
171
     2
172
     0
173
     0
174
     0
175
     0
176
     0
177
     0
178
     0
  0
ENDTAB
  0
ENDSEC
  0
SECTION
  2
BLOCKS
  0
BLOCK
  8
0
  2
$MODEL_SPACE
 70
     0
 10
0.0
 20
0.0
 30
0.0
  3
$MODEL_SPACE
  1

  0
ENDBLK
  5
20
  8
0
  0
BLOCK
 67
     1
  8
0
  2
$PAPER_SPACE
 70
     0
 10
0.0
 20
0.0
 30
0.0
  3
$PAPER_SPACE
  1

  0
ENDBLK
  5
1C
 67
     1
  8
0
  0
ENDSEC
  0
SECTION
  2
ENTITIES
  0
LINE
  5
33
  8
1
 62
     7
 10
-804.31708764577195
 20
46.399999999999991
 30
0.0
 11
-804.31708764577195
 21
0.0
 31
0.0
  0
LINE
  5
34
  8
1
 62
     3
 10
-815.81708764577195
 20
43.0
 30
0.0
 11
-834.51708764577199
 21
97.5
 31
0.0
  0
LINE
  5
35
  8
1
 62
     3
 10
-834.51708764577199
 20
43.0
 30
0.0
 11
-817.81708764577195
 21
97.5
 31
0.0
  0
LINE
  5
36
  8
1
 62
     7
 10
-847.51708764577199
 20
78.500000000000028
 30
0.0
 11
-846.51708764577188
 21
78.500000000000028
 31
0.0
  0
LINE
  5
37
  8
1
 62
     7
 10
-847.51708764577199
 20
78.500000000000028
 30
0.0
 11
-847.51708764577199
 21
88.150000000000034
 31
0.0
  0
LINE
  5
38
  8
1
 62
     7
 10
-847.51708764577199
 20
88.150000000000034
 30
0.0
 11
-834.51708764577199
 21
88.150000000000034
 31
0.0
  0
LINE
  5
39
  8
1
 62
     7
 10
-861.31708764577195
 20
39.0
 30
0.0
 11
-834.51708764577199
 21
39.0
 31
0.0
  0
LINE
  5
3A
  8
1
 62
     7
 10
-804.31708764577195
 20
28.61817604250837
 30
0.0
 11
-866.31708764577206
 21
28.61817604250837
 31
0.0
  0
LINE
  5
3B
  8
1
 62
     7
 10
-809.81708764577195
 20
43.0
 30
0.0
 11
-834.51708764577199
 21
43.0
 31
0.0
  0
LINE
  5
3C
  8
1
 62
     7
 10
-806.81708764577195
 20
43.0
 30
0.0
 11
-804.31708764577195
 21
43.0
 31
0.0
  0
LINE
  5
3D
  8
1
 62
     7
 10
-809.81708764577195
 20
42.25
 30
0.0
 11
-806.81708764577195
 21
42.25
 31
0.0
  0
LINE
  5
3E
  8
1
 62
     7
 10
-809.81708764577195
 20
47.399999999999991
 30
0.0
 11
-834.51708764577199
 21
47.399999999999991
 31
0.0
  0
LINE
  5
3F
  8
1
 62
     7
 10
-805.31708764577195
 20
47.399999999999991
 30
0.0
 11
-806.81708764577195
 21
47.399999999999991
 31
0.0
  0
LINE
  5
40
  8
1
 62
     7
 10
-809.81708764577195
 20
54.0
 30
0.0
 11
-804.81708764577206
 21
54.0
 31
0.0
  0
LINE
  5
41
  8
1
 62
     7
 10
-809.81708764577195
 20
42.25
 30
0.0
 11
-809.81708764577195
 21
54.0
 31
0.0
  0
LINE
  5
42
  8
1
 62
     7
 10
-804.81708764577206
 20
52.168335648135141
 30
0.0
 11
-804.81708764577206
 21
86.000000000000014
 31
0.0
  0
LINE
  5
43
  8
1
 62
     7
 10
-807.81708764577195
 20
89.000000000000014
 30
0.0
 11
-817.81708764577195
 21
89.000000000000014
 31
0.0
  0
LINE
  5
44
  8
1
 62
     7
 10
-815.81708764577195
 20
43.0
 30
0.0
 11
-815.81708764577195
 21
89.000000000000014
 31
0.0
  0
LINE
  5
45
  8
1
 62
     7
 10
-834.51708764577199
 20
97.5
 30
0.0
 11
-817.81708764577195
 21
97.5
 31
0.0
  0
LINE
  5
46
  8
1
 62
     7
 10
-834.51708764577199
 20
39.0
 30
0.0
 11
-834.51708764577199
 21
97.5
 31
0.0
  0
LINE
  5
47
  8
1
 62
     7
 10
-846.51708764577188
 20
52.149999999999991
 30
0.0
 11
-846.51708764577188
 21
78.500000000000028
 31
0.0
  0
LINE
  5
48
  8
1
 62
     7
 10
-860.51708764577188
 20
44.0
 30
0.0
 11
-861.31708764577195
 21
44.0
 31
0.0
  0
LINE
  5
49
  8
1
 62
     7
 10
-860.51708764577188
 20
44.0
 30
0.0
 11
-860.51708764577188
 21
52.149999999999991
 31
0.0
  0
LINE
  5
4A
  8
1
 62
     7
 10
-846.51708764577188
 20
52.149999999999991
 30
0.0
 11
-860.51708764577188
 21
52.149999999999991
 31
0.0
  0
LINE
  5
4B
  8
1
 62
     7
 10
-806.81708764577195
 20
50.930782060035703
 30
0.0
 11
-806.81708764577195
 21
42.25
 31
0.0
  0
LINE
  5
4C
  8
1
 62
     7
 10
-809.81708764577195
 20
50.930782060035703
 30
0.0
 11
-806.81708764577195
 21
50.930782060035703
 31
0.0
  0
LINE
  5
4D
  8
1
 62
     7
 10
-805.31708764577195
 20
47.399999999999991
 30
0.0
 11
-804.31708764577195
 21
46.399999999999991
 31
0.0
  0
LINE
  5
4E
  8
1
 62
     7
 10
-804.81708764577206
 20
86.000000000000014
 30
0.0
 11
-807.81708764577195
 21
89.000000000000014
 31
0.0
  0
LINE
  5
4F
  8
1
 62
     7
 10
-866.31708764577206
 20
33.0
 30
0.0
 11
-804.31708764577195
 21
33.0
 31
0.0
  0
LINE
  5
50
  8
1
 62
     7
 10
-863.81708764577206
 20
43.0
 30
0.0
 11
-861.31708764577195
 21
43.0
 31
0.0
  0
LINE
  5
51
  8
1
 62
     7
 10
-861.31708764577195
 20
44.0
 30
0.0
 11
-861.31708764577195
 21
36.0
 31
0.0
  0
LINE
  5
52
  8
1
 62
     7
 10
-861.31708764577195
 20
36.0
 30
0.0
 11
-863.81708764577206
 21
36.0
 31
0.0
  0
LINE
  5
53
  8
1
 62
     7
 10
-863.81708764577206
 20
36.0
 30
0.0
 11
-863.81708764577206
 21
43.0
 31
0.0
  0
LINE
  5
54
  8
1
 62
     7
 10
-863.81708764577206
 20
37.5
 30
0.0
 11
-866.31708764577206
 21
37.5
 31
0.0
  0
LINE
  5
55
  8
1
 62
     7
 10
-866.31708764577206
 20
37.5
 30
0.0
 11
-866.31708764577206
 21
0.0
 31
0.0
  0
LINE
  5
56
  8
1
 62
     7
 10
-880.31708764577195
 20
96.5
 30
0.0
 11
-880.31708764577195
 21
0.0
 31
0.0
  0
LINE
  5
57
  8
1
 62
     7
 10
-878.31708764577195
 20
98.500000000000014
 30
0.0
 11
-815.81708764577195
 21
98.500000000000014
 31
0.0
  0
LINE
  5
58
  8
1
 62
     7
 10
-835.81708764577184
 20
98.500000000000014
 30
0.0
 11
-835.81708764577184
 21
89.000000000000014
 31
0.0
  0
LINE
  5
59
  8
1
 62
     7
 10
-835.81708764577184
 20
90.750000000000014
 30
0.0
 11
-815.81708764577195
 21
90.750000000000014
 31
0.0
  0
LINE
  5
5A
  8
1
 62
     7
 10
-815.81708764577195
 20
90.750000000000014
 30
0.0
 11
-815.81708764577195
 21
98.500000000000014
 31
0.0
  0
LINE
  5
5B
  8
1
 62
     7
 10
-817.81708764577195
 20
97.5
 30
0.0
 11
-817.81708764577195
 21
89.000000000000014
 31
0.0
  0
LINE
  5
5C
  8
1
 62
     7
 10
-848.31708764577184
 20
63.0
 30
0.0
 11
-848.31708764577184
 21
52.149999999999991
 31
0.0
  0
LINE
  5
5D
  8
1
 62
     7
 10
-880.31708764577195
 20
53.0
 30
0.0
 11
-848.31708764577184
 21
53.0
 31
0.0
  0
LINE
  5
5E
  8
1
 62
     7
 10
-848.31708764577184
 20
63.0
 30
0.0
 11
-849.31708764577184
 21
64.0
 31
0.0
  0
LINE
  5
5F
  8
1
 62
     7
 10
-849.31708764577184
 20
64.0
 30
0.0
 11
-849.31708764577184
 21
89.000000000000014
 31
0.0
  0
LINE
  5
60
  8
1
 62
     7
 10
-872.31708764577195
 20
53.0
 30
0.0
 11
-872.31708764577195
 21
0.0
 31
0.0
  0
LINE
  5
61
  8
1
  6
DASHDOT
 62
     3
 10
-1051.484608460371
 20
43.10923015912347
 30
0.0
 11
-1065.47775562124
 21
35.030282878985957
 31
0.0
  0
LINE
  5
62
  8
1
  6
DASHDOT
 62
     3
 10
-1065.47775562124
 20
-35.030282878985957
 30
0.0
 11
-1051.484608460371
 21
-43.10923015912347
 31
0.0
  0
LINE
  5
63
  8
1
  6
DASHDOT
 62
     3
 10
-1200.819362281936
 20
-43.10923015912347
 30
0.0
 11
-1186.8262151210679
 21
-35.030282878985957
 31
0.0
  0
LINE
  5
64
  8
1
  6
DASHDOT
 62
     3
 10
-1186.8262151210679
 20
35.030282878985957
 30
0.0
 11
-1200.819362281936
 21
43.10923015912347
 31
0.0
  0
LINE
  5
65
  8
1
 62
     7
 10
-878.31708764577195
 20
98.500000000000014
 30
0.0
 11
-880.31708764577195
 21
96.5
 31
0.0
  0
LINE
  5
66
  8
1
 62
     7
 10
-860.81708764577195
 20
145.67832288827839
 30
0.0
 11
-860.81708764577195
 21
125.2605946629842
 31
0.0
  0
LINE
  5
67
  8
1
 62
     7
 10
-860.81708764577195
 20
122.8098595792794
 30
0.0
 11
-860.81708764577195
 21
98.500000000000014
 31
0.0
  0
LINE
  5
68
  8
1
 62
     7
 10
-863.81708764577206
 20
145.67832288827839
 30
0.0
 11
-863.81708764577206
 21
125.2605946629842
 31
0.0
  0
LINE
  5
69
  8
1
 62
     7
 10
-863.81708764577206
 20
122.8098595792794
 30
0.0
 11
-863.81708764577195
 21
98.500000000000014
 31
0.0
  0
LINE
  5
6A
  8
1
 62
     7
 10
-863.81708764577206
 20
145.67832288827839
 30
0.0
 11
-860.81708764577195
 21
145.67832288827839
 31
0.0
  0
LINE
  5
6B
  8
1
 62
     7
 10
-861.91708764577186
 20
145.67832288827839
 30
0.0
 11
-861.91708764577186
 21
150.67832288827839
 31
0.0
  0
LINE
  5
6C
  8
1
 62
     7
 10
-862.1170876457719
 20
145.67832288827839
 30
0.0
 11
-862.1170876457719
 21
150.67832288827839
 31
0.0
  0
LINE
  5
6D
  8
1
 62
     7
 10
-862.51708764577188
 20
145.67832288827839
 30
0.0
 11
-862.51708764577188
 21
150.67832288827839
 31
0.0
  0
LINE
  5
6E
  8
1
 62
     7
 10
-862.71708764577204
 20
145.67832288827839
 30
0.0
 11
-862.71708764577204
 21
150.67832288827839
 31
0.0
  0
LINE
  5
6F
  8
1
 62
     7
 10
-1129.1519853711541
 20
145.640342118072
 30
0.0
 11
-1126.1519853711541
 21
145.640342118072
 31
0.0
  0
LINE
  5
70
  8
1
 62
     7
 10
-1123.1519853711541
 20
145.640342118072
 30
0.0
 11
-1123.1519853711541
 21
126.494651905886
 31
0.0
  0
LINE
  5
71
  8
1
 62
     7
 10
-1123.1519853711541
 20
122.771878809073
 30
0.0
 11
-1123.1519853711541
 21
98.462019229793697
 31
0.0
  0
LINE
  5
72
  8
1
 62
     7
 10
-1129.1519853711541
 20
98.462019229793697
 30
0.0
 11
-1129.1519853711541
 21
122.771878809073
 31
0.0
  0
LINE
  5
73
  8
1
 62
     7
 10
-1129.1519853711541
 20
145.640342118072
 30
0.0
 11
-1129.1519853711541
 21
126.494651905886
 31
0.0
  0
LINE
  5
74
  8
1
 62
     7
 10
-1126.1519853711541
 20
145.640342118072
 30
0.0
 11
-1126.1519853711541
 21
126.494651905886
 31
0.0
  0
LINE
  5
75
  8
1
 62
     7
 10
-1126.1519853711541
 20
122.771878809073
 30
0.0
 11
-1126.1519853711541
 21
98.500000000000014
 31
0.0
  0
LINE
  5
76
  8
1
 62
     7
 10
-1126.1519853711541
 20
145.640342118072
 30
0.0
 11
-1123.1519853711541
 21
145.640342118072
 31
0.0
  0
LINE
  5
77
  8
1
 62
     7
 10
-1124.251985371154
 20
145.640342118072
 30
0.0
 11
-1124.251985371154
 21
150.640342118072
 31
0.0
  0
LINE
  5
78
  8
1
 62
     7
 10
-1124.451985371154
 20
145.640342118072
 30
0.0
 11
-1124.451985371154
 21
150.640342118072
 31
0.0
  0
LINE
  5
79
  8
1
 62
     7
 10
-1124.6519853711541
 20
145.640342118072
 30
0.0
 11
-1124.6519853711541
 21
150.640342118072
 31
0.0
  0
LINE
  5
7A
  8
1
 62
     7
 10
-1124.8519853711539
 20
145.640342118072
 30
0.0
 11
-1124.8519853711539
 21
150.640342118072
 31
0.0
  0
LINE
  5
7B
  8
1
 62
     7
 10
-1125.0519853711539
 20
145.640342118072
 30
0.0
 11
-1125.0519853711539
 21
150.640342118072
 31
0.0
  0
LINE
  5
7C
  8
1
 62
     7
 10
-1127.251985371154
 20
145.640342118072
 30
0.0
 11
-1127.251985371154
 21
150.640342118072
 31
0.0
  0
LINE
  5
7D
  8
1
 62
     7
 10
-1127.4519853711529
 20
145.640342118072
 30
0.0
 11
-1127.4519853711529
 21
150.640342118072
 31
0.0
  0
LINE
  5
7E
  8
1
 62
     7
 10
-1127.6519853711541
 20
145.640342118072
 30
0.0
 11
-1127.6519853711541
 21
150.640342118072
 31
0.0
  0
LINE
  5
7F
  8
1
 62
     7
 10
-1127.8519853711539
 20
145.640342118072
 30
0.0
 11
-1127.8519853711539
 21
150.640342118072
 31
0.0
  0
LINE
  5
80
  8
1
 62
     7
 10
-1128.051985371153
 20
145.640342118072
 30
0.0
 11
-1128.051985371153
 21
150.640342118072
 31
0.0
  0
LINE
  5
81
  8
1
 62
     7
 10
-1135.1519853711541
 20
33.0
 30
0.0
 11
-1135.1519853711541
 21
28.61817604250837
 31
0.0
  0
LINE
  5
82
  8
1
 62
     7
 10
-1135.1519853711541
 20
33.0
 30
0.0
 11
-1117.1519853711541
 21
33.0
 31
0.0
  0
LINE
  5
83
  8
1
 62
     7
 10
-1117.1519853711541
 20
33.0
 30
0.0
 11
-1117.1519853711541
 21
28.618176042508381
 31
0.0
  0
LINE
  5
84
  8
1
 62
     7
 10
-913.81708764577195
 20
-46.899999999999999
 30
0.0
 11
-913.31708764577195
 21
-46.399999999999991
 31
0.0
  0
LINE
  5
85
  8
1
 62
     7
 10
-916.81708764577195
 20
-88.999999999999986
 30
0.0
 11
-924.81708764577184
 21
-88.999999999999986
 31
0.0
  0
LINE
  5
86
  8
1
 62
     7
 10
-943.51708764577199
 20
-97.5
 30
0.0
 11
-926.81708764577195
 21
-97.5
 31
0.0
  0
LINE
  5
87
  8
1
 62
     7
 10
-913.81708764577195
 20
-85.999999999999986
 30
0.0
 11
-916.81708764577195
 21
-88.999999999999986
 31
0.0
  0
LINE
  5
88
  8
1
 62
     7
 10
-943.51708764577199
 20
0.0
 30
0.0
 11
-943.51708764577199
 21
-41.657417070385513
 31
0.0
  0
LINE
  5
89
  8
1
 62
     7
 10
-924.81708764577184
 20
0.0
 30
0.0
 11
-924.81708764577184
 21
-88.999999999999986
 31
0.0
  0
LINE
  5
8A
  8
1
 62
     7
 10
-916.81708764577195
 20
0.0
 30
0.0
 11
-916.81708764577195
 21
-88.999999999999986
 31
0.0
  0
LINE
  5
8B
  8
1
 62
     7
 10
-913.81708764577195
 20
0.0
 30
0.0
 11
-913.81708764577195
 21
-85.999999999999986
 31
0.0
  0
LINE
  5
8C
  8
1
 62
     7
 10
-913.31708764577195
 20
0.0
 30
0.0
 11
-913.31708764577195
 21
-46.399999999999991
 31
0.0
  0
LINE
  5
8D
  8
1
 62
     7
 10
-987.31708764577184
 20
-98.500000000000014
 30
0.0
 11
-924.81708764577184
 21
-98.500000000000014
 31
0.0
  0
LINE
  5
8E
  8
1
 62
     7
 10
-944.81708764577184
 20
-88.649999999999977
 30
0.0
 11
-943.51708764577199
 21
-88.650000000000006
 31
0.0
  0
LINE
  5
8F
  8
1
 62
     7
 10
-944.81708764577184
 20
-38.521116071557813
 30
0.0
 11
-943.51708764577199
 21
-38.521116071557813
 31
0.0
  0
LINE
  5
90
  8
1
 62
     7
 10
-926.81708764577195
 20
-38.521116071557771
 30
0.0
 11
-924.81708764577184
 21
-38.521116071557771
 31
0.0
  0
LINE
  5
91
  8
1
 62
     7
 10
-943.51708764577199
 20
-41.657417070385513
 30
0.0
 11
-926.81708764577195
 21
-41.657417070385513
 31
0.0
  0
LINE
  5
92
  8
1
 62
     7
 10
-944.81708764577184
 20
-42.409915906959739
 30
0.0
 11
-924.81708764577184
 21
-42.409915906959739
 31
0.0
  0
LINE
  5
93
  8
1
 62
     7
 10
-926.81708764577195
 20
-41.657417070385513
 30
0.0
 11
-926.81708764577195
 21
0.0
 31
0.0
  0
LINE
  5
94
  8
1
 62
     7
 10
-944.81708764577184
 20
-56.266322367510632
 30
0.0
 11
-924.81708764577184
 21
-56.266322367510632
 31
0.0
  0
LINE
  5
95
  8
1
 62
     7
 10
-926.81708764577195
 20
-56.266322367510632
 30
0.0
 11
-926.81708764577195
 21
-97.5
 31
0.0
  0
LINE
  5
96
  8
1
 62
     7
 10
-943.51708764577199
 20
-56.266322367510597
 30
0.0
 11
-943.51708764577199
 21
-97.5
 31
0.0
  0
LINE
  5
97
  8
1
 62
     7
 10
-944.81708764577184
 20
0.0
 30
0.0
 11
-944.81708764577184
 21
-42.409915906959739
 31
0.0
  0
LINE
  5
98
  8
1
 62
     7
 10
-944.81708764577184
 20
-56.266322367510632
 30
0.0
 11
-944.81708764577184
 21
-98.500000000000014
 31
0.0
  0
LINE
  5
99
  8
1
 62
     7
 10
-944.81708764577184
 20
-90.396695182954559
 30
0.0
 11
-943.51708764577199
 21
-90.396695182954559
 31
0.0
  0
LINE
  5
9A
  8
1
 62
     7
 10
-924.81708764577184
 20
-90.396695182954559
 30
0.0
 11
-924.81708764577184
 21
-98.500000000000014
 31
0.0
  0
LINE
  5
9B
  8
1
 62
     7
 10
-926.81708764577195
 20
-88.999999999999986
 30
0.0
 11
-924.81708764577184
 21
-88.999999999999986
 31
0.0
  0
LINE
  5
9C
  8
1
 62
     7
 10
-926.81708764577195
 20
-90.396695182954517
 30
0.0
 11
-924.81708764577184
 21
-90.396695182954559
 31
0.0
  0
LINE
  5
9D
  8
1
 62
     3
 10
-926.81708764577195
 20
-97.5
 30
0.0
 11
-943.51708764577199
 21
-56.266322367510597
 31
0.0
  0
LINE
  5
9E
  8
1
 62
     3
 10
-926.81708764577195
 20
-56.266322367510632
 30
0.0
 11
-943.51708764577199
 21
-97.5
 31
0.0
  0
LINE
  5
9F
  8
1
 62
     7
 10
-987.31708764577184
 20
-98.500000000000014
 30
0.0
 11
-989.31708764577195
 21
-96.5
 31
0.0
  0
LINE
  5
A0
  8
1
 62
     7
 10
-987.31708764577184
 20
-98.500000000000014
 30
0.0
 11
-987.31708764577184
 21
0.0
 31
0.0
  0
LINE
  5
A1
  8
1
 62
     7
 10
-969.81708764577195
 20
145.67832288827839
 30
0.0
 11
-969.81708764577195
 21
125.2605946629842
 31
0.0
  0
LINE
  5
A2
  8
1
 62
     7
 10
-969.81708764577195
 20
122.8098595792794
 30
0.0
 11
-969.81708764577195
 21
98.500000000000014
 31
0.0
  0
LINE
  5
A3
  8
1
 62
     7
 10
-972.81708764577195
 20
145.67832288827839
 30
0.0
 11
-972.81708764577195
 21
125.2605946629842
 31
0.0
  0
LINE
  5
A4
  8
1
 62
     7
 10
-972.81708764577195
 20
122.8098595792794
 30
0.0
 11
-972.81708764577195
 21
98.500000000000014
 31
0.0
  0
LINE
  5
A5
  8
1
 62
     7
 10
-972.81708764577195
 20
145.67832288827839
 30
0.0
 11
-969.81708764577195
 21
145.67832288827839
 31
0.0
  0
LINE
  5
A6
  8
1
 62
     7
 10
-970.91708764577186
 20
145.67832288827839
 30
0.0
 11
-970.91708764577186
 21
150.67832288827839
 31
0.0
  0
LINE
  5
A7
  8
1
 62
     7
 10
-971.1170876457719
 20
145.67832288827839
 30
0.0
 11
-971.1170876457719
 21
150.67832288827839
 31
0.0
  0
LINE
  5
A8
  8
1
 62
     7
 10
-971.51708764577188
 20
145.67832288827839
 30
0.0
 11
-971.51708764577188
 21
150.67832288827839
 31
0.0
  0
LINE
  5
A9
  8
1
 62
     7
 10
-971.71708764577204
 20
145.67832288827839
 30
0.0
 11
-971.71708764577204
 21
150.67832288827839
 31
0.0
  0
LINE
  5
AA
  8
1
 62
     7
 10
-989.31708764577195
 20
0.0
 30
0.0
 11
-989.31708764577195
 21
-96.5
 31
0.0
  0
LINE
  5
AB
  8
1
  6
DASHDOT
 62
     3
 10
-799.80807555348997
 20
0.0
 30
0.0
 11
-804.31708764577195
 21
0.0
 31
0.0
  0
LINE
  5
AC
  8
1
  6
DASHDOT
 62
     3
 10
-908.38223253718115
 20
0.0
 30
0.0
 11
-913.31708764577195
 21
0.0
 31
0.0
  0
LINE
  5
AD
  8
1
 62
     7
 10
-804.31708764577195
 20
0.0
 30
0.0
 11
-804.31708764577195
 21
-46.399999999999991
 31
0.0
  0
LINE
  5
AE
  8
1
 62
     3
 10
-834.51708764577199
 20
-97.5
 30
0.0
 11
-815.81708764577195
 21
-43.0
 31
0.0
  0
LINE
  5
AF
  8
1
 62
     3
 10
-817.81708764577195
 20
-97.5
 30
0.0
 11
-834.51708764577199
 21
-43.0
 31
0.0
  0
LINE
  5
B0
  8
1
 62
     7
 10
-846.51708764577188
 20
-78.500000000000028
 30
0.0
 11
-847.51708764577199
 21
-78.500000000000028
 31
0.0
  0
LINE
  5
B1
  8
1
 62
     7
 10
-847.51708764577199
 20
-88.150000000000034
 30
0.0
 11
-847.51708764577199
 21
-78.500000000000028
 31
0.0
  0
LINE
  5
B2
  8
1
 62
     7
 10
-834.51708764577199
 20
-88.150000000000034
 30
0.0
 11
-847.51708764577199
 21
-88.150000000000034
 31
0.0
  0
LINE
  5
B3
  8
1
 62
     7
 10
-834.51708764577199
 20
-39.0
 30
0.0
 11
-861.31708764577195
 21
-39.0
 31
0.0
  0
LINE
  5
B4
  8
1
 62
     7
 10
-866.31708764577206
 20
-30.0
 30
0.0
 11
-804.31708764577195
 21
-30.0
 31
0.0
  0
LINE
  5
B5
  8
1
 62
     7
 10
-834.51708764577199
 20
-43.0
 30
0.0
 11
-809.81708764577195
 21
-43.0
 31
0.0
  0
LINE
  5
B6
  8
1
 62
     7
 10
-804.31708764577195
 20
-43.0
 30
0.0
 11
-806.81708764577195
 21
-43.0
 31
0.0
  0
LINE
  5
B7
  8
1
 62
     7
 10
-806.81708764577195
 20
-42.25
 30
0.0
 11
-809.81708764577195
 21
-42.25
 31
0.0
  0
LINE
  5
B8
  8
1
 62
     7
 10
-834.51708764577199
 20
-47.399999999999991
 30
0.0
 11
-809.81708764577195
 21
-47.399999999999991
 31
0.0
  0
LINE
  5
B9
  8
1
 62
     7
 10
-806.81708764577195
 20
-47.399999999999991
 30
0.0
 11
-805.31708764577195
 21
-47.399999999999991
 31
0.0
  0
LINE
  5
BA
  8
1
 62
     7
 10
-804.81708764577206
 20
-54.0
 30
0.0
 11
-809.81708764577195
 21
-54.0
 31
0.0
  0
LINE
  5
BB
  8
1
 62
     7
 10
-809.81708764577195
 20
-54.0
 30
0.0
 11
-809.81708764577195
 21
-42.25
 31
0.0
  0
LINE
  5
BC
  8
1
 62
     7
 10
-804.81708764577206
 20
-86.000000000000014
 30
0.0
 11
-804.81708764577206
 21
-52.168335648135141
 31
0.0
  0
LINE
  5
BD
  8
1
 62
     7
 10
-817.81708764577195
 20
-89.000000000000014
 30
0.0
 11
-807.81708764577195
 21
-89.000000000000014
 31
0.0
  0
LINE
  5
BE
  8
1
 62
     7
 10
-815.81708764577195
 20
-89.000000000000014
 30
0.0
 11
-815.81708764577195
 21
-43.0
 31
0.0
  0
LINE
  5
BF
  8
1
 62
     7
 10
-817.81708764577195
 20
-97.5
 30
0.0
 11
-834.51708764577199
 21
-97.5
 31
0.0
  0
LINE
  5
C0
  8
1
 62
     7
 10
-834.51708764577199
 20
-97.5
 30
0.0
 11
-834.51708764577199
 21
-39.0
 31
0.0
  0
LINE
  5
C1
  8
1
 62
     7
 10
-846.51708764577188
 20
-78.500000000000028
 30
0.0
 11
-846.51708764577188
 21
-52.149999999999991
 31
0.0
  0
LINE
  5
C2
  8
1
 62
     7
 10
-861.31708764577195
 20
-44.0
 30
0.0
 11
-860.51708764577188
 21
-44.0
 31
0.0
  0
LINE
  5
C3
  8
1
 62
     7
 10
-860.51708764577188
 20
-52.149999999999991
 30
0.0
 11
-860.51708764577188
 21
-44.0
 31
0.0
  0
LINE
  5
C4
  8
1
 62
     7
 10
-860.51708764577188
 20
-52.149999999999991
 30
0.0
 11
-846.51708764577188
 21
-52.149999999999991
 31
0.0
  0
LINE
  5
C5
  8
1
 62
     7
 10
-806.81708764577195
 20
-42.25
 30
0.0
 11
-806.81708764577195
 21
-50.930782060035703
 31
0.0
  0
LINE
  5
C6
  8
1
 62
     7
 10
-806.81708764577195
 20
-50.930782060035703
 30
0.0
 11
-809.81708764577195
 21
-50.930782060035703
 31
0.0
  0
LINE
  5
C7
  8
1
 62
     7
 10
-804.31708764577195
 20
-46.399999999999991
 30
0.0
 11
-805.31708764577195
 21
-47.399999999999991
 31
0.0
  0
LINE
  5
C8
  8
1
 62
     7
 10
-807.81708764577195
 20
-89.000000000000014
 30
0.0
 11
-804.81708764577206
 21
-86.000000000000014
 31
0.0
  0
LINE
  5
C9
  8
1
 62
     7
 10
-804.31708764577195
 20
-33.0
 30
0.0
 11
-866.31708764577206
 21
-33.0
 31
0.0
  0
LINE
  5
CA
  8
1
 62
     7
 10
-861.31708764577195
 20
-43.0
 30
0.0
 11
-863.81708764577206
 21
-43.0
 31
0.0
  0
LINE
  5
CB
  8
1
 62
     7
 10
-861.31708764577195
 20
-36.0
 30
0.0
 11
-861.31708764577195
 21
-44.0
 31
0.0
  0
LINE
  5
CC
  8
1
 62
     7
 10
-863.81708764577206
 20
-36.0
 30
0.0
 11
-861.31708764577195
 21
-36.0
 31
0.0
  0
LINE
  5
CD
  8
1
 62
     7
 10
-863.81708764577206
 20
-43.0
 30
0.0
 11
-863.81708764577206
 21
-36.0
 31
0.0
  0
LINE
  5
CE
  8
1
 62
     7
 10
-866.31708764577206
 20
-37.5
 30
0.0
 11
-863.81708764577206
 21
-37.5
 31
0.0
  0
LINE
  5
CF
  8
1
 62
     7
 10
-866.31708764577206
 20
0.0
 30
0.0
 11
-866.31708764577206
 21
-37.5
 31
0.0
  0
LINE
  5
D0
  8
1
 62
     7
 10
-880.31708764577195
 20
0.0
 30
0.0
 11
-880.31708764577195
 21
-96.5
 31
0.0
  0
LINE
  5
D1
  8
1
 62
     7
 10
-815.81708764577195
 20
-98.500000000000014
 30
0.0
 11
-878.31708764577195
 21
-98.500000000000014
 31
0.0
  0
LINE
  5
D2
  8
1
 62
     7
 10
-835.81708764577184
 20
-89.000000000000014
 30
0.0
 11
-835.81708764577184
 21
-98.500000000000014
 31
0.0
  0
LINE
  5
D3
  8
1
 62
     7
 10
-815.81708764577195
 20
-90.750000000000014
 30
0.0
 11
-835.81708764577184
 21
-90.750000000000014
 31
0.0
  0
LINE
  5
D4
  8
1
 62
     7
 10
-815.81708764577195
 20
-98.500000000000014
 30
0.0
 11
-815.81708764577195
 21
-90.750000000000014
 31
0.0
  0
LINE
  5
D5
  8
1
 62
     7
 10
-817.81708764577195
 20
-89.000000000000014
 30
0.0
 11
-817.81708764577195
 21
-97.5
 31
0.0
  0
LINE
  5
D6
  8
1
 62
     7
 10
-835.81708764577184
 20
-89.000000000000014
 30
0.0
 11
-849.31708764577184
 21
-89.000000000000014
 31
0.0
  0
LINE
  5
D7
  8
1
 62
     7
 10
-848.31708764577184
 20
-52.149999999999991
 30
0.0
 11
-848.31708764577184
 21
-63.0
 31
0.0
  0
LINE
  5
D8
  8
1
 62
     7
 10
-848.31708764577184
 20
-53.0
 30
0.0
 11
-880.31708764577195
 21
-53.0
 31
0.0
  0
LINE
  5
D9
  8
1
 62
     7
 10
-849.31708764577184
 20
-64.0
 30
0.0
 11
-848.31708764577184
 21
-63.0
 31
0.0
  0
LINE
  5
DA
  8
1
 62
     7
 10
-849.31708764577184
 20
-89.000000000000014
 30
0.0
 11
-849.31708764577184
 21
-64.0
 31
0.0
  0
LINE
  5
DB
  8
1
 62
     7
 10
-872.31708764577195
 20
0.0
 30
0.0
 11
-872.31708764577195
 21
-53.0
 31
0.0
  0
LINE
  5
DC
  8
1
 62
     7
 10
-880.31708764577195
 20
-96.5
 30
0.0
 11
-878.31708764577195
 21
-98.500000000000014
 31
0.0
  0
LINE
  5
DD
  8
1
 62
     7
 10
-913.31708764577195
 20
46.399999999999991
 30
0.0
 11
-913.81708764577195
 21
46.899999999999999
 31
0.0
  0
LINE
  5
DE
  8
1
 62
     7
 10
-924.81708764577184
 20
88.999999999999986
 30
0.0
 11
-916.81708764577195
 21
88.999999999999986
 31
0.0
  0
LINE
  5
DF
  8
1
 62
     7
 10
-926.81708764577195
 20
97.5
 30
0.0
 11
-943.51708764577199
 21
97.5
 31
0.0
  0
LINE
  5
E0
  8
1
 62
     7
 10
-916.81708764577195
 20
88.999999999999986
 30
0.0
 11
-913.81708764577195
 21
85.999999999999986
 31
0.0
  0
LINE
  5
E1
  8
1
 62
     7
 10
-943.51708764577199
 20
41.657417070385513
 30
0.0
 11
-943.51708764577199
 21
0.0
 31
0.0
  0
LINE
  5
E2
  8
1
 62
     7
 10
-924.81708764577184
 20
88.999999999999986
 30
0.0
 11
-924.81708764577184
 21
0.0
 31
0.0
  0
LINE
  5
E3
  8
1
 62
     7
 10
-916.81708764577195
 20
88.999999999999986
 30
0.0
 11
-916.81708764577195
 21
0.0
 31
0.0
  0
LINE
  5
E4
  8
1
 62
     7
 10
-913.81708764577195
 20
85.999999999999986
 30
0.0
 11
-913.81708764577195
 21
0.0
 31
0.0
  0
LINE
  5
E5
  8
1
 62
     7
 10
-913.31708764577195
 20
46.399999999999991
 30
0.0
 11
-913.31708764577195
 21
0.0
 31
0.0
  0
LINE
  5
E6
  8
1
 62
     7
 10
-924.81708764577184
 20
98.500000000000014
 30
0.0
 11
-987.31708764577184
 21
98.500000000000014
 31
0.0
  0
LINE
  5
E7
  8
1
 62
     7
 10
-943.51708764577199
 20
88.150000000000034
 30
0.0
 11
-944.81708764577184
 21
88.150000000000034
 31
0.0
  0
LINE
  5
E8
  8
1
 62
     7
 10
-943.51708764577199
 20
38.521116071557813
 30
0.0
 11
-944.81708764577184
 21
38.521116071557813
 31
0.0
  0
LINE
  5
E9
  8
1
 62
     7
 10
-924.81708764577184
 20
38.521116071557771
 30
0.0
 11
-926.81708764577195
 21
38.521116071557771
 31
0.0
  0
LINE
  5
EA
  8
1
 62
     7
 10
-926.81708764577195
 20
41.657417070385513
 30
0.0
 11
-943.51708764577199
 21
41.657417070385513
 31
0.0
  0
LINE
  5
EB
  8
1
 62
     7
 10
-924.81708764577184
 20
42.409915906959739
 30
0.0
 11
-944.81708764577184
 21
42.409915906959739
 31
0.0
  0
LINE
  5
EC
  8
1
 62
     7
 10
-926.81708764577195
 20
0.0
 30
0.0
 11
-926.81708764577195
 21
41.657417070385513
 31
0.0
  0
LINE
  5
ED
  8
1
 62
     7
 10
-924.81708764577184
 20
56.266322367510632
 30
0.0
 11
-944.81708764577184
 21
56.266322367510632
 31
0.0
  0
LINE
  5
EE
  8
1
 62
     7
 10
-926.81708764577195
 20
97.5
 30
0.0
 11
-926.81708764577195
 21
56.266322367510632
 31
0.0
  0
LINE
  5
EF
  8
1
 62
     7
 10
-943.51708764577199
 20
97.5
 30
0.0
 11
-943.51708764577199
 21
56.266322367510597
 31
0.0
  0
LINE
  5
F0
  8
1
 62
     7
 10
-944.81708764577184
 20
42.409915906959739
 30
0.0
 11
-944.81708764577184
 21
0.0
 31
0.0
  0
LINE
  5
F1
  8
1
 62
     7
 10
-944.81708764577184
 20
98.500000000000014
 30
0.0
 11
-944.81708764577184
 21
56.266322367510632
 31
0.0
  0
LINE
  5
F2
  8
1
 62
     7
 10
-943.51708764577199
 20
90.396695182954559
 30
0.0
 11
-944.81708764577184
 21
90.396695182954559
 31
0.0
  0
LINE
  5
F3
  8
1
 62
     7
 10
-924.81708764577184
 20
98.500000000000014
 30
0.0
 11
-924.81708764577184
 21
90.396695182954559
 31
0.0
  0
LINE
  5
F4
  8
1
 62
     7
 10
-924.81708764577184
 20
88.999999999999986
 30
0.0
 11
-926.81708764577195
 21
88.999999999999986
 31
0.0
  0
LINE
  5
F5
  8
1
 62
     7
 10
-924.81708764577184
 20
90.396695182954559
 30
0.0
 11
-926.81708764577195
 21
90.396695182954517
 31
0.0
  0
LINE
  5
F6
  8
1
 62
     3
 10
-943.51708764577199
 20
56.266322367510597
 30
0.0
 11
-926.81708764577195
 21
97.5
 31
0.0
  0
LINE
  5
F7
  8
1
 62
     3
 10
-943.51708764577199
 20
97.5
 30
0.0
 11
-926.81708764577195
 21
56.266322367510632
 31
0.0
  0
LINE
  5
F8
  8
1
 62
     7
 10
-989.31708764577195
 20
96.5
 30
0.0
 11
-987.31708764577184
 21
98.500000000000014
 31
0.0
  0
LINE
  5
F9
  8
1
 62
     7
 10
-987.31708764577184
 20
0.0
 30
0.0
 11
-987.31708764577184
 21
98.500000000000014
 31
0.0
  0
LINE
  5
FA
  8
1
 62
     7
 10
-989.31708764577195
 20
96.5
 30
0.0
 11
-989.31708764577195
 21
0.0
 31
0.0
  0
LINE
  5
FB
  8
1
 62
     7
 10
-678.0
 20
90.0
 30
0.0
 11
-662.0
 21
90.0
 31
0.0
  0
LINE
  5
FC
  8
1
 62
     7
 10
-662.0
 20
98.174589380348323
 30
0.0
 11
-662.0
 21
90.0
 31
0.0
  0
LINE
  5
FD
  8
1
 62
     7
 10
-678.0
 20
90.0
 30
0.0
 11
-678.0
 21
98.174589380348323
 31
0.0
  0
LINE
  5
FE
  8
1
 62
     7
 10
-751.94228634059948
 20
38.071796769724422
 30
0.0
 11
-743.94228634059948
 21
51.928203230275471
 31
0.0
  0
LINE
  5
FF
  8
1
 62
     7
 10
-751.02168840948741
 20
56.015497920449647
 30
0.0
 11
-743.94228634059948
 21
51.928203230275471
 31
0.0
  0
LINE
  5
100
  8
1
 62
     7
 10
-751.94228634059948
 20
38.071796769724422
 30
0.0
 11
-759.02168840948741
 21
42.159091459898598
 31
0.0
  0
LINE
  5
101
  8
1
 62
     7
 10
-743.94228634059937
 20
-51.928203230275592
 30
0.0
 11
-751.94228634059925
 21
-38.071796769724521
 31
0.0
  0
LINE
  5
102
  8
1
 62
     7
 10
-759.02168840948741
 20
-42.159091459898598
 30
0.0
 11
-751.94228634059925
 21
-38.071796769724521
 31
0.0
  0
LINE
  5
103
  8
1
 62
     7
 10
-743.94228634059937
 20
-51.928203230275592
 30
0.0
 11
-751.02168840948741
 21
-56.01549792044954
 31
0.0
  0
LINE
  5
104
  8
1
 62
     7
 10
-661.99999999999989
 20
-90.0
 30
0.0
 11
-678.0
 21
-90.0
 31
0.0
  0
LINE
  5
105
  8
1
 62
     7
 10
-678.0
 20
-98.17458938034828
 30
0.0
 11
-678.0
 21
-90.0
 31
0.0
  0
LINE
  5
106
  8
1
 62
     7
 10
-661.99999999999989
 20
-90.0
 30
0.0
 11
-662.0
 21
-98.17458938034828
 31
0.0
  0
LINE
  5
107
  8
1
 62
     7
 10
-588.05771365940041
 20
-38.071796769724422
 30
0.0
 11
-596.05771365940052
 21
-51.928203230275592
 31
0.0
  0
LINE
  5
108
  8
1
 62
     7
 10
-588.97831159051248
 20
-56.015497920449782
 30
0.0
 11
-596.05771365940052
 21
-51.928203230275592
 31
0.0
  0
LINE
  5
109
  8
1
 62
     7
 10
-588.05771365940041
 20
-38.071796769724422
 30
0.0
 11
-580.97831159051236
 21
-42.159091459898711
 31
0.0
  0
LINE
  5
10A
  8
1
 62
     7
 10
-596.05771365940052
 20
51.928203230275592
 30
0.0
 11
-588.05771365940041
 21
38.071796769724422
 31
0.0
  0
LINE
  5
10B
  8
1
 62
     7
 10
-580.97831159051236
 20
42.159091459898491
 30
0.0
 11
-588.05771365940041
 21
38.071796769724422
 31
0.0
  0
LINE
  5
10C
  8
1
 62
     7
 10
-596.05771365940052
 20
51.928203230275592
 30
0.0
 11
-588.97831159051236
 21
56.015497920449491
 31
0.0
  0
LINE
  5
10D
  8
1
  6
DASHDOT
 62
     3
 10
-583.83047232344825
 20
49.749999999999993
 30
0.0
 11
-596.38784067832273
 21
42.499999999999993
 31
0.0
  0
LINE
  5
10E
  8
1
  6
DASHDOT
 62
     3
 10
-743.61215932167715
 20
42.499999999999993
 30
0.0
 11
-756.16952767655164
 21
49.749999999999993
 31
0.0
  0
LINE
  5
10F
  8
1
  6
DASHDOT
 62
     3
 10
-596.38784067832273
 20
-42.499999999999993
 30
0.0
 11
-583.83047232344825
 21
-49.749999999999993
 31
0.0
  0
LINE
  5
110
  8
1
  6
DASHDOT
 62
     3
 10
-756.16952767655164
 20
-49.749999999999993
 30
0.0
 11
-743.61215932167715
 21
-42.499999999999993
 31
0.0
  0
LINE
  5
111
  8
1
 62
     7
 10
-679.0
 20
33.0
 30
0.0
 11
-679.0
 21
28.61817604250837
 31
0.0
  0
LINE
  5
112
  8
1
 62
     7
 10
-679.0
 20
33.0
 30
0.0
 11
-661.0
 21
33.0
 31
0.0
  0
LINE
  5
113
  8
1
 62
     7
 10
-661.0
 20
33.0
 30
0.0
 11
-661.0
 21
28.618176042508381
 31
0.0
  0
LINE
  5
114
  8
1
 62
     7
 10
-673.0
 20
145.640342118072
 30
0.0
 11
-670.0
 21
145.640342118072
 31
0.0
  0
LINE
  5
115
  8
1
 62
     7
 10
-667.0
 20
145.640342118072
 30
0.0
 11
-667.0
 21
126.494651905886
 31
0.0
  0
LINE
  5
116
  8
1
 62
     7
 10
-667.0
 20
122.771878809073
 30
0.0
 11
-667.0
 21
98.462019229793697
 31
0.0
  0
LINE
  5
117
  8
1
 62
     7
 10
-673.0
 20
98.462019229793697
 30
0.0
 11
-673.0
 21
122.771878809073
 31
0.0
  0
LINE
  5
118
  8
1
 62
     7
 10
-673.0
 20
145.640342118072
 30
0.0
 11
-673.0
 21
126.494651905886
 31
0.0
  0
LINE
  5
119
  8
1
 62
     7
 10
-670.0
 20
145.640342118072
 30
0.0
 11
-670.0
 21
126.494651905886
 31
0.0
  0
LINE
  5
11A
  8
1
 62
     7
 10
-670.0
 20
122.771878809073
 30
0.0
 11
-670.0
 21
98.500000000000014
 31
0.0
  0
LINE
  5
11B
  8
1
 62
     7
 10
-670.0
 20
145.640342118072
 30
0.0
 11
-667.0
 21
145.640342118072
 31
0.0
  0
LINE
  5
11C
  8
1
 62
     7
 10
-668.0999999999998
 20
145.640342118072
 30
0.0
 11
-668.0999999999998
 21
150.640342118072
 31
0.0
  0
LINE
  5
11D
  8
1
 62
     7
 10
-668.30000000000007
 20
145.640342118072
 30
0.0
 11
-668.30000000000007
 21
150.640342118072
 31
0.0
  0
LINE
  5
11E
  8
1
 62
     7
 10
-668.5
 20
145.640342118072
 30
0.0
 11
-668.5
 21
150.640342118072
 31
0.0
  0
LINE
  5
11F
  8
1
 62
     7
 10
-668.70000000000016
 20
145.640342118072
 30
0.0
 11
-668.70000000000016
 21
150.640342118072
 31
0.0
  0
LINE
  5
120
  8
1
 62
     7
 10
-668.90000000000009
 20
145.640342118072
 30
0.0
 11
-668.90000000000009
 21
150.640342118072
 31
0.0
  0
LINE
  5
121
  8
1
 62
     7
 10
-671.0999999999998
 20
145.640342118072
 30
0.0
 11
-671.0999999999998
 21
150.640342118072
 31
0.0
  0
LINE
  5
122
  8
1
 62
     7
 10
-671.30000000000007
 20
145.640342118072
 30
0.0
 11
-671.30000000000007
 21
150.640342118072
 31
0.0
  0
LINE
  5
123
  8
1
 62
     7
 10
-671.49999999999989
 20
145.640342118072
 30
0.0
 11
-671.49999999999989
 21
150.640342118072
 31
0.0
  0
LINE
  5
124
  8
1
 62
     7
 10
-671.70000000000005
 20
145.640342118072
 30
0.0
 11
-671.70000000000005
 21
150.640342118072
 31
0.0
  0
LINE
  5
125
  8
1
 62
     7
 10
-671.9000000000002
 20
145.640342118072
 30
0.0
 11
-671.9000000000002
 21
150.640342118072
 31
0.0
  0
LINE
  5
126
  8
1
 62
     3
 10
-943.51708764577199
 20
41.657417070385513
 30
0.0
 11
-926.81708764577195
 21
-41.657417070385513
 31
0.0
  0
LINE
  5
127
  8
1
 62
     3
 10
-943.51708764577199
 20
-41.657417070385513
 30
0.0
 11
-926.81708764577195
 21
41.657417070385513
 31
0.0
  0
LINE
  5
128
  8
1
 62
     7
 10
-849.31708764577184
 20
89.000000000000014
 30
0.0
 11
-835.81708764577184
 21
89.000000000000014
 31
0.0
  0
LINE
  5
129
  8
1
 62
     7
 10
-880.31708764577195
 20
82.0
 30
0.0
 11
-862.31708764577195
 21
82.0
 31
0.0
  0
LINE
  5
12A
  8
1
 62
     7
 10
-862.31708764577195
 20
82.0
 30
0.0
 11
-862.31708764577195
 21
74.0
 31
0.0
  0
LINE
  5
12B
  8
1
 62
     7
 10
-862.31708764577195
 20
74.0
 30
0.0
 11
-880.31708764577195
 21
74.0
 31
0.0
  0
LINE
  5
12C
  8
1
 62
     7
 10
-862.31708764577195
 20
82.0
 30
0.0
 11
-859.43033629982392
 21
78.0
 31
0.0
  0
LINE
  5
12D
  8
1
 62
     7
 10
-859.43033629982392
 20
78.0
 30
0.0
 11
-862.31708764577195
 21
74.0
 31
0.0
  0
LINE
  5
12E
  8
1
 62
     3
 10
-880.31708764577195
 20
83.0
 30
0.0
 11
-870.31708764577195
 21
83.0
 31
0.0
  0
LINE
  5
12F
  8
1
 62
     3
 10
-870.31708764577195
 20
83.0
 30
0.0
 11
-870.31708764577195
 21
73.0
 31
0.0
  0
LINE
  5
130
  8
1
 62
     3
 10
-870.31708764577195
 20
73.0
 30
0.0
 11
-880.31708764577195
 21
73.0
 31
0.0
  0
LINE
  5
131
  8
1
 62
     3
 10
-870.31708764577195
 20
83.0
 30
0.0
 11
-868.58503683820322
 21
82.0
 31
0.0
  0
LINE
  5
132
  8
1
 62
     3
 10
-870.31708764577195
 20
73.0
 30
0.0
 11
-868.58503683820322
 21
74.0
 31
0.0
  0
LINE
  5
133
  8
1
  6
DASHDOT
 62
     3
 10
-882.31708764577206
 20
78.0
 30
0.0
 11
-857.43033629982392
 21
78.0
 31
0.0
  0
LINE
  5
134
  8
1
 62
     7
 10
-862.31708764577195
 20
-82.0
 30
0.0
 11
-880.31708764577195
 21
-82.0
 31
0.0
  0
LINE
  5
135
  8
1
 62
     7
 10
-862.31708764577195
 20
-74.0
 30
0.0
 11
-862.31708764577195
 21
-82.0
 31
0.0
  0
LINE
  5
136
  8
1
 62
     7
 10
-880.31708764577195
 20
-74.0
 30
0.0
 11
-862.31708764577195
 21
-74.0
 31
0.0
  0
LINE
  5
137
  8
1
 62
     7
 10
-859.43033629982392
 20
-78.0
 30
0.0
 11
-862.31708764577195
 21
-82.0
 31
0.0
  0
LINE
  5
138
  8
1
 62
     7
 10
-862.31708764577195
 20
-74.0
 30
0.0
 11
-859.43033629982392
 21
-78.0
 31
0.0
  0
LINE
  5
139
  8
1
 62
     3
 10
-870.31708764577195
 20
-83.0
 30
0.0
 11
-880.31708764577195
 21
-83.0
 31
0.0
  0
LINE
  5
13A
  8
1
 62
     3
 10
-870.31708764577195
 20
-73.0
 30
0.0
 11
-870.31708764577195
 21
-83.0
 31
0.0
  0
LINE
  5
13B
  8
1
 62
     3
 10
-880.31708764577195
 20
-73.0
 30
0.0
 11
-870.31708764577195
 21
-73.0
 31
0.0
  0
LINE
  5
13C
  8
1
 62
     3
 10
-868.58503683820322
 20
-82.0
 30
0.0
 11
-870.31708764577195
 21
-83.0
 31
0.0
  0
LINE
  5
13D
  8
1
 62
     3
 10
-868.58503683820322
 20
-74.0
 30
0.0
 11
-870.31708764577195
 21
-73.0
 31
0.0
  0
LINE
  5
13E
  8
1
  6
DASHDOT
 62
     3
 10
-857.43033629982392
 20
-78.0
 30
0.0
 11
-882.31708764577206
 21
-78.0
 31
0.0
  0
LINE
  5
13F
  8
1
  6
DASHDOT
 62
     3
 10
-670.0
 20
25.0
 30
0.0
 11
-670.0
 21
-25.0
 31
0.0
  0
LINE
  5
140
  8
1
  6
DASHDOT
 62
     3
 10
-695.0
 20
0.0
 30
0.0
 11
-645.0
 21
0.0
 31
0.0
  0
LINE
  5
141
  8
1
  6
DASHDOT
 62
     3
 10
-880.31708764577195
 20
0.0
 30
0.0
 11
-884.94859937789386
 21
0.0
 31
0.0
  0
LINE
  5
142
  8
1
  6
DASHDOT
 62
     3
 10
-989.31708764577195
 20
0.0
 30
0.0
 11
-994.29598008955588
 21
0.0
 31
0.0
  0
LINE
  5
143
  8
1
  6
DASHDOT
 62
     3
 10
-1101.1519853711529
 20
0.0
 30
0.0
 11
-1151.1519853711541
 21
0.0
 31
0.0
  0
LINE
  5
144
  8
1
  6
DASHDOT
 62
     3
 10
-1126.1519853711541
 20
25.0
 30
0.0
 11
-1126.1519853711541
 21
-25.0
 31
0.0
  0
ARC
  5
145
  8
1
 62
     7
 10
-863.06708764577195
 20
122.4973595792794
 30
0.0
 40
0.8125
 50
22.61986494804043
 51
157.3801350519596
  0
ARC
  5
146
  8
1
 62
     7
 10
-861.56708764577195
 20
122.4973595792794
 30
0.0
 40
0.8125
 50
22.61986494804043
 51
157.3801350519596
  0
ARC
  5
147
  8
1
 62
     7
 10
-861.56708764577195
 20
123.1223595792794
 30
0.0
 40
0.8125
 50
202.6198649480404
 51
337.38013505195948
  0
ARC
  5
148
  8
1
 62
     7
 10
-863.06708764577195
 20
125.5730946629842
 30
0.0
 40
0.8125
 50
202.6198649480404
 51
337.38013505195948
  0
ARC
  5
149
  8
1
 62
     7
 10
-863.06708764577195
 20
124.9480946629842
 30
0.0
 40
0.8125
 50
22.61986494804043
 51
157.3801350519596
  0
ARC
  5
14A
  8
1
 62
     7
 10
-861.56708764577195
 20
125.5730946629842
 30
0.0
 40
0.8125
 50
202.6198649480404
 51
337.38013505195948
  0
ARC
  5
14B
  8
1
 62
     7
 10
-1127.6519853711541
 20
122.146878809073
 30
0.0
 40
1.625
 50
22.61986494804043
 51
157.3801350519596
  0
ARC
  5
14C
  8
1
 62
     7
 10
-1124.6519853711541
 20
122.146878809073
 30
0.0
 40
1.625
 50
22.61986494804043
 51
157.3801350519596
  0
ARC
  5
14D
  8
1
 62
     7
 10
-1124.6519853711541
 20
123.396878809073
 30
0.0
 40
1.625
 50
202.6198649480404
 51
337.38013505195948
  0
ARC
  5
14E
  8
1
 62
     7
 10
-1127.6519853711541
 20
127.119651905886
 30
0.0
 40
1.625
 50
202.6198649480404
 51
337.38013505195948
  0
ARC
  5
14F
  8
1
 62
     7
 10
-1124.6519853711541
 20
127.119651905886
 30
0.0
 40
1.625
 50
202.6198649480404
 51
337.38013505195948
  0
ARC
  5
150
  8
1
 62
     7
 10
-1127.6519853711541
 20
125.869651905886
 30
0.0
 40
1.625
 50
22.61986494804043
 51
157.3801350519596
  0
ARC
  5
151
  8
1
 62
     7
 10
-1126.1519853711541
 20
0.0
 30
0.0
 40
30.0
 50
107.45760312372209
 51
72.54239687627792
  0
ARC
  5
152
  8
1
 62
     7
 10
-972.06708764577184
 20
122.4973595792794
 30
0.0
 40
0.8125
 50
22.61986494804043
 51
157.3801350519596
  0
ARC
  5
153
  8
1
 62
     7
 10
-970.56708764577195
 20
122.4973595792794
 30
0.0
 40
0.8125
 50
22.61986494804043
 51
157.3801350519596
  0
ARC
  5
154
  8
1
 62
     7
 10
-970.56708764577195
 20
123.1223595792794
 30
0.0
 40
0.8125
 50
202.6198649480404
 51
337.38013505195948
  0
ARC
  5
155
  8
1
 62
     7
 10
-972.06708764577184
 20
125.5730946629842
 30
0.0
 40
0.8125
 50
202.6198649480404
 51
337.38013505195948
  0
ARC
  5
156
  8
1
 62
     7
 10
-972.06708764577184
 20
124.9480946629842
 30
0.0
 40
0.8125
 50
22.61986494804043
 51
157.3801350519596
  0
ARC
  5
157
  8
1
 62
     7
 10
-970.56708764577195
 20
125.5730946629842
 30
0.0
 40
0.8125
 50
202.6198649480404
 51
337.38013505195948
  0
ARC
  5
158
  8
1
 62
     7
 10
-670.0
 20
0.0
 30
0.0
 40
90.750000000000014
 50
84.942567538097563
 51
95.057432461902422
  0
ARC
  5
159
  8
1
 62
     7
 10
-670.0
 20
0.0
 30
0.0
 40
90.749999999999858
 50
144.94256753809751
 51
155.05743246190241
  0
ARC
  5
15A
  8
1
 62
     7
 10
-670.0
 20
0.0
 30
0.0
 40
90.749999999999929
 50
204.94256753809759
 51
215.05743246190229
  0
ARC
  5
15B
  8
1
 62
     7
 10
-670.0
 20
0.0
 30
0.0
 40
90.750000000000014
 50
264.94256753809748
 51
275.05743246190229
  0
ARC
  5
15C
  8
1
 62
     7
 10
-670.0
 20
0.0
 30
0.0
 40
90.750000000000043
 50
324.94256753809742
 51
335.05743246190241
  0
ARC
  5
15D
  8
1
 62
     7
 10
-670.0
 20
0.0
 30
0.0
 40
90.750000000000085
 50
24.942567538097499
 51
35.05743246190238
  0
ARC
  5
15E
  8
1
 62
     7
 10
-670.0
 20
0.0
 30
0.0
 40
97.5
 50
34.70648327188308
 51
85.293516728116856
  0
ARC
  5
15F
  8
1
 62
     7
 10
-670.0
 20
0.0
 30
0.0
 40
97.499999999999957
 50
154.706483271883
 51
180.0
  0
ARC
  5
160
  8
1
 62
     7
 10
-670.0
 20
0.0
 30
0.0
 40
97.5
 50
94.706483271883144
 51
145.2935167281168
  0
ARC
  5
161
  8
1
 62
     7
 10
-670.0
 20
0.0
 30
0.0
 40
97.5
 50
180.0
 51
205.29351672811691
  0
ARC
  5
162
  8
1
 62
     7
 10
-670.0
 20
0.0
 30
0.0
 40
97.500000000000057
 50
214.70648327188309
 51
265.29351672811691
  0
ARC
  5
163
  8
1
 62
     7
 10
-670.0
 20
0.0
 30
0.0
 40
97.5
 50
274.70648327188297
 51
325.29351672811669
  0
ARC
  5
164
  8
1
 62
     7
 10
-670.0
 20
0.0
 30
0.0
 40
97.499999999999957
 50
334.70648327188297
 51
25.293516728116771
  0
ARC
  5
165
  8
1
 62
     7
 10
-670.0
 20
0.0
 30
0.0
 40
30.0
 50
107.45760312372209
 51
72.54239687627792
  0
ARC
  5
166
  8
1
 62
     7
 10
-671.49999999999989
 20
122.146878809073
 30
0.0
 40
1.625
 50
22.61986494804043
 51
157.3801350519596
  0
ARC
  5
167
  8
1
 62
     7
 10
-668.5
 20
122.146878809073
 30
0.0
 40
1.625
 50
22.61986494804043
 51
157.3801350519596
  0
ARC
  5
168
  8
1
 62
     7
 10
-668.5
 20
123.396878809073
 30
0.0
 40
1.625
 50
202.6198649480404
 51
337.38013505195948
  0
ARC
  5
169
  8
1
 62
     7
 10
-671.49999999999989
 20
127.119651905886
 30
0.0
 40
1.625
 50
202.6198649480404
 51
337.38013505195948
  0
ARC
  5
16A
  8
1
 62
     7
 10
-668.5
 20
127.119651905886
 30
0.0
 40
1.625
 50
202.6198649480404
 51
337.38013505195948
  0
ARC
  5
16B
  8
1
 62
     7
 10
-671.49999999999989
 20
125.869651905886
 30
0.0
 40
1.625
 50
22.61986494804043
 51
157.3801350519596
  0
CIRCLE
  5
16C
  8
1
 62
     7
 10
-1126.1519853711541
 20
0.0
 30
0.0
 40
37.5
  0
CIRCLE
  5
16D
  8
1
 62
     7
 10
-1126.1519853711541
 20
0.0
 30
0.0
 40
53.0
  0
CIRCLE
  5
16E
  8
1
 62
     7
 10
-1126.1519853711541
 20
0.0
 30
0.0
 40
98.500000000000014
  0
CIRCLE
  5
16F
  8
1
  6
DASHDOT
 62
     3
 10
-1126.1519853711541
 20
0.0
 30
0.0
 40
78.0
  0
CIRCLE
  5
170
  8
1
 62
     3
 10
-1126.1519853711541
 20
78.0
 30
0.0
 40
5.0
  0
CIRCLE
  5
171
  8
1
 62
     7
 10
-1126.1519853711541
 20
78.0
 30
0.0
 40
4.0
  0
CIRCLE
  5
172
  8
1
 62
     3
 10
-1193.701966866339
 20
39.000000000000028
 30
0.0
 40
4.9999999999999982
  0
CIRCLE
  5
173
  8
1
 62
     7
 10
-1193.701966866339
 20
39.000000000000028
 30
0.0
 40
3.999999999999996
  0
CIRCLE
  5
174
  8
1
 62
     3
 10
-1193.701966866339
 20
-38.999999999999957
 30
0.0
 40
4.999999999999992
  0
CIRCLE
  5
175
  8
1
 62
     7
 10
-1193.701966866339
 20
-38.999999999999957
 30
0.0
 40
4.0000000000000071
  0
CIRCLE
  5
176
  8
1
 62
     3
 10
-1126.1519853711541
 20
-78.000000000000014
 30
0.0
 40
5.0
  0
CIRCLE
  5
177
  8
1
 62
     7
 10
-1126.1519853711541
 20
-78.000000000000014
 30
0.0
 40
4.0
  0
CIRCLE
  5
178
  8
1
 62
     3
 10
-1058.602003875968
 20
-39.000000000000071
 30
0.0
 40
4.999999999999992
  0
CIRCLE
  5
179
  8
1
 62
     7
 10
-1058.602003875968
 20
-39.000000000000071
 30
0.0
 40
3.999999999999996
  0
CIRCLE
  5
17A
  8
1
 62
     3
 10
-1058.602003875968
 20
38.999999999999929
 30
0.0
 40
5.0000000000000044
  0
CIRCLE
  5
17B
  8
1
 62
     7
 10
-1058.602003875968
 20
38.999999999999929
 30
0.0
 40
4.0000000000000071
  0
CIRCLE
  5
17C
  8
1
 62
     7
 10
-670.0
 20
0.0
 30
0.0
 40
98.500000000000014
  0
CIRCLE
  5
17D
  8
1
 62
     7
 10
-670.0
 20
0.0
 30
0.0
 40
89.0
  0
CIRCLE
  5
17E
  8
1
 62
     7
 10
-670.0
 20
0.0
 30
0.0
 40
86.0
  0
CIRCLE
  5
17F
  8
1
 62
     7
 10
-670.0
 20
0.0
 30
0.0
 40
46.399999999999977
  0
CIRCLE
  5
180
  8
1
 62
     7
 10
-670.0
 20
0.0
 30
0.0
 40
47.399999999999977
  0
CIRCLE
  5
181
  8
1
 62
     7
 10
-670.0
 20
0.0
 30
0.0
 40
54.0
  0
CIRCLE
  5
182
  8
1
 62
     7
 10
-1126.1519853711541
 20
0.0
 30
0.0
 40
96.5
  0
TEXT
  5
184
  8
1
 62
     7
 10
-1225.3768804507699
 20
149.9130080849659
 30
0.0
 40
8.0
  1
MDB 40
 41
0.9
  7
SIMPLEX
 72
     1
 11
-1204.9768804507701
 21
149.9130080849659
 31
0.0
  0
ENDSEC
  0
EOF
