  0
SECTION
  2
HEADER
  9
$ACADVER
  1
AC1009
  9
$INSBASE
 10
0
 20
0
  9
$EXTMIN
 10
-1226.87428631853
 20
-98.5
  9
$EXTMAX
 10
-571.5
 20
157.913008084966
  9
$LIMMIN
 10
-1226.87428631853
 20
-98.5
  9
$LIMMAX
 10
-571.5
 20
157.913008084966
  9
$VIEWCTR
 10
10
 20
10
  9
$VIEWSIZE
 40
10
  9
$SNAPMODE
 70
0
  9
$SNAPUNIT
 10
1
 20
1
  9
$SNAPBASE
 10
0
 20
0
  9
$SNAPANG
 50
0
  9
$SNAPSTYLE
 70
0
  9
$SNAPISOPAIR
 70
0
  9
$GRIDMODE
 70
0
  9
$GRIDUNIT
 10
0
 20
0
  9
$ORTHOMODE
 70
0
  9
$REGENMODE
 70
1
  9
$FILLMODE
 70
1
  9
$QTEXTMODE
 70
0
  9
$DRAGMODE
 70
2
  9
$LTSCALE
 40
1
  9
$OSMODE
 70
0
  9
$ATTMODE
 70
1
  9
$TEXTSIZE
 40
3.5
  9
$TRACEWID
 40
0.5
  9
$TEXTSTYLE
  7
STANDARD
  9
$CLAYER
  8
0
  9
$CELTYPE
  6
BYLAYER
  9
$CECOLOR
 62
256
  9
$DIMSCALE
 40
1
  9
$DIMASZ
 40
0.18
  9
$DIMEXO
 40
0.0625
  9
$DIMDLI
 40
0.38
  9
$DIMRND
 40
0
  9
$DIMDLE
 40
0
  9
$DIMEXE
 40
0.18
  9
$DIMTP
 40
0
  9
$DIMTM
 40
0
  9
$DIMTXT
 40
0.18
  9
$DIMCEN
 40
0.09
  9
$DIMTSZ
 40
0
  9
$DIMTOL
 70
0
  9
$DIMLIM
 70
0
  9
$DIMTIH
 70
1
  9
$DIMTOH
 70
1
  9
$DIMSE1
 70
0
  9
$DIMSE2
 70
0
  9
$DIMTAD
 70
0
  9
$DIMZIN
 70
0
  9
$DIMBLK
  1

  9
$DIMASO
 70
1
  9
$DIMSHO
 70
1
  9
$DIMPOST
  1

  9
$DIMAPOST
  1

  9
$DIMALT
 70
0
  9
$DIMALTD
 70
2
  9
$DIMALTF
 40
25.4
  9
$DIMLFAC
 40
1
  9
$DIMTOFL
 70
0
  9
$DIMTVP
 40
0
  9
$DIMTIX
 70
0
  9
$DIMSOXD
 70
0
  9
$DIMSAH
 70
0
  9
$DIMBLK1
  1

  9
$DIMBLK2
  1

  9
$DIMSTYLE
  2
*UNNAMED
  9
$DIMCLRD
 70
0
  9
$DIMCLRE
 70
0
  9
$DIMCLRT
 70
0
  9
$DIMTFAC
 40
1
  9
$DIMGAP
 40
0.09
  9
$LUNITS
 70
2
  9
$LUPREC
 70
4
  9
$AXISMODE
 70
0
  9
$AXISUNIT
 10
0
 20
0
  9
$SKETCHINC
 40
0.1
  9
$FILLETRAD
 40
2
  9
$AUNITS
 70
0
  9
$AUPREC
 70
0
  9
$MENU
  1
ACAD
  9
$ELEVATION
 40
0
  9
$THICKNESS
 40
0
  9
$VIEWDIR
 10
0
 20
0
 30
1
  9
$LIMCHECK
 70
0
  9
$BLIPMODE
 70
1
  9
$CHAMFERA
 40
0
  9
$CHAMFERB
 40
0
  9
$FASTZOOM
 70
1
  9
$SKPOLY
 70
0
  9
$ANGBASE
 50
0
  9
$ANGDIR
 70
0
  9
$PDMODE
 70
0
  9
$PDSIZE
 40
0
  9
$PLINEWID
 40
0
  9
$COORDS
 70
2
  0
ENDSEC
  0
SECTION
  2
TABLES
  0
TABLE
  2
DIMSTYLE
 70
0
  0
ENDTAB
  0
TABLE
  2
LTYPE
 70
9
  0
LTYPE
  2
CONTINUOUS
 70
64
  3
Solid line
 72
65
 73
0
 40
0
  0
LTYPE
  2
BORDER
 70
64
  3
__ __ . __ __ .
 72
65
 73
6
 40
30.18171055414283
 49
8.623345872612237
 49
-4.311672936306119
 49
8.623345872612237
 49
-4.311672936306119
 49
0
 49
-4.311672936306119
  0
LTYPE
  2
CENTER
 70
64
  3
____ _ ____ _
 72
65
 73
4
 40
34.49338349044895
 49
21.55836468153059
 49
-4.311672936306119
 49
4.311672936306119
 49
-4.311672936306119
  0
LTYPE
  2
DASHDOT
 70
64
  3
__ . __ . __ .
 72
65
 73
4
 40
17.24669174522447
 49
8.623345872612237
 49
-4.311672936306119
 49
0
 49
-4.311672936306119
  0
LTYPE
  2
DASHED
 70
64
  3
__ __ __ __ __
 72
65
 73
2
 40
12.93501880891836
 49
8.623345872612237
 49
-4.311672936306119
  0
LTYPE
  2
DIVIDE
 70
64
  3
__ . . __ . . 
 72
65
 73
6
 40
21.55836468153059
 49
8.623345872612237
 49
-4.311672936306119
 49
0
 49
-4.311672936306119
 49
0
 49
-4.311672936306119
  0
LTYPE
  2
DOT
 70
64
  3
..............
 72
65
 73
4
 40
8.623345872612237
 49
0
 49
-4.311672936306119
 49
0
 49
-4.311672936306119
  0
LTYPE
  2
HIDDEN
 70
64
  3
_ _ _ _ _ _ _
 72
65
 73
2
 40
6.467509404459178
 49
4.311672936306119
 49
-2.155836468153059
  0
LTYPE
  2
PHANTOM
 70
64
  3
_____ _ _ _____ _ _ 
 72
65
 73
6
 40
43.11672936306118
 49
21.55836468153059
 49
-4.311672936306119
 49
4.311672936306119
 49
-4.311672936306119
 49
4.311672936306119
 49
-4.311672936306119
  0
ENDTAB
  0
TABLE
  2
LAYER
 70
3
  0
LAYER
  2
1
 70
0
 62
7
  6
CONTINUOUS
  0
LAYER
  2
0
 70
0
 62
7
  6
CONTINUOUS
  0
ENDTAB
  0
TABLE
  2
STYLE
 70
4
  0
STYLE
  2
STANDARD
 70
0
 40
0
 41
1
 50
0
 71
0
 42
3.5
  3
txt
  4

  0
STYLE
  2
SIMPLEX
 70
0
 40
0
 41
1
 50
0
 71
0
 42
3.5
  3
simplex
  4

  0
STYLE
  2
COMPLEX
 70
0
 40
0
 41
1
 50
0
 71
0
 42
3.5
  3
complex
  4

  0
STYLE
  2
ITALIC
 70
0
 40
0
 41
1
 50
0
 71
0
 42
3.5
  3
italic
  4

  0
ENDTAB
  0
TABLE
  2
VIEW
 70
0
  0
ENDTAB
  0
ENDSEC
  0
SECTION
  2
BLOCKS
  0
ENDSEC
  0
SECTION
  2
ENTITIES
  0
LINE
  8
1
 62
7
 10
-804.3170876457721
 20
46.39999999999999
 30
0
 11
-804.3170876457721
 21
0
 31
0
  0
LINE
  8
1
 62
3
 10
-815.8170876457721
 20
43
 30
0
 11
-834.5170876457719
 21
97.50000000000001
 31
0
  0
LINE
  8
1
 62
3
 10
-834.5170876457719
 20
43
 30
0
 11
-817.8170876457721
 21
97.50000000000001
 31
0
  0
LINE
  8
1
 62
7
 10
-847.5170876457719
 20
78.50000000000003
 30
0
 11
-846.5170876457719
 21
78.50000000000003
 31
0
  0
LINE
  8
1
 62
7
 10
-847.5170876457719
 20
78.50000000000003
 30
0
 11
-847.5170876457719
 21
88.15000000000002
 31
0
  0
LINE
  8
1
 62
7
 10
-847.5170876457719
 20
88.15000000000002
 30
0
 11
-834.5170876457719
 21
88.15000000000002
 31
0
  0
LINE
  8
1
 62
7
 10
-861.3170876457721
 20
39
 30
0
 11
-834.5170876457719
 21
39
 31
0
  0
LINE
  8
1
 62
7
 10
-804.3170876457721
 20
28.61817604250837
 30
0
 11
-866.3170876457721
 21
28.61817604250837
 31
0
  0
LINE
  8
1
 62
7
 10
-809.8170876457721
 20
43
 30
0
 11
-834.5170876457719
 21
43
 31
0
  0
LINE
  8
1
 62
7
 10
-806.8170876457721
 20
43
 30
0
 11
-804.3170876457721
 21
43
 31
0
  0
LINE
  8
1
 62
7
 10
-809.8170876457721
 20
42.25
 30
0
 11
-806.8170876457721
 21
42.25
 31
0
  0
LINE
  8
1
 62
7
 10
-809.8170876457721
 20
47.39999999999999
 30
0
 11
-834.5170876457719
 21
47.39999999999999
 31
0
  0
LINE
  8
1
 62
7
 10
-805.3170876457721
 20
47.39999999999999
 30
0
 11
-806.8170876457721
 21
47.39999999999999
 31
0
  0
LINE
  8
1
 62
7
 10
-809.8170876457721
 20
54
 30
0
 11
-804.8170876457721
 21
54
 31
0
  0
LINE
  8
1
 62
7
 10
-809.8170876457721
 20
42.25
 30
0
 11
-809.8170876457721
 21
54
 31
0
  0
LINE
  8
1
 62
7
 10
-804.8170876457721
 20
52.16833564813513
 30
0
 11
-804.8170876457721
 21
86.00000000000001
 31
0
  0
LINE
  8
1
 62
7
 10
-807.8170876457721
 20
89.00000000000001
 30
0
 11
-817.8170876457721
 21
89.00000000000001
 31
0
  0
LINE
  8
1
 62
7
 10
-815.8170876457721
 20
43
 30
0
 11
-815.8170876457721
 21
89.00000000000001
 31
0
  0
LINE
  8
1
 62
7
 10
-834.5170876457719
 20
97.50000000000001
 30
0
 11
-817.8170876457721
 21
97.50000000000001
 31
0
  0
LINE
  8
1
 62
7
 10
-834.5170876457719
 20
39
 30
0
 11
-834.5170876457719
 21
97.50000000000001
 31
0
  0
LINE
  8
1
 62
7
 10
-846.5170876457719
 20
52.14999999999999
 30
0
 11
-846.5170876457719
 21
78.50000000000003
 31
0
  0
LINE
  8
1
 62
7
 10
-860.5170876457719
 20
44
 30
0
 11
-861.3170876457721
 21
44
 31
0
  0
LINE
  8
1
 62
7
 10
-860.5170876457719
 20
44
 30
0
 11
-860.5170876457719
 21
52.14999999999999
 31
0
  0
LINE
  8
1
 62
7
 10
-846.5170876457719
 20
52.14999999999999
 30
0
 11
-860.5170876457719
 21
52.14999999999999
 31
0
  0
LINE
  8
1
 62
7
 10
-806.8170876457721
 20
50.9307820600357
 30
0
 11
-806.8170876457721
 21
42.25
 31
0
  0
LINE
  8
1
 62
7
 10
-809.8170876457721
 20
50.9307820600357
 30
0
 11
-806.8170876457721
 21
50.9307820600357
 31
0
  0
LINE
  8
1
 62
7
 10
-805.3170876457721
 20
47.39999999999999
 30
0
 11
-804.3170876457721
 21
46.39999999999999
 31
0
  0
LINE
  8
1
 62
7
 10
-804.8170876457721
 20
86.00000000000001
 30
0
 11
-807.8170876457721
 21
89.00000000000001
 31
0
  0
LINE
  8
1
 62
7
 10
-866.3170876457721
 20
33
 30
0
 11
-804.3170876457721
 21
33
 31
0
  0
LINE
  8
1
 62
7
 10
-863.8170876457721
 20
43
 30
0
 11
-861.3170876457721
 21
43
 31
0
  0
LINE
  8
1
 62
7
 10
-861.3170876457721
 20
44
 30
0
 11
-861.3170876457721
 21
36
 31
0
  0
LINE
  8
1
 62
7
 10
-861.3170876457721
 20
36
 30
0
 11
-863.8170876457721
 21
36
 31
0
  0
LINE
  8
1
 62
7
 10
-863.8170876457721
 20
36
 30
0
 11
-863.8170876457721
 21
43
 31
0
  0
LINE
  8
1
 62
7
 10
-863.8170876457721
 20
37.5
 30
0
 11
-866.3170876457721
 21
37.5
 31
0
  0
LINE
  8
1
 62
7
 10
-866.3170876457721
 20
37.5
 30
0
 11
-866.3170876457721
 21
0
 31
0
  0
LINE
  8
1
 62
7
 10
-880.3170876457721
 20
96.5
 30
0
 11
-880.3170876457721
 21
0
 31
0
  0
LINE
  8
1
 62
7
 10
-878.3170876457721
 20
98.5
 30
0
 11
-815.8170876457721
 21
98.5
 31
0
  0
LINE
  8
1
 62
7
 10
-835.8170876457718
 20
98.5
 30
0
 11
-835.8170876457718
 21
89.00000000000001
 31
0
  0
LINE
  8
1
 62
7
 10
-835.8170876457718
 20
90.75
 30
0
 11
-815.8170876457721
 21
90.75
 31
0
  0
LINE
  8
1
 62
7
 10
-815.8170876457721
 20
90.75
 30
0
 11
-815.8170876457721
 21
98.5
 31
0
  0
LINE
  8
1
 62
7
 10
-817.8170876457721
 20
97.50000000000001
 30
0
 11
-817.8170876457721
 21
89.00000000000001
 31
0
  0
LINE
  8
1
 62
7
 10
-848.3170876457718
 20
63
 30
0
 11
-848.3170876457718
 21
52.14999999999999
 31
0
  0
LINE
  8
1
 62
7
 10
-880.3170876457721
 20
53
 30
0
 11
-848.3170876457718
 21
53
 31
0
  0
LINE
  8
1
 62
7
 10
-848.3170876457718
 20
63
 30
0
 11
-849.3170876457718
 21
64
 31
0
  0
LINE
  8
1
 62
7
 10
-849.3170876457718
 20
64
 30
0
 11
-849.3170876457718
 21
89.00000000000001
 31
0
  0
LINE
  8
1
 62
7
 10
-872.3170876457721
 20
53
 30
0
 11
-872.3170876457721
 21
0
 31
0
  0
LINE
  8
1
 62
3
  6
DASHDOT
 10
-1051.484608460371
 20
43.10923015912348
 30
0
 11
-1065.47775562124
 21
35.03028287898596
 31
0
  0
LINE
  8
1
 62
3
  6
DASHDOT
 10
-1065.47775562124
 20
-35.03028287898596
 30
0
 11
-1051.484608460371
 21
-43.10923015912348
 31
0
  0
LINE
  8
1
 62
3
  6
DASHDOT
 10
-1200.819362281937
 20
-43.10923015912348
 30
0
 11
-1186.826215121068
 21
-35.03028287898596
 31
0
  0
LINE
  8
1
 62
3
  6
DASHDOT
 10
-1186.826215121068
 20
35.03028287898596
 30
0
 11
-1200.819362281937
 21
43.10923015912348
 31
0
  0
LINE
  8
1
 62
7
 10
-878.3170876457721
 20
98.5
 30
0
 11
-880.3170876457721
 21
96.5
 31
0
  0
LINE
  8
1
 62
7
 10
-860.8170876457721
 20
145.6783228882784
 30
0
 11
-860.8170876457721
 21
125.2605946629843
 31
0
  0
LINE
  8
1
 62
7
 10
-860.8170876457721
 20
122.8098595792794
 30
0
 11
-860.8170876457721
 21
98.5
 31
0
  0
LINE
  8
1
 62
7
 10
-863.8170876457721
 20
145.6783228882784
 30
0
 11
-863.8170876457721
 21
125.2605946629843
 31
0
  0
LINE
  8
1
 62
7
 10
-863.8170876457721
 20
122.8098595792794
 30
0
 11
-863.8170876457718
 21
98.5
 31
0
  0
LINE
  8
1
 62
7
 10
-863.8170876457721
 20
145.6783228882784
 30
0
 11
-860.8170876457721
 21
145.6783228882784
 31
0
  0
LINE
  8
1
 62
7
 10
-861.917087645772
 20
145.6783228882784
 30
0
 11
-861.917087645772
 21
150.6783228882784
 31
0
  0
LINE
  8
1
 62
7
 10
-862.117087645772
 20
145.6783228882784
 30
0
 11
-862.117087645772
 21
150.6783228882784
 31
0
  0
LINE
  8
1
 62
7
 10
-862.5170876457719
 20
145.6783228882784
 30
0
 11
-862.5170876457719
 21
150.6783228882784
 31
0
  0
LINE
  8
1
 62
7
 10
-862.7170876457719
 20
145.6783228882784
 30
0
 11
-862.7170876457719
 21
150.6783228882784
 31
0
  0
LINE
  8
1
 62
7
 10
-1129.151985371154
 20
145.6403421180721
 30
0
 11
-1126.151985371154
 21
145.6403421180721
 31
0
  0
LINE
  8
1
 62
7
 10
-1123.151985371154
 20
145.6403421180721
 30
0
 11
-1123.151985371154
 21
126.494651905886
 31
0
  0
LINE
  8
1
 62
7
 10
-1123.151985371154
 20
122.7718788090731
 30
0
 11
-1123.151985371154
 21
98.4620192297937
 31
0
  0
LINE
  8
1
 62
7
 10
-1129.151985371154
 20
98.4620192297937
 30
0
 11
-1129.151985371154
 21
122.7718788090731
 31
0
  0
LINE
  8
1
 62
7
 10
-1129.151985371154
 20
145.6403421180721
 30
0
 11
-1129.151985371154
 21
126.494651905886
 31
0
  0
LINE
  8
1
 62
7
 10
-1126.151985371154
 20
145.6403421180721
 30
0
 11
-1126.151985371154
 21
126.494651905886
 31
0
  0
LINE
  8
1
 62
7
 10
-1126.151985371154
 20
122.7718788090731
 30
0
 11
-1126.151985371154
 21
98.5
 31
0
  0
LINE
  8
1
 62
7
 10
-1126.151985371154
 20
145.6403421180721
 30
0
 11
-1123.151985371154
 21
145.6403421180721
 31
0
  0
LINE
  8
1
 62
7
 10
-1124.251985371154
 20
145.6403421180721
 30
0
 11
-1124.251985371154
 21
150.6403421180721
 31
0
  0
LINE
  8
1
 62
7
 10
-1124.451985371154
 20
145.6403421180721
 30
0
 11
-1124.451985371154
 21
150.6403421180721
 31
0
  0
LINE
  8
1
 62
7
 10
-1124.651985371154
 20
145.6403421180721
 30
0
 11
-1124.651985371154
 21
150.6403421180721
 31
0
  0
LINE
  8
1
 62
7
 10
-1124.851985371154
 20
145.6403421180721
 30
0
 11
-1124.851985371154
 21
150.6403421180721
 31
0
  0
LINE
  8
1
 62
7
 10
-1125.051985371154
 20
145.6403421180721
 30
0
 11
-1125.051985371154
 21
150.6403421180721
 31
0
  0
LINE
  8
1
 62
7
 10
-1127.251985371154
 20
145.6403421180721
 30
0
 11
-1127.251985371154
 21
150.6403421180721
 31
0
  0
LINE
  8
1
 62
7
 10
-1127.451985371154
 20
145.6403421180721
 30
0
 11
-1127.451985371154
 21
150.6403421180721
 31
0
  0
LINE
  8
1
 62
7
 10
-1127.651985371154
 20
145.6403421180721
 30
0
 11
-1127.651985371154
 21
150.6403421180721
 31
0
  0
LINE
  8
1
 62
7
 10
-1127.851985371154
 20
145.6403421180721
 30
0
 11
-1127.851985371154
 21
150.6403421180721
 31
0
  0
LINE
  8
1
 62
7
 10
-1128.051985371154
 20
145.6403421180721
 30
0
 11
-1128.051985371154
 21
150.6403421180721
 31
0
  0
LINE
  8
1
 62
7
 10
-1135.151985371154
 20
33
 30
0
 11
-1135.151985371154
 21
28.61817604250837
 31
0
  0
LINE
  8
1
 62
7
 10
-1135.151985371154
 20
33
 30
0
 11
-1117.151985371154
 21
33
 31
0
  0
LINE
  8
1
 62
7
 10
-1117.151985371154
 20
33
 30
0
 11
-1117.151985371154
 21
28.61817604250838
 31
0
  0
LINE
  8
1
 62
7
 10
-913.8170876457721
 20
-46.9
 30
0
 11
-913.3170876457721
 21
-46.4
 31
0
  0
LINE
  8
1
 62
7
 10
-916.8170876457721
 20
-88.99999999999999
 30
0
 11
-924.8170876457721
 21
-88.99999999999999
 31
0
  0
LINE
  8
1
 62
7
 10
-943.5170876457719
 20
-97.5
 30
0
 11
-926.8170876457721
 21
-97.49999999999999
 31
0
  0
LINE
  8
1
 62
7
 10
-913.8170876457721
 20
-85.99999999999999
 30
0
 11
-916.8170876457721
 21
-88.99999999999999
 31
0
  0
LINE
  8
1
 62
7
 10
-943.5170876457719
 20
0
 30
0
 11
-943.5170876457719
 21
-41.65741707038552
 31
0
  0
LINE
  8
1
 62
7
 10
-924.8170876457721
 20
0
 30
0
 11
-924.8170876457721
 21
-88.99999999999999
 31
0
  0
LINE
  8
1
 62
7
 10
-916.8170876457721
 20
0
 30
0
 11
-916.8170876457721
 21
-88.99999999999999
 31
0
  0
LINE
  8
1
 62
7
 10
-913.8170876457721
 20
0
 30
0
 11
-913.8170876457721
 21
-85.99999999999999
 31
0
  0
LINE
  8
1
 62
7
 10
-913.3170876457721
 20
0
 30
0
 11
-913.3170876457721
 21
-46.4
 31
0
  0
LINE
  8
1
 62
7
 10
-987.3170876457721
 20
-98.49999999999999
 30
0
 11
-924.8170876457721
 21
-98.49999999999999
 31
0
  0
LINE
  8
1
 62
7
 10
-944.8170876457718
 20
-88.64999999999999
 30
0
 11
-943.5170876457719
 21
-88.65000000000001
 31
0
  0
LINE
  8
1
 62
7
 10
-944.8170876457718
 20
-38.52111607155781
 30
0
 11
-943.5170876457719
 21
-38.52111607155781
 31
0
  0
LINE
  8
1
 62
7
 10
-926.8170876457721
 20
-38.52111607155778
 30
0
 11
-924.8170876457721
 21
-38.52111607155778
 31
0
  0
LINE
  8
1
 62
7
 10
-943.5170876457719
 20
-41.65741707038552
 30
0
 11
-926.8170876457721
 21
-41.65741707038552
 31
0
  0
LINE
  8
1
 62
7
 10
-944.8170876457718
 20
-42.40991590695974
 30
0
 11
-924.8170876457721
 21
-42.40991590695974
 31
0
  0
LINE
  8
1
 62
7
 10
-926.8170876457721
 20
-41.65741707038552
 30
0
 11
-926.8170876457721
 21
0
 31
0
  0
LINE
  8
1
 62
7
 10
-944.8170876457718
 20
-56.26632236751063
 30
0
 11
-924.8170876457721
 21
-56.26632236751063
 31
0
  0
LINE
  8
1
 62
7
 10
-926.8170876457721
 20
-56.26632236751063
 30
0
 11
-926.8170876457721
 21
-97.49999999999999
 31
0
  0
LINE
  8
1
 62
7
 10
-943.5170876457719
 20
-56.26632236751061
 30
0
 11
-943.5170876457719
 21
-97.5
 31
0
  0
LINE
  8
1
 62
7
 10
-944.8170876457718
 20
0
 30
0
 11
-944.8170876457718
 21
-42.40991590695974
 31
0
  0
LINE
  8
1
 62
7
 10
-944.8170876457718
 20
-56.26632236751063
 30
0
 11
-944.8170876457718
 21
-98.49999999999999
 31
0
  0
LINE
  8
1
 62
7
 10
-944.8170876457718
 20
-90.39669518295456
 30
0
 11
-943.5170876457719
 21
-90.39669518295455
 31
0
  0
LINE
  8
1
 62
7
 10
-924.8170876457721
 20
-90.39669518295456
 30
0
 11
-924.8170876457721
 21
-98.49999999999999
 31
0
  0
LINE
  8
1
 62
7
 10
-926.8170876457721
 20
-88.99999999999999
 30
0
 11
-924.8170876457721
 21
-88.99999999999999
 31
0
  0
LINE
  8
1
 62
7
 10
-926.8170876457721
 20
-90.39669518295453
 30
0
 11
-924.8170876457721
 21
-90.39669518295456
 31
0
  0
LINE
  8
1
 62
3
 10
-926.8170876457721
 20
-97.49999999999999
 30
0
 11
-943.5170876457719
 21
-56.26632236751061
 31
0
  0
LINE
  8
1
 62
3
 10
-926.8170876457721
 20
-56.26632236751063
 30
0
 11
-943.5170876457719
 21
-97.5
 31
0
  0
LINE
  8
1
 62
7
 10
-987.3170876457721
 20
-98.49999999999999
 30
0
 11
-989.3170876457721
 21
-96.49999999999999
 31
0
  0
LINE
  8
1
 62
7
 10
-987.3170876457721
 20
-98.49999999999999
 30
0
 11
-987.3170876457721
 21
0
 31
0
  0
LINE
  8
1
 62
7
 10
-969.8170876457721
 20
145.6783228882784
 30
0
 11
-969.8170876457721
 21
125.2605946629843
 31
0
  0
LINE
  8
1
 62
7
 10
-969.8170876457721
 20
122.8098595792794
 30
0
 11
-969.8170876457721
 21
98.5
 31
0
  0
LINE
  8
1
 62
7
 10
-972.8170876457721
 20
145.6783228882784
 30
0
 11
-972.8170876457721
 21
125.2605946629843
 31
0
  0
LINE
  8
1
 62
7
 10
-972.8170876457721
 20
122.8098595792794
 30
0
 11
-972.8170876457718
 21
98.49999999999999
 31
0
  0
LINE
  8
1
 62
7
 10
-972.8170876457721
 20
145.6783228882784
 30
0
 11
-969.8170876457721
 21
145.6783228882784
 31
0
  0
LINE
  8
1
 62
7
 10
-970.917087645772
 20
145.6783228882784
 30
0
 11
-970.917087645772
 21
150.6783228882784
 31
0
  0
LINE
  8
1
 62
7
 10
-971.117087645772
 20
145.6783228882784
 30
0
 11
-971.117087645772
 21
150.6783228882784
 31
0
  0
LINE
  8
1
 62
7
 10
-971.5170876457719
 20
145.6783228882784
 30
0
 11
-971.5170876457719
 21
150.6783228882784
 31
0
  0
LINE
  8
1
 62
7
 10
-971.7170876457719
 20
145.6783228882784
 30
0
 11
-971.7170876457719
 21
150.6783228882784
 31
0
  0
LINE
  8
1
 62
7
 10
-989.3170876457721
 20
0
 30
0
 11
-989.3170876457721
 21
-96.49999999999999
 31
0
  0
LINE
  8
1
 62
3
  6
DASHDOT
 10
-799.80807555349
 20
0
 30
0
 11
-804.3170876457721
 21
0
 31
0
  0
LINE
  8
1
 62
3
  6
DASHDOT
 10
-908.3822325371812
 20
0
 30
0
 11
-913.3170876457721
 21
0
 31
0
  0
LINE
  8
1
 62
7
 10
-804.3170876457721
 20
0
 30
0
 11
-804.3170876457721
 21
-46.39999999999999
 31
0
  0
LINE
  8
1
 62
3
 10
-834.5170876457719
 20
-97.50000000000001
 30
0
 11
-815.8170876457721
 21
-43
 31
0
  0
LINE
  8
1
 62
3
 10
-817.8170876457721
 20
-97.50000000000001
 30
0
 11
-834.5170876457719
 21
-43
 31
0
  0
LINE
  8
1
 62
7
 10
-846.5170876457719
 20
-78.50000000000003
 30
0
 11
-847.5170876457719
 21
-78.50000000000003
 31
0
  0
LINE
  8
1
 62
7
 10
-847.5170876457719
 20
-88.15000000000002
 30
0
 11
-847.5170876457719
 21
-78.50000000000003
 31
0
  0
LINE
  8
1
 62
7
 10
-834.5170876457719
 20
-88.15000000000002
 30
0
 11
-847.5170876457719
 21
-88.15000000000002
 31
0
  0
LINE
  8
1
 62
7
 10
-834.5170876457719
 20
-39
 30
0
 11
-861.3170876457721
 21
-39
 31
0
  0
LINE
  8
1
 62
7
 10
-866.3170876457721
 20
-30
 30
0
 11
-804.3170876457721
 21
-30
 31
0
  0
LINE
  8
1
 62
7
 10
-834.5170876457719
 20
-43
 30
0
 11
-809.8170876457721
 21
-43
 31
0
  0
LINE
  8
1
 62
7
 10
-804.3170876457721
 20
-43
 30
0
 11
-806.8170876457721
 21
-43
 31
0
  0
LINE
  8
1
 62
7
 10
-806.8170876457721
 20
-42.25
 30
0
 11
-809.8170876457721
 21
-42.25
 31
0
  0
LINE
  8
1
 62
7
 10
-834.5170876457719
 20
-47.39999999999999
 30
0
 11
-809.8170876457721
 21
-47.39999999999999
 31
0
  0
LINE
  8
1
 62
7
 10
-806.8170876457721
 20
-47.39999999999999
 30
0
 11
-805.3170876457721
 21
-47.39999999999999
 31
0
  0
LINE
  8
1
 62
7
 10
-804.8170876457721
 20
-54
 30
0
 11
-809.8170876457721
 21
-54
 31
0
  0
LINE
  8
1
 62
7
 10
-809.8170876457721
 20
-54
 30
0
 11
-809.8170876457721
 21
-42.25
 31
0
  0
LINE
  8
1
 62
7
 10
-804.8170876457721
 20
-86.00000000000001
 30
0
 11
-804.8170876457721
 21
-52.16833564813513
 31
0
  0
LINE
  8
1
 62
7
 10
-817.8170876457721
 20
-89.00000000000001
 30
0
 11
-807.8170876457721
 21
-89.00000000000001
 31
0
  0
LINE
  8
1
 62
7
 10
-815.8170876457721
 20
-89.00000000000001
 30
0
 11
-815.8170876457721
 21
-43
 31
0
  0
LINE
  8
1
 62
7
 10
-817.8170876457721
 20
-97.50000000000001
 30
0
 11
-834.5170876457719
 21
-97.50000000000001
 31
0
  0
LINE
  8
1
 62
7
 10
-834.5170876457719
 20
-97.50000000000001
 30
0
 11
-834.5170876457719
 21
-39
 31
0
  0
LINE
  8
1
 62
7
 10
-846.5170876457719
 20
-78.50000000000003
 30
0
 11
-846.5170876457719
 21
-52.14999999999999
 31
0
  0
LINE
  8
1
 62
7
 10
-861.3170876457721
 20
-44
 30
0
 11
-860.5170876457719
 21
-44
 31
0
  0
LINE
  8
1
 62
7
 10
-860.5170876457719
 20
-52.14999999999999
 30
0
 11
-860.5170876457719
 21
-44
 31
0
  0
LINE
  8
1
 62
7
 10
-860.5170876457719
 20
-52.14999999999999
 30
0
 11
-846.5170876457719
 21
-52.14999999999999
 31
0
  0
LINE
  8
1
 62
7
 10
-806.8170876457721
 20
-42.25
 30
0
 11
-806.8170876457721
 21
-50.9307820600357
 31
0
  0
LINE
  8
1
 62
7
 10
-806.8170876457721
 20
-50.9307820600357
 30
0
 11
-809.8170876457721
 21
-50.9307820600357
 31
0
  0
LINE
  8
1
 62
7
 10
-804.3170876457721
 20
-46.39999999999999
 30
0
 11
-805.3170876457721
 21
-47.39999999999999
 31
0
  0
LINE
  8
1
 62
7
 10
-807.8170876457721
 20
-89.00000000000001
 30
0
 11
-804.8170876457721
 21
-86.00000000000001
 31
0
  0
LINE
  8
1
 62
7
 10
-804.3170876457721
 20
-33
 30
0
 11
-866.3170876457721
 21
-33
 31
0
  0
LINE
  8
1
 62
7
 10
-861.3170876457721
 20
-43
 30
0
 11
-863.8170876457721
 21
-43
 31
0
  0
LINE
  8
1
 62
7
 10
-861.3170876457721
 20
-36
 30
0
 11
-861.3170876457721
 21
-44
 31
0
  0
LINE
  8
1
 62
7
 10
-863.8170876457721
 20
-36
 30
0
 11
-861.3170876457721
 21
-36
 31
0
  0
LINE
  8
1
 62
7
 10
-863.8170876457721
 20
-43
 30
0
 11
-863.8170876457721
 21
-36
 31
0
  0
LINE
  8
1
 62
7
 10
-866.3170876457721
 20
-37.5
 30
0
 11
-863.8170876457721
 21
-37.5
 31
0
  0
LINE
  8
1
 62
7
 10
-866.3170876457721
 20
0
 30
0
 11
-866.3170876457721
 21
-37.5
 31
0
  0
LINE
  8
1
 62
7
 10
-880.3170876457721
 20
0
 30
0
 11
-880.3170876457721
 21
-96.5
 31
0
  0
LINE
  8
1
 62
7
 10
-815.8170876457721
 20
-98.5
 30
0
 11
-878.3170876457721
 21
-98.5
 31
0
  0
LINE
  8
1
 62
7
 10
-835.8170876457718
 20
-89.00000000000001
 30
0
 11
-835.8170876457718
 21
-98.5
 31
0
  0
LINE
  8
1
 62
7
 10
-815.8170876457721
 20
-90.75
 30
0
 11
-835.8170876457718
 21
-90.75
 31
0
  0
LINE
  8
1
 62
7
 10
-815.8170876457721
 20
-98.5
 30
0
 11
-815.8170876457721
 21
-90.75
 31
0
  0
LINE
  8
1
 62
7
 10
-817.8170876457721
 20
-89.00000000000001
 30
0
 11
-817.8170876457721
 21
-97.50000000000001
 31
0
  0
LINE
  8
1
 62
7
 10
-835.8170876457718
 20
-89.00000000000001
 30
0
 11
-849.3170876457718
 21
-89.00000000000001
 31
0
  0
LINE
  8
1
 62
7
 10
-848.3170876457718
 20
-52.14999999999999
 30
0
 11
-848.3170876457718
 21
-63
 31
0
  0
LINE
  8
1
 62
7
 10
-848.3170876457718
 20
-53
 30
0
 11
-880.3170876457721
 21
-53
 31
0
  0
LINE
  8
1
 62
7
 10
-849.3170876457718
 20
-64
 30
0
 11
-848.3170876457718
 21
-63
 31
0
  0
LINE
  8
1
 62
7
 10
-849.3170876457718
 20
-89.00000000000001
 30
0
 11
-849.3170876457718
 21
-64
 31
0
  0
LINE
  8
1
 62
7
 10
-872.3170876457721
 20
0
 30
0
 11
-872.3170876457721
 21
-53
 31
0
  0
LINE
  8
1
 62
7
 10
-880.3170876457721
 20
-96.5
 30
0
 11
-878.3170876457721
 21
-98.5
 31
0
  0
LINE
  8
1
 62
7
 10
-913.3170876457721
 20
46.4
 30
0
 11
-913.8170876457721
 21
46.9
 31
0
  0
LINE
  8
1
 62
7
 10
-924.8170876457721
 20
88.99999999999999
 30
0
 11
-916.8170876457721
 21
88.99999999999999
 31
0
  0
LINE
  8
1
 62
7
 10
-926.8170876457721
 20
97.49999999999999
 30
0
 11
-943.5170876457719
 21
97.5
 31
0
  0
LINE
  8
1
 62
7
 10
-916.8170876457721
 20
88.99999999999999
 30
0
 11
-913.8170876457721
 21
85.99999999999999
 31
0
  0
LINE
  8
1
 62
7
 10
-943.5170876457719
 20
41.65741707038552
 30
0
 11
-943.5170876457719
 21
0
 31
0
  0
LINE
  8
1
 62
7
 10
-924.8170876457721
 20
88.99999999999999
 30
0
 11
-924.8170876457721
 21
0
 31
0
  0
LINE
  8
1
 62
7
 10
-916.8170876457721
 20
88.99999999999999
 30
0
 11
-916.8170876457721
 21
0
 31
0
  0
LINE
  8
1
 62
7
 10
-913.8170876457721
 20
85.99999999999999
 30
0
 11
-913.8170876457721
 21
0
 31
0
  0
LINE
  8
1
 62
7
 10
-913.3170876457721
 20
46.4
 30
0
 11
-913.3170876457721
 21
0
 31
0
  0
LINE
  8
1
 62
7
 10
-924.8170876457721
 20
98.49999999999999
 30
0
 11
-987.3170876457721
 21
98.49999999999999
 31
0
  0
LINE
  8
1
 62
7
 10
-943.5170876457719
 20
88.15000000000002
 30
0
 11
-944.8170876457718
 21
88.15000000000001
 31
0
  0
LINE
  8
1
 62
7
 10
-943.5170876457719
 20
38.52111607155781
 30
0
 11
-944.8170876457718
 21
38.52111607155781
 31
0
  0
LINE
  8
1
 62
7
 10
-924.8170876457721
 20
38.52111607155778
 30
0
 11
-926.8170876457721
 21
38.52111607155778
 31
0
  0
LINE
  8
1
 62
7
 10
-926.8170876457721
 20
41.65741707038552
 30
0
 11
-943.5170876457719
 21
41.65741707038552
 31
0
  0
LINE
  8
1
 62
7
 10
-924.8170876457721
 20
42.40991590695974
 30
0
 11
-944.8170876457718
 21
42.40991590695974
 31
0
  0
LINE
  8
1
 62
7
 10
-926.8170876457721
 20
0
 30
0
 11
-926.8170876457721
 21
41.65741707038552
 31
0
  0
LINE
  8
1
 62
7
 10
-924.8170876457721
 20
56.26632236751063
 30
0
 11
-944.8170876457718
 21
56.26632236751063
 31
0
  0
LINE
  8
1
 62
7
 10
-926.8170876457721
 20
97.49999999999999
 30
0
 11
-926.8170876457721
 21
56.26632236751063
 31
0
  0
LINE
  8
1
 62
7
 10
-943.5170876457719
 20
97.5
 30
0
 11
-943.5170876457719
 21
56.26632236751061
 31
0
  0
LINE
  8
1
 62
7
 10
-944.8170876457718
 20
42.40991590695974
 30
0
 11
-944.8170876457718
 21
0
 31
0
  0
LINE
  8
1
 62
7
 10
-944.8170876457718
 20
98.49999999999999
 30
0
 11
-944.8170876457718
 21
56.26632236751063
 31
0
  0
LINE
  8
1
 62
7
 10
-943.5170876457719
 20
90.39669518295455
 30
0
 11
-944.8170876457718
 21
90.39669518295456
 31
0
  0
LINE
  8
1
 62
7
 10
-924.8170876457721
 20
98.49999999999999
 30
0
 11
-924.8170876457721
 21
90.39669518295456
 31
0
  0
LINE
  8
1
 62
7
 10
-924.8170876457721
 20
88.99999999999999
 30
0
 11
-926.8170876457721
 21
88.99999999999999
 31
0
  0
LINE
  8
1
 62
7
 10
-924.8170876457721
 20
90.39669518295456
 30
0
 11
-926.8170876457721
 21
90.39669518295453
 31
0
  0
LINE
  8
1
 62
3
 10
-943.5170876457719
 20
56.26632236751061
 30
0
 11
-926.8170876457721
 21
97.49999999999999
 31
0
  0
LINE
  8
1
 62
3
 10
-943.5170876457719
 20
97.5
 30
0
 11
-926.8170876457721
 21
56.26632236751063
 31
0
  0
LINE
  8
1
 62
7
 10
-989.3170876457721
 20
96.49999999999999
 30
0
 11
-987.3170876457721
 21
98.49999999999999
 31
0
  0
LINE
  8
1
 62
7
 10
-987.3170876457721
 20
0
 30
0
 11
-987.3170876457721
 21
98.49999999999999
 31
0
  0
LINE
  8
1
 62
7
 10
-989.3170876457721
 20
96.49999999999999
 30
0
 11
-989.3170876457721
 21
0
 31
0
  0
LINE
  8
1
 62
7
 10
-678
 20
90
 30
0
 11
-662
 21
90
 31
0
  0
LINE
  8
1
 62
7
 10
-662
 20
98.17458938034831
 30
0
 11
-662
 21
90
 31
0
  0
LINE
  8
1
 62
7
 10
-678
 20
90
 30
0
 11
-678
 21
98.17458938034831
 31
0
  0
LINE
  8
1
 62
7
 10
-751.9422863405995
 20
38.07179676972442
 30
0
 11
-743.9422863405995
 21
51.92820323027547
 31
0
  0
LINE
  8
1
 62
7
 10
-751.0216884094875
 20
56.01549792044966
 30
0
 11
-743.9422863405995
 21
51.92820323027547
 31
0
  0
LINE
  8
1
 62
7
 10
-751.9422863405995
 20
38.07179676972442
 30
0
 11
-759.0216884094875
 21
42.15909145989861
 31
0
  0
LINE
  8
1
 62
7
 10
-743.9422863405994
 20
-51.92820323027559
 30
0
 11
-751.9422863405994
 21
-38.07179676972453
 31
0
  0
LINE
  8
1
 62
7
 10
-759.0216884094875
 20
-42.15909145989861
 30
0
 11
-751.9422863405994
 21
-38.07179676972453
 31
0
  0
LINE
  8
1
 62
7
 10
-743.9422863405994
 20
-51.92820323027559
 30
0
 11
-751.0216884094875
 21
-56.01549792044955
 31
0
  0
LINE
  8
1
 62
7
 10
-661.9999999999999
 20
-90
 30
0
 11
-678
 21
-90
 31
0
  0
LINE
  8
1
 62
7
 10
-678
 20
-98.17458938034827
 30
0
 11
-678
 21
-90
 31
0
  0
LINE
  8
1
 62
7
 10
-661.9999999999999
 20
-90
 30
0
 11
-662
 21
-98.17458938034827
 31
0
  0
LINE
  8
1
 62
7
 10
-588.0577136594004
 20
-38.07179676972442
 30
0
 11
-596.0577136594005
 21
-51.92820323027559
 31
0
  0
LINE
  8
1
 62
7
 10
-588.9783115905125
 20
-56.01549792044978
 30
0
 11
-596.0577136594005
 21
-51.92820323027559
 31
0
  0
LINE
  8
1
 62
7
 10
-588.0577136594004
 20
-38.07179676972442
 30
0
 11
-580.9783115905125
 21
-42.15909145989872
 31
0
  0
LINE
  8
1
 62
7
 10
-596.0577136594005
 20
51.92820323027559
 30
0
 11
-588.0577136594004
 21
38.07179676972442
 31
0
  0
LINE
  8
1
 62
7
 10
-580.9783115905124
 20
42.15909145989849
 30
0
 11
-588.0577136594004
 21
38.07179676972442
 31
0
  0
LINE
  8
1
 62
7
 10
-596.0577136594005
 20
51.92820323027559
 30
0
 11
-588.9783115905124
 21
56.01549792044949
 31
0
  0
LINE
  8
1
 62
3
  6
DASHDOT
 10
-583.8304723234484
 20
49.74999999999999
 30
0
 11
-596.3878406783227
 21
42.49999999999999
 31
0
  0
LINE
  8
1
 62
3
  6
DASHDOT
 10
-743.6121593216773
 20
42.49999999999999
 30
0
 11
-756.1695276765516
 21
49.74999999999999
 31
0
  0
LINE
  8
1
 62
3
  6
DASHDOT
 10
-596.3878406783227
 20
-42.49999999999999
 30
0
 11
-583.8304723234484
 21
-49.74999999999999
 31
0
  0
LINE
  8
1
 62
3
  6
DASHDOT
 10
-756.1695276765516
 20
-49.74999999999999
 30
0
 11
-743.6121593216773
 21
-42.49999999999999
 31
0
  0
LINE
  8
1
 62
7
 10
-679
 20
33
 30
0
 11
-679
 21
28.61817604250837
 31
0
  0
LINE
  8
1
 62
7
 10
-679
 20
33
 30
0
 11
-661
 21
33
 31
0
  0
LINE
  8
1
 62
7
 10
-661
 20
33
 30
0
 11
-661
 21
28.61817604250838
 31
0
  0
LINE
  8
1
 62
7
 10
-673
 20
145.6403421180721
 30
0
 11
-670
 21
145.6403421180721
 31
0
  0
LINE
  8
1
 62
7
 10
-667
 20
145.6403421180721
 30
0
 11
-667
 21
126.494651905886
 31
0
  0
LINE
  8
1
 62
7
 10
-667
 20
122.7718788090731
 30
0
 11
-667
 21
98.4620192297937
 31
0
  0
LINE
  8
1
 62
7
 10
-673
 20
98.4620192297937
 30
0
 11
-673
 21
122.7718788090731
 31
0
  0
LINE
  8
1
 62
7
 10
-673
 20
145.6403421180721
 30
0
 11
-673
 21
126.494651905886
 31
0
  0
LINE
  8
1
 62
7
 10
-670
 20
145.6403421180721
 30
0
 11
-670
 21
126.494651905886
 31
0
  0
LINE
  8
1
 62
7
 10
-670
 20
122.7718788090731
 30
0
 11
-670
 21
98.5
 31
0
  0
LINE
  8
1
 62
7
 10
-670
 20
145.6403421180721
 30
0
 11
-667
 21
145.6403421180721
 31
0
  0
LINE
  8
1
 62
7
 10
-668.0999999999999
 20
145.6403421180721
 30
0
 11
-668.0999999999999
 21
150.6403421180721
 31
0
  0
LINE
  8
1
 62
7
 10
-668.3000000000002
 20
145.6403421180721
 30
0
 11
-668.3000000000002
 21
150.6403421180721
 31
0
  0
LINE
  8
1
 62
7
 10
-668.5
 20
145.6403421180721
 30
0
 11
-668.5
 21
150.6403421180721
 31
0
  0
LINE
  8
1
 62
7
 10
-668.7000000000001
 20
145.6403421180721
 30
0
 11
-668.7000000000001
 21
150.6403421180721
 31
0
  0
LINE
  8
1
 62
7
 10
-668.9000000000001
 20
145.6403421180721
 30
0
 11
-668.9000000000001
 21
150.6403421180721
 31
0
  0
LINE
  8
1
 62
7
 10
-671.0999999999999
 20
145.6403421180721
 30
0
 11
-671.0999999999999
 21
150.6403421180721
 31
0
  0
LINE
  8
1
 62
7
 10
-671.3000000000002
 20
145.6403421180721
 30
0
 11
-671.3000000000002
 21
150.6403421180721
 31
0
  0
LINE
  8
1
 62
7
 10
-671.5
 20
145.6403421180721
 30
0
 11
-671.5
 21
150.6403421180721
 31
0
  0
LINE
  8
1
 62
7
 10
-671.7000000000001
 20
145.6403421180721
 30
0
 11
-671.7000000000001
 21
150.6403421180721
 31
0
  0
LINE
  8
1
 62
7
 10
-671.9000000000001
 20
145.6403421180721
 30
0
 11
-671.9000000000001
 21
150.6403421180721
 31
0
  0
LINE
  8
1
 62
3
 10
-943.5170876457719
 20
41.65741707038552
 30
0
 11
-926.8170876457721
 21
-41.65741707038552
 31
0
  0
LINE
  8
1
 62
3
 10
-943.5170876457719
 20
-41.65741707038552
 30
0
 11
-926.8170876457721
 21
41.65741707038552
 31
0
  0
LINE
  8
1
 62
7
 10
-849.3170876457718
 20
89.00000000000001
 30
0
 11
-835.8170876457718
 21
89.00000000000001
 31
0
  0
LINE
  8
1
 62
7
 10
-880.3170876457721
 20
82
 30
0
 11
-862.3170876457721
 21
82
 31
0
  0
LINE
  8
1
 62
7
 10
-862.3170876457721
 20
82
 30
0
 11
-862.3170876457721
 21
74
 31
0
  0
LINE
  8
1
 62
7
 10
-862.3170876457721
 20
74
 30
0
 11
-880.3170876457721
 21
74
 31
0
  0
LINE
  8
1
 62
7
 10
-862.3170876457721
 20
82
 30
0
 11
-859.4303362998239
 21
78
 31
0
  0
LINE
  8
1
 62
7
 10
-859.4303362998239
 20
78
 30
0
 11
-862.3170876457721
 21
74
 31
0
  0
LINE
  8
1
 62
3
 10
-880.3170876457721
 20
83
 30
0
 11
-870.3170876457721
 21
83
 31
0
  0
LINE
  8
1
 62
3
 10
-870.3170876457721
 20
83
 30
0
 11
-870.3170876457721
 21
73
 31
0
  0
LINE
  8
1
 62
3
 10
-870.3170876457721
 20
73
 30
0
 11
-880.3170876457721
 21
73
 31
0
  0
LINE
  8
1
 62
3
 10
-870.3170876457721
 20
83
 30
0
 11
-868.5850368382032
 21
82
 31
0
  0
LINE
  8
1
 62
3
 10
-870.3170876457721
 20
73
 30
0
 11
-868.5850368382032
 21
74
 31
0
  0
LINE
  8
1
 62
3
  6
DASHDOT
 10
-882.3170876457721
 20
78
 30
0
 11
-857.4303362998239
 21
78
 31
0
  0
LINE
  8
1
 62
7
 10
-862.3170876457721
 20
-82
 30
0
 11
-880.3170876457721
 21
-82
 31
0
  0
LINE
  8
1
 62
7
 10
-862.3170876457721
 20
-74
 30
0
 11
-862.3170876457721
 21
-82
 31
0
  0
LINE
  8
1
 62
7
 10
-880.3170876457721
 20
-74
 30
0
 11
-862.3170876457721
 21
-74
 31
0
  0
LINE
  8
1
 62
7
 10
-859.4303362998239
 20
-78
 30
0
 11
-862.3170876457721
 21
-82
 31
0
  0
LINE
  8
1
 62
7
 10
-862.3170876457721
 20
-74
 30
0
 11
-859.4303362998239
 21
-78
 31
0
  0
LINE
  8
1
 62
3
 10
-870.3170876457721
 20
-83
 30
0
 11
-880.3170876457721
 21
-83
 31
0
  0
LINE
  8
1
 62
3
 10
-870.3170876457721
 20
-73
 30
0
 11
-870.3170876457721
 21
-83
 31
0
  0
LINE
  8
1
 62
3
 10
-880.3170876457721
 20
-73
 30
0
 11
-870.3170876457721
 21
-73
 31
0
  0
LINE
  8
1
 62
3
 10
-868.5850368382032
 20
-82
 30
0
 11
-870.3170876457721
 21
-83
 31
0
  0
LINE
  8
1
 62
3
 10
-868.5850368382032
 20
-74
 30
0
 11
-870.3170876457721
 21
-73
 31
0
  0
LINE
  8
1
 62
3
  6
DASHDOT
 10
-857.4303362998239
 20
-78
 30
0
 11
-882.3170876457721
 21
-78
 31
0
  0
LINE
  8
1
 62
3
  6
DASHDOT
 10
-670
 20
25
 30
0
 11
-670
 21
-25
 31
0
  0
LINE
  8
1
 62
3
  6
DASHDOT
 10
-695
 20
0
 30
0
 11
-645
 21
0
 31
0
  0
LINE
  8
1
 62
3
  6
DASHDOT
 10
-880.3170876457721
 20
0
 30
0
 11
-884.948599377894
 21
0
 31
0
  0
LINE
  8
1
 62
3
  6
DASHDOT
 10
-989.3170876457721
 20
0
 30
0
 11
-994.295980089556
 21
0
 31
0
  0
LINE
  8
1
 62
3
  6
DASHDOT
 10
-1101.151985371154
 20
0
 30
0
 11
-1151.151985371154
 21
0
 31
0
  0
LINE
  8
1
 62
3
  6
DASHDOT
 10
-1126.151985371154
 20
25
 30
0
 11
-1126.151985371154
 21
-25
 31
0
  0
ARC
  8
1
 62
7
 10
-863.0670876457721
 20
122.4973595792794
 30
0
 40
0.8125
 50
22.61986494804043
 51
157.3801350519596
  0
ARC
  8
1
 62
7
 10
-861.5670876457721
 20
122.4973595792794
 30
0
 40
0.8125
 50
22.61986494804043
 51
157.3801350519596
  0
ARC
  8
1
 62
7
 10
-861.5670876457721
 20
123.1223595792794
 30
0
 40
0.8125
 50
202.6198649480404
 51
337.3801350519596
  0
ARC
  8
1
 62
7
 10
-863.0670876457721
 20
125.5730946629843
 30
0
 40
0.8125
 50
202.6198649480404
 51
337.3801350519596
  0
ARC
  8
1
 62
7
 10
-863.0670876457721
 20
124.9480946629843
 30
0
 40
0.8125
 50
22.61986494804043
 51
157.3801350519596
  0
ARC
  8
1
 62
7
 10
-861.5670876457721
 20
125.5730946629843
 30
0
 40
0.8125
 50
202.6198649480404
 51
337.3801350519596
  0
ARC
  8
1
 62
7
 10
-1127.651985371154
 20
122.1468788090731
 30
0
 40
1.625
 50
22.61986494804043
 51
157.3801350519596
  0
ARC
  8
1
 62
7
 10
-1124.651985371154
 20
122.1468788090731
 30
0
 40
1.625
 50
22.61986494804043
 51
157.3801350519596
  0
ARC
  8
1
 62
7
 10
-1124.651985371154
 20
123.3968788090731
 30
0
 40
1.625
 50
202.6198649480404
 51
337.3801350519596
  0
ARC
  8
1
 62
7
 10
-1127.651985371154
 20
127.119651905886
 30
0
 40
1.625
 50
202.6198649480404
 51
337.3801350519596
  0
ARC
  8
1
 62
7
 10
-1124.651985371154
 20
127.119651905886
 30
0
 40
1.625
 50
202.6198649480404
 51
337.3801350519596
  0
ARC
  8
1
 62
7
 10
-1127.651985371154
 20
125.869651905886
 30
0
 40
1.625
 50
22.61986494804043
 51
157.3801350519596
  0
ARC
  8
1
 62
7
 10
-1126.151985371154
 20
0
 30
0
 40
30
 50
107.4576031237221
 51
72.54239687627792
  0
ARC
  8
1
 62
7
 10
-972.0670876457721
 20
122.4973595792794
 30
0
 40
0.8125
 50
22.61986494804043
 51
157.3801350519596
  0
ARC
  8
1
 62
7
 10
-970.5670876457721
 20
122.4973595792794
 30
0
 40
0.8125
 50
22.61986494804043
 51
157.3801350519596
  0
ARC
  8
1
 62
7
 10
-970.5670876457721
 20
123.1223595792794
 30
0
 40
0.8125
 50
202.6198649480404
 51
337.3801350519596
  0
ARC
  8
1
 62
7
 10
-972.0670876457721
 20
125.5730946629843
 30
0
 40
0.8125
 50
202.6198649480404
 51
337.3801350519596
  0
ARC
  8
1
 62
7
 10
-972.0670876457721
 20
124.9480946629843
 30
0
 40
0.8125
 50
22.61986494804043
 51
157.3801350519596
  0
ARC
  8
1
 62
7
 10
-970.5670876457721
 20
125.5730946629843
 30
0
 40
0.8125
 50
202.6198649480404
 51
337.3801350519596
  0
ARC
  8
1
 62
7
 10
-670
 20
0
 30
0
 40
90.74999999999999
 50
84.94256753809758
 51
95.05743246190242
  0
ARC
  8
1
 62
7
 10
-670
 20
0
 30
0
 40
90.74999999999987
 50
144.9425675380976
 51
155.0574324619024
  0
ARC
  8
1
 62
7
 10
-670
 20
0
 30
0
 40
90.74999999999992
 50
204.9425675380976
 51
215.0574324619024
  0
ARC
  8
1
 62
7
 10
-670
 20
0
 30
0
 40
90.74999999999999
 50
264.9425675380976
 51
275.0574324619024
  0
ARC
  8
1
 62
7
 10
-670
 20
0
 30
0
 40
90.75000000000004
 50
324.9425675380975
 51
335.0574324619024
  0
ARC
  8
1
 62
7
 10
-670
 20
0
 30
0
 40
90.75000000000007
 50
24.9425675380975
 51
35.05743246190239
  0
ARC
  8
1
 62
7
 10
-670
 20
0
 30
0
 40
97.49999999999999
 50
34.70648327188308
 51
85.29351672811686
  0
ARC
  8
1
 62
7
 10
-670
 20
0
 30
0
 40
97.49999999999996
 50
154.7064832718831
 51
180
  0
ARC
  8
1
 62
7
 10
-670
 20
0
 30
0
 40
97.5
 50
94.70648327188314
 51
145.2935167281168
  0
ARC
  8
1
 62
7
 10
-670
 20
0
 30
0
 40
97.5
 50
180
 51
205.2935167281169
  0
ARC
  8
1
 62
7
 10
-670
 20
0
 30
0
 40
97.50000000000004
 50
214.7064832718831
 51
265.2935167281169
  0
ARC
  8
1
 62
7
 10
-670
 20
0
 30
0
 40
97.5
 50
274.7064832718831
 51
325.2935167281167
  0
ARC
  8
1
 62
7
 10
-670
 20
0
 30
0
 40
97.49999999999997
 50
334.706483271883
 51
25.29351672811677
  0
ARC
  8
1
 62
7
 10
-670
 20
0
 30
0
 40
30
 50
107.4576031237221
 51
72.54239687627792
  0
ARC
  8
1
 62
7
 10
-671.5
 20
122.1468788090731
 30
0
 40
1.625
 50
22.61986494804043
 51
157.3801350519596
  0
ARC
  8
1
 62
7
 10
-668.5
 20
122.1468788090731
 30
0
 40
1.625
 50
22.61986494804043
 51
157.3801350519596
  0
ARC
  8
1
 62
7
 10
-668.5
 20
123.3968788090731
 30
0
 40
1.625
 50
202.6198649480404
 51
337.3801350519596
  0
ARC
  8
1
 62
7
 10
-671.5
 20
127.119651905886
 30
0
 40
1.625
 50
202.6198649480404
 51
337.3801350519596
  0
ARC
  8
1
 62
7
 10
-668.5
 20
127.119651905886
 30
0
 40
1.625
 50
202.6198649480404
 51
337.3801350519596
  0
ARC
  8
1
 62
7
 10
-671.5
 20
125.869651905886
 30
0
 40
1.625
 50
22.61986494804043
 51
157.3801350519596
  0
CIRCLE
  8
1
 62
7
 10
-1126.151985371154
 20
0
 30
0
 40
37.5
  0
CIRCLE
  8
1
 62
7
 10
-1126.151985371154
 20
0
 30
0
 40
53
  0
CIRCLE
  8
1
 62
7
 10
-1126.151985371154
 20
0
 30
0
 40
98.5
  0
CIRCLE
  8
1
 62
3
  6
DASHDOT
 10
-1126.151985371154
 20
0
 30
0
 40
78
  0
CIRCLE
  8
1
 62
3
 10
-1126.151985371154
 20
78
 30
0
 40
5
  0
CIRCLE
  8
1
 62
7
 10
-1126.151985371154
 20
78
 30
0
 40
4
  0
CIRCLE
  8
1
 62
3
 10
-1193.70196686634
 20
39.00000000000003
 30
0
 40
4.999999999999998
  0
CIRCLE
  8
1
 62
7
 10
-1193.70196686634
 20
39.00000000000003
 30
0
 40
3.999999999999996
  0
CIRCLE
  8
1
 62
3
 10
-1193.70196686634
 20
-38.99999999999996
 30
0
 40
4.999999999999992
  0
CIRCLE
  8
1
 62
7
 10
-1193.70196686634
 20
-38.99999999999996
 30
0
 40
4.000000000000008
  0
CIRCLE
  8
1
 62
3
 10
-1126.151985371154
 20
-78.00000000000001
 30
0
 40
5
  0
CIRCLE
  8
1
 62
7
 10
-1126.151985371154
 20
-78.00000000000001
 30
0
 40
4
  0
CIRCLE
  8
1
 62
3
 10
-1058.602003875968
 20
-39.00000000000007
 30
0
 40
4.999999999999992
  0
CIRCLE
  8
1
 62
7
 10
-1058.602003875968
 20
-39.00000000000007
 30
0
 40
3.999999999999996
  0
CIRCLE
  8
1
 62
3
 10
-1058.602003875968
 20
38.99999999999993
 30
0
 40
5.000000000000004
  0
CIRCLE
  8
1
 62
7
 10
-1058.602003875968
 20
38.99999999999993
 30
0
 40
4.000000000000008
  0
CIRCLE
  8
1
 62
7
 10
-670
 20
0
 30
0
 40
98.5
  0
CIRCLE
  8
1
 62
7
 10
-670
 20
0
 30
0
 40
89
  0
CIRCLE
  8
1
 62
7
 10
-670
 20
0
 30
0
 40
86
  0
CIRCLE
  8
1
 62
7
 10
-670
 20
0
 30
0
 40
46.39999999999998
  0
CIRCLE
  8
1
 62
7
 10
-670
 20
0
 30
0
 40
47.39999999999998
  0
CIRCLE
  8
1
 62
7
 10
-670
 20
0
 30
0
 40
54
  0
CIRCLE
  8
1
 62
7
 10
-1126.151985371154
 20
0
 30
0
 40
96.5
  0
TEXT
  8
1
 62
7
 10
-1227.27428631853
 20
132.447979672608
 30
0
 40
8
  1
DC4226
 41
0.9
  7
SIMPLEX
 72
1
 11
-1205.67428631853
 21
132.447979672608
 31
0
  0
TEXT
  8
1
 62
7
 10
-1226.57688045077
 20
149.913008084966
 30
0
 40
8
  1
MDB 40
 41
0.9
  7
SIMPLEX
 72
1
 11
-1204.97688045077
 21
149.913008084966
 31
0
  0
ENDSEC
  0
EOF
