  0
SECTION
  2
HEADER
  9
$ACADVER
  1
AC1009
  9
$INSBASE
 10
0.0
 20
0.0
 30
0.0
  9
$EXTMIN
 10
-579.42768102658113
 20
-72.030335828297865
 30
0.0
  9
$EXTMAX
 10
-174.0
 20
75.861211513172208
 30
0.0
  9
$LIMMIN
 10
-579.42768102658113
 20
-68.753891958446033
  9
$LIMMAX
 10
-174.0
 20
75.861211513172208
  9
$ORTHOMODE
 70
     0
  9
$REGENMODE
 70
     1
  9
$FILLMODE
 70
     1
  9
$QTEXTMODE
 70
     0
  9
$MIRRTEXT
 70
     1
  9
$DRAGMODE
 70
     2
  9
$LTSCALE
 40
1.0
  9
$OSMODE
 70
    37
  9
$ATTMODE
 70
     1
  9
$TEXTSIZE
 40
3.5
  9
$TRACEWID
 40
0.5
  9
$TEXTSTYLE
  7
STANDARD
  9
$CLAYER
  8
0
  9
$CELTYPE
  6
BYLAYER
  9
$CECOLOR
 62
   256
  9
$DIMSCALE
 40
1.0
  9
$DIMASZ
 40
0.18
  9
$DIMEXO
 40
0.0625
  9
$DIMDLI
 40
0.38
  9
$DIMRND
 40
0.0
  9
$DIMDLE
 40
0.0
  9
$DIMEXE
 40
0.18
  9
$DIMTP
 40
0.0
  9
$DIMTM
 40
0.0
  9
$DIMTXT
 40
0.18
  9
$DIMCEN
 40
0.09
  9
$DIMTSZ
 40
0.0
  9
$DIMTOL
 70
     0
  9
$DIMLIM
 70
     0
  9
$DIMTIH
 70
     1
  9
$DIMTOH
 70
     1
  9
$DIMSE1
 70
     0
  9
$DIMSE2
 70
     0
  9
$DIMTAD
 70
     0
  9
$DIMZIN
 70
     0
  9
$DIMBLK
  1

  9
$DIMASO
 70
     1
  9
$DIMSHO
 70
     1
  9
$DIMPOST
  1

  9
$DIMAPOST
  1

  9
$DIMALT
 70
     0
  9
$DIMALTD
 70
     2
  9
$DIMALTF
 40
25.399999999999999
  9
$DIMLFAC
 40
1.0
  9
$DIMTOFL
 70
     0
  9
$DIMTVP
 40
0.0
  9
$DIMTIX
 70
     0
  9
$DIMSOXD
 70
     0
  9
$DIMSAH
 70
     0
  9
$DIMBLK1
  1

  9
$DIMBLK2
  1

  9
$DIMSTYLE
  2
STANDARD
  9
$DIMCLRD
 70
     0
  9
$DIMCLRE
 70
     0
  9
$DIMCLRT
 70
     0
  9
$DIMTFAC
 40
1.0
  9
$DIMGAP
 40
0.09
  9
$LUNITS
 70
     2
  9
$LUPREC
 70
     4
  9
$SKETCHINC
 40
0.1
  9
$FILLETRAD
 40
2.0
  9
$AUNITS
 70
     0
  9
$AUPREC
 70
     0
  9
$MENU
  1
ACAD
  9
$ELEVATION
 40
0.0
  9
$PELEVATION
 40
0.0
  9
$THICKNESS
 40
0.0
  9
$LIMCHECK
 70
     0
  9
$BLIPMODE
 70
     0
  9
$CHAMFERA
 40
0.0
  9
$CHAMFERB
 40
0.0
  9
$SKPOLY
 70
     0
  9
$TDCREATE
 40
2452095.0271454859
  9
$TDUPDATE
 40
2452095.0276540499
  9
$TDINDWG
 40
0.000521875
  9
$TDUSRTIMER
 40
0.000521875
  9
$USRTIMER
 70
     1
  9
$ANGBASE
 50
0.0
  9
$ANGDIR
 70
     0
  9
$PDMODE
 70
     0
  9
$PDSIZE
 40
0.0
  9
$PLINEWID
 40
0.0
  9
$COORDS
 70
     1
  9
$SPLFRAME
 70
     0
  9
$SPLINETYPE
 70
     6
  9
$SPLINESEGS
 70
     8
  9
$ATTDIA
 70
     0
  9
$ATTREQ
 70
     1
  9
$HANDLING
 70
 10241
  9
$HANDSEED
  5
18C
  9
$SURFTAB1
 70
     6
  9
$SURFTAB2
 70
     6
  9
$SURFTYPE
 70
     6
  9
$SURFU
 70
     6
  9
$SURFV
 70
     6
  9
$UCSNAME
  2

  9
$UCSORG
 10
0.0
 20
0.0
 30
0.0
  9
$UCSXDIR
 10
1.0
 20
0.0
 30
0.0
  9
$UCSYDIR
 10
0.0
 20
1.0
 30
0.0
  9
$PUCSNAME
  2

  9
$PUCSORG
 10
0.0
 20
0.0
 30
0.0
  9
$PUCSXDIR
 10
1.0
 20
0.0
 30
0.0
  9
$PUCSYDIR
 10
0.0
 20
1.0
 30
0.0
  9
$USERI1
 70
     0
  9
$USERI2
 70
     0
  9
$USERI3
 70
     0
  9
$USERI4
 70
     0
  9
$USERI5
 70
     0
  9
$USERR1
 40
0.0
  9
$USERR2
 40
0.0
  9
$USERR3
 40
0.0
  9
$USERR4
 40
0.0
  9
$USERR5
 40
0.0
  9
$WORLDVIEW
 70
     1
  9
$SHADEDGE
 70
     3
  9
$SHADEDIF
 70
    70
  9
$TILEMODE
 70
     1
  9
$MAXACTVP
 70
    64
  9
$PLIMCHECK
 70
     0
  9
$PEXTMIN
 10
1.0000000000000000E+020
 20
1.0000000000000000E+020
 30
1.0000000000000000E+020
  9
$PEXTMAX
 10
-1.0000000000000000E+020
 20
-1.0000000000000000E+020
 30
-1.0000000000000000E+020
  9
$PLIMMIN
 10
0.0
 20
0.0
  9
$PLIMMAX
 10
12.0
 20
9.0
  9
$UNITMODE
 70
     0
  9
$VISRETAIN
 70
     1
  9
$PLINEGEN
 70
     0
  9
$PSLTSCALE
 70
     1
  0
ENDSEC
  0
SECTION
  2
TABLES
  0
TABLE
  2
VPORT
 70
     2
  0
VPORT
  2
*ACTIVE
 70
     0
 10
0.0
 20
0.0
 11
1.0
 21
1.0
 12
-568.80560553915575
 22
65.23155652344235
 13
0.0
 23
0.0
 14
1.0
 24
1.0
 15
0.0
 25
0.0
 16
0.0
 26
0.0
 36
1.0
 17
0.0
 27
0.0
 37
0.0
 40
9.0000001196096946
 41
2.4144144144144142
 42
50.0
 43
0.0
 44
0.0
 50
0.0
 51
0.0
 71
     0
 72
   100
 73
     1
 74
     1
 75
     0
 76
     0
 77
     0
 78
     0
  0
ENDTAB
  0
TABLE
  2
LTYPE
 70
     9
  0
LTYPE
  2
CONTINUOUS
 70
     0
  3
Solid line
 72
    65
 73
     0
 40
0.0
  0
LTYPE
  2
BORDER
 70
     0
  3
__ __ . __ __ .
 72
    65
 73
     6
 40
18.671011626224129
 49
5.334574750349752
 49
-2.667287375174876
 49
5.334574750349752
 49
-2.667287375174876
 49
0.0
 49
-2.667287375174876
  0
LTYPE
  2
CENTER
 70
     0
  3
____ _ ____ _
 72
    65
 73
     4
 40
21.338299001399012
 49
13.33643687587438
 49
-2.667287375174876
 49
2.667287375174876
 49
-2.667287375174876
  0
LTYPE
  2
DASHDOT
 70
     0
  3
__ . __ . __ .
 72
    65
 73
     4
 40
10.669149500699501
 49
5.334574750349752
 49
-2.667287375174876
 49
0.0
 49
-2.667287375174876
  0
LTYPE
  2
DASHED
 70
     0
  3
__ __ __ __ __
 72
    65
 73
     2
 40
8.0018621255246281
 49
5.334574750349752
 49
-2.667287375174876
  0
LTYPE
  2
DIVIDE
 70
     0
  3
__ . . __ . . 
 72
    65
 73
     6
 40
13.33643687587438
 49
5.334574750349752
 49
-2.667287375174876
 49
0.0
 49
-2.667287375174876
 49
0.0
 49
-2.667287375174876
  0
LTYPE
  2
DOT
 70
     0
  3
..............
 72
    65
 73
     4
 40
5.334574750349752
 49
0.0
 49
-2.667287375174876
 49
0.0
 49
-2.667287375174876
  0
LTYPE
  2
HIDDEN
 70
     0
  3
_ _ _ _ _ _ _
 72
    65
 73
     2
 40
4.000931062762314
 49
2.667287375174876
 49
-1.333643687587438
  0
LTYPE
  2
PHANTOM
 70
     0
  3
_____ _ _ _____ _ _ 
 72
    65
 73
     6
 40
26.67287375174876
 49
13.33643687587438
 49
-2.667287375174876
 49
2.667287375174876
 49
-2.667287375174876
 49
2.667287375174876
 49
-2.667287375174876
  0
ENDTAB
  0
TABLE
  2
LAYER
 70
     2
  0
LAYER
  2
0
 70
     0
 62
     7
  6
CONTINUOUS
  0
LAYER
  2
1
 70
     0
 62
     7
  6
CONTINUOUS
  0
ENDTAB
  0
TABLE
  2
STYLE
 70
     4
  0
STYLE
  2
STANDARD
 70
     0
 40
0.0
 41
1.0
 50
0.0
 71
     0
 42
3.5
  3
txt
  4

  0
STYLE
  2
SIMPLEX
 70
     0
 40
0.0
 41
1.0
 50
0.0
 71
     0
 42
3.5
  3
simplex
  4

  0
STYLE
  2
COMPLEX
 70
     0
 40
0.0
 41
1.0
 50
0.0
 71
     0
 42
3.5
  3
complex
  4

  0
STYLE
  2
ITALIC
 70
     0
 40
0.0
 41
1.0
 50
0.0
 71
     0
 42
3.5
  3
italic
  4

  0
ENDTAB
  0
TABLE
  2
VIEW
 70
     0
  0
ENDTAB
  0
TABLE
  2
UCS
 70
     0
  0
ENDTAB
  0
TABLE
  2
APPID
 70
     1
  0
APPID
  2
ACAD
 70
     0
  0
ENDTAB
  0
TABLE
  2
DIMSTYLE
 70
     1
  0
DIMSTYLE
  2
STANDARD
 70
     0
  3

  4

  5

  6

  7

 40
1.0
 41
0.18
 42
0.0625
 43
0.38
 44
0.18
 45
0.0
 46
0.0
 47
0.0
 48
0.0
140
0.18
141
0.09
142
0.0
143
25.399999999999999
144
1.0
145
0.0
146
1.0
147
0.09
 71
     0
 72
     0
 73
     1
 74
     1
 75
     0
 76
     0
 77
     0
 78
     0
170
     0
171
     2
172
     0
173
     0
174
     0
175
     0
176
     0
177
     0
178
     0
  0
ENDTAB
  0
ENDSEC
  0
SECTION
  2
BLOCKS
  0
BLOCK
  8
0
  2
$MODEL_SPACE
 70
     0
 10
0.0
 20
0.0
 30
0.0
  3
$MODEL_SPACE
  1

  0
ENDBLK
  5
20
  8
0
  0
BLOCK
 67
     1
  8
0
  2
$PAPER_SPACE
 70
     0
 10
0.0
 20
0.0
 30
0.0
  3
$PAPER_SPACE
  1

  0
ENDBLK
  5
1C
 67
     1
  8
0
  0
ENDSEC
  0
SECTION
  2
ENTITIES
  0
LINE
  5
33
  8
1
  6
DASHDOT
 62
     3
 10
-351.07488738695122
 20
-54.753891958446019
 30
0.0
 11
-367.60693819452001
 21
-54.753891958446019
 31
0.0
  0
LINE
  5
34
  8
1
 62
     3
 10
-358.56770770997872
 20
-52.353891958446027
 30
0.0
 11
-359.60693819452001
 21
-51.753891958446019
 31
0.0
  0
LINE
  5
35
  8
1
 62
     3
 10
-358.56770770997872
 20
-57.153891958446017
 30
0.0
 11
-359.60693819452001
 21
-57.753891958446033
 31
0.0
  0
LINE
  5
36
  8
1
 62
     3
 10
-365.60693819452001
 20
-51.753891958446019
 30
0.0
 11
-359.60693819452001
 21
-51.753891958446019
 31
0.0
  0
LINE
  5
37
  8
1
 62
     3
 10
-359.60693819452001
 20
-51.753891958446019
 30
0.0
 11
-359.60693819452001
 21
-57.753891958446033
 31
0.0
  0
LINE
  5
38
  8
1
 62
     3
 10
-359.60693819452001
 20
-57.753891958446033
 30
0.0
 11
-365.60693819452001
 21
-57.753891958446033
 31
0.0
  0
LINE
  5
39
  8
1
 62
     7
 10
-354.80693819452
 20
-52.353891958446027
 30
0.0
 11
-353.07488738695122
 21
-54.753891958446019
 31
0.0
  0
LINE
  5
3A
  8
1
 62
     7
 10
-353.07488738695122
 20
-54.753891958446019
 30
0.0
 11
-354.80693819452
 21
-57.153891958446017
 31
0.0
  0
LINE
  5
3B
  8
1
 62
     7
 10
-365.60693819452001
 20
-52.353891958446027
 30
0.0
 11
-354.80693819452
 21
-52.353891958446027
 31
0.0
  0
LINE
  5
3C
  8
1
 62
     7
 10
-354.80693819452
 20
-52.353891958446027
 30
0.0
 11
-354.80693819452
 21
-57.153891958446017
 31
0.0
  0
LINE
  5
3D
  8
1
 62
     7
 10
-354.80693819452
 20
-57.153891958446017
 30
0.0
 11
-365.60693819452001
 21
-57.153891958446017
 31
0.0
  0
LINE
  5
3E
  8
1
  6
DASHDOT
 62
     3
 10
-367.60693819452001
 20
31.24610804155397
 30
0.0
 11
-351.07488738695122
 21
31.24610804155397
 31
0.0
  0
LINE
  5
3F
  8
1
 62
     3
 10
-359.60693819452001
 20
28.246108041553981
 30
0.0
 11
-358.56770770997872
 21
28.846108041553979
 31
0.0
  0
LINE
  5
40
  8
1
 62
     3
 10
-359.60693819452001
 20
34.246108041553981
 30
0.0
 11
-358.56770770997872
 21
33.64610804155398
 31
0.0
  0
LINE
  5
41
  8
1
 62
     3
 10
-359.60693819452001
 20
28.246108041553981
 30
0.0
 11
-365.60693819452001
 21
28.246108041553981
 31
0.0
  0
LINE
  5
42
  8
1
 62
     3
 10
-359.60693819452001
 20
34.246108041553981
 30
0.0
 11
-359.60693819452001
 21
28.246108041553981
 31
0.0
  0
LINE
  5
43
  8
1
 62
     3
 10
-365.60693819452001
 20
34.246108041553981
 30
0.0
 11
-359.60693819452001
 21
34.246108041553981
 31
0.0
  0
LINE
  5
44
  8
1
 62
     7
 10
-353.07488738695122
 20
31.24610804155397
 30
0.0
 11
-354.80693819452
 21
28.846108041553979
 31
0.0
  0
LINE
  5
45
  8
1
 62
     7
 10
-354.80693819452
 20
33.64610804155398
 30
0.0
 11
-353.07488738695122
 21
31.24610804155397
 31
0.0
  0
LINE
  5
46
  8
1
 62
     7
 10
-354.80693819452
 20
28.846108041553979
 30
0.0
 11
-365.60693819452001
 21
28.846108041553979
 31
0.0
  0
LINE
  5
47
  8
1
 62
     7
 10
-354.80693819452
 20
33.64610804155398
 30
0.0
 11
-354.80693819452
 21
28.846108041553979
 31
0.0
  0
LINE
  5
48
  8
1
 62
     7
 10
-365.60693819452001
 20
33.64610804155398
 30
0.0
 11
-354.80693819452
 21
33.64610804155398
 31
0.0
  0
LINE
  5
49
  8
1
 62
     7
 10
-522.42768102658113
 20
52.486512682068941
 30
0.0
 11
-522.42768102658113
 21
45.246108041553967
 31
0.0
  0
LINE
  5
4A
  8
1
 62
     7
 10
-522.42768102658113
 20
60.294917582667473
 30
0.0
 11
-522.42768102658113
 21
54.104258200119233
 31
0.0
  0
LINE
  5
4B
  8
1
 62
     7
 10
-353.60693819452001
 20
65.267366203516218
 30
0.0
 11
-353.60693819452001
 21
60.267366203516197
 31
0.0
  0
LINE
  5
4C
  8
1
 62
     7
 10
-353.40693819452002
 20
65.267366203516218
 30
0.0
 11
-353.40693819452002
 21
60.267366203516197
 31
0.0
  0
LINE
  5
4D
  8
1
 62
     7
 10
-353.20693819451981
 20
65.267366203516218
 30
0.0
 11
-353.20693819451981
 21
60.267366203516197
 31
0.0
  0
LINE
  5
4E
  8
1
 62
     7
 10
-353.80693819451989
 20
65.267366203516218
 30
0.0
 11
-353.80693819451989
 21
60.267366203516197
 31
0.0
  0
LINE
  5
4F
  8
1
 62
     7
 10
-354.00693819451999
 20
65.267366203516218
 30
0.0
 11
-354.00693819451999
 21
60.267366203516197
 31
0.0
  0
LINE
  5
50
  8
1
 62
     7
 10
-354.60693819452001
 20
60.267366203516197
 30
0.0
 11
-352.60693819452001
 21
60.267366203516197
 31
0.0
  0
LINE
  5
51
  8
1
 62
     7
 10
-354.60693819452001
 20
45.197298500440503
 30
0.0
 11
-354.60693819452001
 21
52.458961302917672
 31
0.0
  0
LINE
  5
52
  8
1
 62
     7
 10
-352.60693819452001
 20
60.267366203516197
 30
0.0
 11
-352.60693819452001
 21
54.076706820967971
 31
0.0
  0
LINE
  5
53
  8
1
 62
     7
 10
-352.60693819452001
 20
52.458961302917672
 30
0.0
 11
-352.60693819452001
 21
45.246108041554002
 31
0.0
  0
LINE
  5
54
  8
1
 62
     7
 10
-354.60693819452001
 20
54.076706820967971
 30
0.0
 11
-354.60693819452001
 21
60.267366203516197
 31
0.0
  0
LINE
  5
55
  8
1
 62
     7
 10
-521.42768102658113
 20
65.294917582667466
 30
0.0
 11
-521.42768102658113
 21
60.294917582667473
 31
0.0
  0
LINE
  5
56
  8
1
 62
     7
 10
-523.42768102658113
 20
65.294917582667466
 30
0.0
 11
-523.42768102658113
 21
60.294917582667473
 31
0.0
  0
LINE
  5
57
  8
1
 62
     7
 10
-521.22768102658108
 20
65.294917582667466
 30
0.0
 11
-521.22768102658108
 21
60.294917582667473
 31
0.0
  0
LINE
  5
58
  8
1
 62
     7
 10
-521.02768102658115
 20
65.294917582667466
 30
0.0
 11
-521.02768102658115
 21
60.294917582667473
 31
0.0
  0
LINE
  5
59
  8
1
 62
     7
 10
-521.62768102658106
 20
65.294917582667466
 30
0.0
 11
-521.62768102658106
 21
60.294917582667473
 31
0.0
  0
LINE
  5
5A
  8
1
 62
     7
 10
-521.8276810265811
 20
65.294917582667466
 30
0.0
 11
-521.8276810265811
 21
60.294917582667473
 31
0.0
  0
LINE
  5
5B
  8
1
 62
     7
 10
-523.22768102658097
 20
65.294917582667466
 30
0.0
 11
-523.22768102658097
 21
60.294917582667473
 31
0.0
  0
LINE
  5
5C
  8
1
 62
     7
 10
-523.02768102658115
 20
65.294917582667466
 30
0.0
 11
-523.02768102658115
 21
60.294917582667473
 31
0.0
  0
LINE
  5
5D
  8
1
 62
     7
 10
-523.62768102658106
 20
65.294917582667466
 30
0.0
 11
-523.62768102658106
 21
60.294917582667473
 31
0.0
  0
LINE
  5
5E
  8
1
 62
     7
 10
-523.82768102658099
 20
65.294917582667466
 30
0.0
 11
-523.82768102658099
 21
60.294917582667473
 31
0.0
  0
LINE
  5
5F
  8
1
 62
     7
 10
-524.42768102658113
 20
60.294917582667473
 30
0.0
 11
-520.42768102658113
 21
60.294917582667473
 31
0.0
  0
LINE
  5
60
  8
1
 62
     7
 10
-520.42768102658113
 20
60.294917582667473
 30
0.0
 11
-520.42768102658113
 21
54.104258200119233
 31
0.0
  0
LINE
  5
61
  8
1
 62
     7
 10
-524.42768102658113
 20
45.211009516058432
 30
0.0
 11
-524.42768102658113
 21
52.486512682068941
 31
0.0
  0
LINE
  5
62
  8
1
 62
     7
 10
-520.42768102658113
 20
52.486512682068941
 30
0.0
 11
-520.42768102658113
 21
45.211009516058432
 31
0.0
  0
LINE
  5
63
  8
1
 62
     7
 10
-524.42768102658113
 20
54.104258200119233
 30
0.0
 11
-524.42768102658113
 21
60.294917582667473
 31
0.0
  0
LINE
  5
64
  8
1
 62
     7
 10
-360.60693819452001
 20
17.246108041553981
 30
0.0
 11
-335.10693819452001
 21
17.24610804155397
 31
0.0
  0
LINE
  5
65
  8
1
 62
     7
 10
-365.60693819452001
 20
44.246108041553967
 30
0.0
 11
-364.60693819452001
 21
45.246108041553967
 31
0.0
  0
LINE
  5
66
  8
1
 62
     7
 10
-360.60693819452001
 20
17.246108041553981
 30
0.0
 11
-360.60693819452001
 21
-11.75389195844601
 31
0.0
  0
LINE
  5
67
  8
1
 62
     7
 10
-336.1069381945199
 20
23.24610804155397
 30
0.0
 11
-335.10693819452001
 21
22.246108041553981
 31
0.0
  0
LINE
  5
68
  8
1
 62
     7
 10
-335.10693819452001
 20
17.24610804155397
 30
0.0
 11
-335.10693819452001
 21
22.246108041553981
 31
0.0
  0
LINE
  5
69
  8
1
 62
     7
 10
-336.1069381945199
 20
39.246108041553981
 30
0.0
 11
-336.1069381945199
 21
23.24610804155397
 31
0.0
  0
LINE
  5
6A
  8
1
 62
     7
 10
-360.60693819452001
 20
17.246108041553981
 30
0.0
 11
-365.60693819452001
 21
17.246108041553981
 31
0.0
  0
LINE
  5
6B
  8
1
 62
     7
 10
-329.10693819452001
 20
39.246108041553981
 30
0.0
 11
-336.1069381945199
 21
39.246108041553981
 31
0.0
  0
LINE
  5
6C
  8
1
 62
     7
 10
-318.10693819452001
 20
40.246108041553981
 30
0.0
 11
-329.10693819452001
 21
40.246108041553981
 31
0.0
  0
LINE
  5
6D
  8
1
 62
     7
 10
-318.10693819452001
 20
45.246108041553967
 30
0.0
 11
-318.10693819452001
 21
40.246108041553981
 31
0.0
  0
LINE
  5
6E
  8
1
 62
     7
 10
-329.10693819452001
 20
45.246108041553967
 30
0.0
 11
-329.10693819452001
 21
39.246108041553981
 31
0.0
  0
LINE
  5
6F
  8
1
  6
DASHDOT
 62
     3
 10
-369.352316793071
 20
-11.75389195844601
 30
0.0
 11
-365.60693819452001
 21
-11.75389195844601
 31
0.0
  0
LINE
  5
70
  8
1
 62
     7
 10
-365.60693819452001
 20
44.246108041553967
 30
0.0
 11
-365.60693819452001
 21
-11.75389195844601
 31
0.0
  0
LINE
  5
71
  8
1
 62
     7
 10
-318.10693819452001
 20
45.246108041553967
 30
0.0
 11
-364.60693819452001
 21
45.246108041553967
 31
0.0
  0
LINE
  5
72
  8
1
 62
     7
 10
-318.10693819452001
 20
38.746108041553981
 30
0.0
 11
-318.10693819452001
 21
11.24610804155397
 31
0.0
  0
LINE
  5
73
  8
1
 62
     7
 10
-319.50693819451999
 20
44.246108041553967
 30
0.0
 11
-319.50693819451999
 21
38.746108041553981
 31
0.0
  0
LINE
  5
74
  8
1
 62
     7
 10
-344.60693819452001
 20
2.7029403363549411
 30
0.0
 11
-310.60693819452001
 21
2.7029403363549411
 31
0.0
  0
LINE
  5
75
  8
1
 62
     7
 10
-344.60693819452001
 20
5.2461080415539811
 30
0.0
 11
-310.60693819452001
 21
5.2461080415539811
 31
0.0
  0
LINE
  5
76
  8
1
 62
     7
 10
-344.60693819452001
 20
8.2461080415539723
 30
0.0
 11
-344.60693819452001
 21
-11.75389195844601
 31
0.0
  0
LINE
  5
77
  8
1
 62
     7
 10
-342.3569381945199
 20
8.2461080415539723
 30
0.0
 11
-344.60693819452001
 21
8.2461080415539723
 31
0.0
  0
LINE
  5
78
  8
1
 62
     7
 10
-342.3569381945199
 20
7.2461080415539811
 30
0.0
 11
-342.3569381945199
 21
11.746108041553979
 31
0.0
  0
LINE
  5
79
  8
1
 62
     7
 10
-340.60693819452001
 20
7.2461080415539811
 30
0.0
 11
-342.3569381945199
 21
7.2461080415539811
 31
0.0
  0
LINE
  5
7A
  8
1
 62
     7
 10
-340.60693819452001
 20
11.746108041553979
 30
0.0
 11
-340.60693819452001
 21
7.2461080415539811
 31
0.0
  0
LINE
  5
7B
  8
1
 62
     7
 10
-342.3569381945199
 20
11.746108041553979
 30
0.0
 11
-340.60693819452001
 21
11.746108041553979
 31
0.0
  0
LINE
  5
7C
  8
1
 62
     7
 10
-340.60693819452001
 20
8.7461080415539723
 30
0.0
 11
-328.30693819452
 21
8.7461080415539723
 31
0.0
  0
LINE
  5
7D
  8
1
 62
     7
 10
-313.60693819452001
 20
15.24610804155397
 30
0.0
 11
-318.10693819452001
 21
15.24610804155397
 31
0.0
  0
LINE
  5
7E
  8
1
 62
     7
 10
-310.60693819452001
 20
11.24610804155397
 30
0.0
 11
-328.30693819452
 21
11.24610804155397
 31
0.0
  0
LINE
  5
7F
  8
1
 62
     7
 10
-318.10693819452001
 20
11.846108041553951
 30
0.0
 11
-313.60693819452001
 21
11.846108041553951
 31
0.0
  0
LINE
  5
80
  8
1
 62
     7
 10
-313.60693819452001
 20
14.846108041553959
 30
0.0
 11
-328.30693819452
 21
14.846108041553959
 31
0.0
  0
LINE
  5
81
  8
1
 62
     7
 10
-313.60693819452001
 20
13.24610804155397
 30
0.0
 11
-312.10693819452001
 21
13.24610804155397
 31
0.0
  0
LINE
  5
82
  8
1
 62
     7
 10
-312.10693819452001
 20
14.846108041553959
 30
0.0
 11
-310.60693819452001
 21
14.846108041553959
 31
0.0
  0
LINE
  5
83
  8
1
 62
     7
 10
-334.80693819452
 20
38.496108041553981
 30
0.0
 11
-328.30693819452
 21
38.496108041553981
 31
0.0
  0
LINE
  5
84
  8
1
 62
     7
 10
-334.80693819452
 20
33.246108041553981
 30
0.0
 11
-334.80693819452
 21
38.496108041553981
 31
0.0
  0
LINE
  5
85
  8
1
 62
     7
 10
-333.80693819452
 20
33.246108041553981
 30
0.0
 11
-334.80693819452
 21
33.246108041553981
 31
0.0
  0
LINE
  5
86
  8
1
 62
     7
 10
-333.80693819452
 20
16.49610804155397
 30
0.0
 11
-333.80693819452
 21
33.246108041553981
 31
0.0
  0
LINE
  5
87
  8
1
 62
     7
 10
-340.10693819452001
 20
16.49610804155397
 30
0.0
 11
-333.80693819452
 21
16.49610804155397
 31
0.0
  0
LINE
  5
88
  8
1
 62
     7
 10
-340.10693819452001
 20
10.74610804155397
 30
0.0
 11
-340.10693819452001
 21
16.49610804155397
 31
0.0
  0
LINE
  5
89
  8
1
 62
     7
 10
-340.60693819452001
 20
10.74610804155397
 30
0.0
 11
-340.10693819452001
 21
10.74610804155397
 31
0.0
  0
LINE
  5
8A
  8
1
 62
     7
 10
-313.60693819452001
 20
17.24610804155397
 30
0.0
 11
-313.10693819452001
 21
17.246108041553981
 31
0.0
  0
LINE
  5
8B
  8
1
 62
     7
 10
-313.60693819452001
 20
11.846108041553951
 30
0.0
 11
-313.60693819452001
 21
17.24610804155397
 31
0.0
  0
LINE
  5
8C
  8
1
 62
     7
 10
-313.60693819452001
 20
16.633248329323749
 30
0.0
 11
-312.10693819452001
 21
16.633248329323749
 31
0.0
  0
LINE
  5
8D
  8
1
 62
     7
 10
-312.10693819452001
 20
13.24610804155397
 30
0.0
 11
-312.10693819452001
 21
16.633248329323749
 31
0.0
  0
LINE
  5
8E
  8
1
 62
     7
 10
-328.30693819452
 20
44.246108041553967
 30
0.0
 11
-328.30693819452
 21
8.7461080415539723
 31
0.0
  0
LINE
  5
8F
  8
1
 62
     7
 10
-328.30693819452
 20
44.246108041553967
 30
0.0
 11
-319.50693819451999
 21
44.246108041553967
 31
0.0
  0
LINE
  5
90
  8
1
 62
     7
 10
-310.60693819452001
 20
14.846108041553959
 30
0.0
 11
-310.60693819452001
 21
-11.75389195844601
 31
0.0
  0
LINE
  5
91
  8
1
 62
     7
 10
-526.42768102658113
 20
5.2461080415539811
 30
0.0
 11
-518.42768102658113
 21
5.2461080415539811
 31
0.0
  0
LINE
  5
92
  8
1
 62
     7
 10
-518.42768102658113
 20
5.2461080415539811
 30
0.0
 11
-518.42768102658113
 21
2.7029403363549411
 31
0.0
  0
LINE
  5
93
  8
1
 62
     7
 10
-526.42768102658113
 20
2.7029403363549411
 30
0.0
 11
-526.42768102658113
 21
5.2461080415539811
 31
0.0
  0
LINE
  5
94
  8
1
 62
     3
 10
-328.30693819452
 20
44.246108041553967
 30
0.0
 11
-318.10693819452001
 21
11.24610804155397
 31
0.0
  0
LINE
  5
95
  8
1
 62
     3
 10
-319.50693819451999
 20
44.246108041553967
 30
0.0
 11
-328.30693819452
 21
11.24610804155397
 31
0.0
  0
LINE
  5
96
  8
1
 62
     7
 10
-314.60693819452001
 20
38.746108041553981
 30
0.0
 11
-313.10693819452001
 21
26.529588399592051
 31
0.0
  0
LINE
  5
97
  8
1
 62
     7
 10
-313.10693819452001
 20
26.529588399592051
 30
0.0
 11
-313.10693819452001
 21
17.246108041553981
 31
0.0
  0
LINE
  5
98
  8
1
 62
     7
 10
-314.60693819452001
 20
38.746108041553981
 30
0.0
 11
-319.50693819451999
 21
38.746108041553981
 31
0.0
  0
LINE
  5
99
  8
1
 62
     7
 10
-428.60693819452001
 20
65.267366203516218
 30
0.0
 11
-428.60693819452001
 21
60.267366203516197
 31
0.0
  0
LINE
  5
9A
  8
1
 62
     7
 10
-428.40693819452008
 20
65.267366203516218
 30
0.0
 11
-428.40693819452008
 21
60.267366203516197
 31
0.0
  0
LINE
  5
9B
  8
1
 62
     7
 10
-428.20693819451981
 20
65.267366203516218
 30
0.0
 11
-428.20693819451981
 21
60.267366203516197
 31
0.0
  0
LINE
  5
9C
  8
1
 62
     7
 10
-428.80693819451989
 20
65.267366203516218
 30
0.0
 11
-428.80693819451989
 21
60.267366203516197
 31
0.0
  0
LINE
  5
9D
  8
1
 62
     7
 10
-429.00693819451999
 20
65.267366203516218
 30
0.0
 11
-429.00693819451999
 21
60.267366203516197
 31
0.0
  0
LINE
  5
9E
  8
1
 62
     7
 10
-429.60693819452001
 20
60.267366203516197
 30
0.0
 11
-427.60693819452001
 21
60.267366203516197
 31
0.0
  0
LINE
  5
9F
  8
1
 62
     7
 10
-427.60693819452001
 20
60.267366203516197
 30
0.0
 11
-427.60693819452001
 21
54.076706820967971
 31
0.0
  0
LINE
  5
A0
  8
1
 62
     7
 10
-429.60693819452001
 20
54.076706820967971
 30
0.0
 11
-429.60693819452001
 21
60.267366203516197
 31
0.0
  0
LINE
  5
A1
  8
1
 62
     3
 10
-394.50693819451999
 20
-67.753891958446005
 30
0.0
 11
-403.30693819452011
 21
-44.474158110524961
 31
0.0
  0
LINE
  5
A2
  8
1
 62
     3
 10
-394.50693819451999
 20
-44.474158110524961
 30
0.0
 11
-403.30693819452011
 21
-67.753891958446019
 31
0.0
  0
LINE
  5
A3
  8
1
 62
     7
 10
-403.30693819452011
 20
-44.474158110524961
 30
0.0
 11
-403.30693819452011
 21
-67.753891958446019
 31
0.0
  0
LINE
  5
A4
  8
1
 62
     7
 10
-394.50693819451999
 20
-35.311934474292499
 30
0.0
 11
-394.50693819451999
 21
-11.75389195844601
 31
0.0
  0
LINE
  5
A5
  8
1
 62
     7
 10
-404.10693819452001
 20
-35.813904072680579
 30
0.0
 11
-404.10693819452001
 21
-11.75389195844601
 31
0.0
  0
LINE
  5
A6
  8
1
 62
     7
 10
-404.10693819452001
 20
-44.474158110524961
 30
0.0
 11
-393.10693819452001
 21
-44.474158110524961
 31
0.0
  0
LINE
  5
A7
  8
1
 62
     7
 10
-393.10693819452001
 20
-35.813904072680579
 30
0.0
 11
-404.10693819452001
 21
-35.813904072680579
 31
0.0
  0
LINE
  5
A8
  8
1
 62
     7
 10
-403.30693819452011
 20
-35.311934474292499
 30
0.0
 11
-394.50693819451999
 21
-35.311934474292499
 31
0.0
  0
LINE
  5
A9
  8
1
 62
     7
 10
-394.50693819451999
 20
-33.30329352873887
 30
0.0
 11
-393.10693819452001
 21
-33.30329352873887
 31
0.0
  0
LINE
  5
AA
  8
1
 62
     7
 10
-404.10693819452001
 20
-33.30329352873887
 30
0.0
 11
-403.30693819452011
 21
-33.30329352873887
 31
0.0
  0
LINE
  5
AB
  8
1
 62
     7
 10
-394.50693819451999
 20
-62.25389195844599
 30
0.0
 11
-394.50693819451999
 21
-44.474158110524961
 31
0.0
  0
LINE
  5
AC
  8
1
 62
     7
 10
-404.10693819452001
 20
-68.753891958446033
 30
0.0
 11
-404.10693819452001
 21
-44.474158110524961
 31
0.0
  0
LINE
  5
AD
  8
1
 62
     7
 10
-403.30693819452011
 20
-63.512949136876138
 30
0.0
 11
-404.10693819452001
 21
-63.512949136876138
 31
0.0
  0
LINE
  5
AE
  8
1
 62
     7
 10
-439.60693819452001
 20
-68.753891958446019
 30
0.0
 11
-439.60693819452001
 21
-11.75389195844601
 31
0.0
  0
LINE
  5
AF
  8
1
 62
     7
 10
-439.60693819452001
 20
-68.753891958446019
 30
0.0
 11
-440.60693819452001
 21
-67.753891958446019
 31
0.0
  0
LINE
  5
B0
  8
1
 62
     7
 10
-393.10693819452001
 20
-63.512949136876138
 30
0.0
 11
-394.50693819451999
 21
-63.512949136876138
 31
0.0
  0
LINE
  5
B1
  8
1
 62
     7
 10
-393.10693819452001
 20
-63.512949136876138
 30
0.0
 11
-393.10693819452001
 21
-68.753891958446019
 31
0.0
  0
LINE
  5
B2
  8
1
  6
DASHDOT
 62
     3
 10
-444.35231679307088
 20
-11.75389195844601
 30
0.0
 11
-440.60693819452001
 21
-11.75389195844601
 31
0.0
  0
LINE
  5
B3
  8
1
 62
     7
 10
-394.50693819451999
 20
-62.25389195844599
 30
0.0
 11
-394.50693819451999
 21
-67.753891958446005
 31
0.0
  0
LINE
  5
B4
  8
1
 62
     7
 10
-394.50693819451999
 20
-62.25389195844599
 30
0.0
 11
-393.10693819452001
 21
-62.253891958446019
 31
0.0
  0
LINE
  5
B5
  8
1
 62
     7
 10
-394.50693819451999
 20
-67.753891958446005
 30
0.0
 11
-403.30693819452011
 21
-67.753891958446019
 31
0.0
  0
LINE
  5
B6
  8
1
 62
     7
 10
-439.60693819452001
 20
-68.753891958446019
 30
0.0
 11
-393.10693819452001
 21
-68.753891958446019
 31
0.0
  0
LINE
  5
B7
  8
1
 62
     7
 10
-387.10693819452001
 20
-11.75389195844601
 30
0.0
 11
-387.10693819452001
 21
-40.141032246215808
 31
0.0
  0
LINE
  5
B8
  8
1
 62
     7
 10
-389.60693819452001
 20
-11.75389195844601
 30
0.0
 11
-389.60693819452001
 21
-62.253891958446019
 31
0.0
  0
LINE
  5
B9
  8
1
 62
     7
 10
-393.10693819452001
 20
-11.75389195844601
 30
0.0
 11
-393.10693819452001
 21
-62.253891958446019
 31
0.0
  0
LINE
  5
BA
  8
1
 62
     7
 10
-403.30693819452011
 20
-11.75389195844601
 30
0.0
 11
-403.30693819452011
 21
-35.311934474292499
 31
0.0
  0
LINE
  5
BB
  8
1
 62
     7
 10
-385.60693819452001
 20
-38.353891958445999
 30
0.0
 11
-387.10693819452001
 21
-38.353891958445999
 31
0.0
  0
LINE
  5
BC
  8
1
 62
     7
 10
-403.30693819452011
 20
-62.003891958445998
 30
0.0
 11
-404.10693819452001
 21
-62.00389195844604
 31
0.0
  0
LINE
  5
BD
  8
1
 62
     7
 10
-393.10693819452001
 20
-62.253891958446019
 30
0.0
 11
-389.60693819452001
 21
-62.253891958446019
 31
0.0
  0
LINE
  5
BE
  8
1
 62
     7
 10
-389.60693819452001
 20
-62.253891958446019
 30
0.0
 11
-388.1009615280916
 21
-49.988696274607619
 31
0.0
  0
LINE
  5
BF
  8
1
 62
     7
 10
-388.10693819452001
 20
-49.988696274607619
 30
0.0
 11
-388.10693819452001
 21
-11.75389195844601
 31
0.0
  0
LINE
  5
C0
  8
1
 62
     7
 10
-385.60693819452001
 20
-38.353891958445999
 30
0.0
 11
-385.60693819452001
 21
-11.75389195844601
 31
0.0
  0
LINE
  5
C1
  8
1
 62
     7
 10
-387.10693819452001
 20
-40.141032246215808
 30
0.0
 11
-388.10693819452001
 21
-40.141032246215808
 31
0.0
  0
LINE
  5
C2
  8
1
 62
     7
 10
-440.60693819452001
 20
-11.75389195844601
 30
0.0
 11
-440.60693819452001
 21
-67.753891958446019
 31
0.0
  0
LINE
  5
C3
  8
1
 62
     7
 10
-335.10693819452001
 20
-40.753891958445998
 30
0.0
 11
-360.60693819452001
 21
-40.753891958446019
 31
0.0
  0
LINE
  5
C4
  8
1
 62
     7
 10
-364.60693819452001
 20
-68.753891958446019
 30
0.0
 11
-365.60693819452001
 21
-67.753891958446019
 31
0.0
  0
LINE
  5
C5
  8
1
 62
     7
 10
-360.60693819452001
 20
-11.75389195844601
 30
0.0
 11
-360.60693819452001
 21
-40.753891958446019
 31
0.0
  0
LINE
  5
C6
  8
1
 62
     7
 10
-335.10693819452001
 20
-45.753891958446033
 30
0.0
 11
-336.1069381945199
 21
-46.753891958446019
 31
0.0
  0
LINE
  5
C7
  8
1
 62
     7
 10
-335.10693819452001
 20
-45.753891958446033
 30
0.0
 11
-335.10693819452001
 21
-40.753891958445998
 31
0.0
  0
LINE
  5
C8
  8
1
 62
     7
 10
-336.1069381945199
 20
-46.753891958446019
 30
0.0
 11
-336.1069381945199
 21
-62.753891958446033
 31
0.0
  0
LINE
  5
C9
  8
1
 62
     7
 10
-365.60693819452001
 20
-40.753891958446019
 30
0.0
 11
-360.60693819452001
 21
-40.753891958446019
 31
0.0
  0
LINE
  5
CA
  8
1
 62
     7
 10
-336.1069381945199
 20
-62.753891958446033
 30
0.0
 11
-329.10693819452001
 21
-62.753891958446033
 31
0.0
  0
LINE
  5
CB
  8
1
 62
     7
 10
-329.10693819452001
 20
-63.753891958446019
 30
0.0
 11
-318.10693819452001
 21
-63.753891958446019
 31
0.0
  0
LINE
  5
CC
  8
1
 62
     7
 10
-318.10693819452001
 20
-63.753891958446019
 30
0.0
 11
-318.10693819452001
 21
-68.753891958446019
 31
0.0
  0
LINE
  5
CD
  8
1
 62
     7
 10
-329.10693819452001
 20
-62.753891958446033
 30
0.0
 11
-329.10693819452001
 21
-68.753891958446019
 31
0.0
  0
LINE
  5
CE
  8
1
 62
     7
 10
-365.60693819452001
 20
-11.75389195844601
 30
0.0
 11
-365.60693819452001
 21
-67.753891958446019
 31
0.0
  0
LINE
  5
CF
  8
1
 62
     7
 10
-364.60693819452001
 20
-68.753891958446019
 30
0.0
 11
-318.10693819452001
 21
-68.753891958446019
 31
0.0
  0
LINE
  5
D0
  8
1
 62
     7
 10
-318.10693819452001
 20
-34.753891958446012
 30
0.0
 11
-318.10693819452001
 21
-62.253891958446019
 31
0.0
  0
LINE
  5
D1
  8
1
 62
     7
 10
-319.50693819451999
 20
-62.253891958446019
 30
0.0
 11
-319.50693819451999
 21
-67.753891958446019
 31
0.0
  0
LINE
  5
D2
  8
1
 62
     7
 10
-310.60693819452001
 20
-26.753891958446012
 30
0.0
 11
-344.60693819452001
 21
-26.753891958446012
 31
0.0
  0
LINE
  5
D3
  8
1
 62
     7
 10
-310.60693819452001
 20
-28.753891958446019
 30
0.0
 11
-344.60693819452001
 21
-28.753891958446019
 31
0.0
  0
LINE
  5
D4
  8
1
 62
     7
 10
-344.60693819452001
 20
-11.75389195844601
 30
0.0
 11
-344.60693819452001
 21
-31.753891958446012
 31
0.0
  0
LINE
  5
D5
  8
1
 62
     7
 10
-344.60693819452001
 20
-31.753891958446012
 30
0.0
 11
-342.3569381945199
 21
-31.753891958446012
 31
0.0
  0
LINE
  5
D6
  8
1
 62
     7
 10
-342.3569381945199
 20
-35.253891958446012
 30
0.0
 11
-342.3569381945199
 21
-30.753891958446019
 31
0.0
  0
LINE
  5
D7
  8
1
 62
     7
 10
-342.3569381945199
 20
-30.753891958446019
 30
0.0
 11
-340.60693819452001
 21
-30.753891958446019
 31
0.0
  0
LINE
  5
D8
  8
1
 62
     7
 10
-340.60693819452001
 20
-30.753891958446019
 30
0.0
 11
-340.60693819452001
 21
-35.253891958446012
 31
0.0
  0
LINE
  5
D9
  8
1
 62
     7
 10
-340.60693819452001
 20
-35.253891958446012
 30
0.0
 11
-342.3569381945199
 21
-35.253891958446012
 31
0.0
  0
LINE
  5
DA
  8
1
 62
     7
 10
-328.30693819452
 20
-32.253891958446012
 30
0.0
 11
-340.60693819452001
 21
-32.253891958446012
 31
0.0
  0
LINE
  5
DB
  8
1
 62
     7
 10
-318.10693819452001
 20
-38.753891958445998
 30
0.0
 11
-313.60693819452001
 21
-38.753891958445998
 31
0.0
  0
LINE
  5
DC
  8
1
 62
     7
 10
-328.30693819452
 20
-34.753891958446012
 30
0.0
 11
-310.60693819452001
 21
-34.753891958446012
 31
0.0
  0
LINE
  5
DD
  8
1
 62
     7
 10
-313.60693819452001
 20
-35.353891958445992
 30
0.0
 11
-318.10693819452001
 21
-35.353891958445992
 31
0.0
  0
LINE
  5
DE
  8
1
 62
     7
 10
-328.30693819452
 20
-38.353891958445999
 30
0.0
 11
-313.60693819452001
 21
-38.353891958445999
 31
0.0
  0
LINE
  5
DF
  8
1
 62
     7
 10
-312.10693819452001
 20
-36.753891958445998
 30
0.0
 11
-313.60693819452001
 21
-36.753891958445998
 31
0.0
  0
LINE
  5
E0
  8
1
 62
     7
 10
-310.60693819452001
 20
-38.353891958445999
 30
0.0
 11
-312.10693819452001
 21
-38.353891958445999
 31
0.0
  0
LINE
  5
E1
  8
1
 62
     7
 10
-328.30693819452
 20
-62.003891958446033
 30
0.0
 11
-334.80693819452
 21
-62.003891958446033
 31
0.0
  0
LINE
  5
E2
  8
1
 62
     7
 10
-334.80693819452
 20
-62.003891958446033
 30
0.0
 11
-334.80693819452
 21
-56.753891958446019
 31
0.0
  0
LINE
  5
E3
  8
1
 62
     7
 10
-334.80693819452
 20
-56.753891958446019
 30
0.0
 11
-333.80693819452
 21
-56.753891958446019
 31
0.0
  0
LINE
  5
E4
  8
1
 62
     7
 10
-333.80693819452
 20
-56.753891958446019
 30
0.0
 11
-333.80693819452
 21
-40.003891958445998
 31
0.0
  0
LINE
  5
E5
  8
1
 62
     7
 10
-333.80693819452
 20
-40.003891958445998
 30
0.0
 11
-340.10693819452001
 21
-40.003891958445998
 31
0.0
  0
LINE
  5
E6
  8
1
 62
     7
 10
-340.10693819452001
 20
-40.003891958445998
 30
0.0
 11
-340.10693819452001
 21
-34.253891958446012
 31
0.0
  0
LINE
  5
E7
  8
1
 62
     7
 10
-340.10693819452001
 20
-34.253891958446012
 30
0.0
 11
-340.60693819452001
 21
-34.253891958446012
 31
0.0
  0
LINE
  5
E8
  8
1
 62
     7
 10
-313.10693819452001
 20
-40.753891958446019
 30
0.0
 11
-313.60693819452001
 21
-40.753891958445998
 31
0.0
  0
LINE
  5
E9
  8
1
 62
     7
 10
-313.60693819452001
 20
-40.753891958445998
 30
0.0
 11
-313.60693819452001
 21
-35.353891958445992
 31
0.0
  0
LINE
  5
EA
  8
1
 62
     7
 10
-312.10693819452001
 20
-40.141032246215808
 30
0.0
 11
-313.60693819452001
 21
-40.141032246215786
 31
0.0
  0
LINE
  5
EB
  8
1
 62
     7
 10
-312.10693819452001
 20
-40.141032246215808
 30
0.0
 11
-312.10693819452001
 21
-36.753891958445998
 31
0.0
  0
LINE
  5
EC
  8
1
 62
     7
 10
-328.30693819452
 20
-32.253891958446012
 30
0.0
 11
-328.30693819452
 21
-67.753891958446019
 31
0.0
  0
LINE
  5
ED
  8
1
 62
     7
 10
-319.50693819451999
 20
-67.753891958446019
 30
0.0
 11
-328.30693819452
 21
-67.753891958446019
 31
0.0
  0
LINE
  5
EE
  8
1
 62
     7
 10
-310.60693819452001
 20
-11.75389195844601
 30
0.0
 11
-310.60693819452001
 21
-38.353891958445999
 31
0.0
  0
LINE
  5
EF
  8
1
 62
     3
 10
-318.10693819452001
 20
-34.753891958446012
 30
0.0
 11
-328.30693819452
 21
-67.753891958446019
 31
0.0
  0
LINE
  5
F0
  8
1
 62
     3
 10
-328.30693819452
 20
-34.753891958446012
 30
0.0
 11
-319.50693819451999
 21
-67.753891958446019
 31
0.0
  0
LINE
  5
F1
  8
1
 62
     7
 10
-313.10693819452001
 20
-50.037372316484088
 30
0.0
 11
-314.60693819452001
 21
-62.253891958446019
 31
0.0
  0
LINE
  5
F2
  8
1
 62
     7
 10
-313.10693819452001
 20
-40.753891958446019
 30
0.0
 11
-313.10693819452001
 21
-50.037372316484088
 31
0.0
  0
LINE
  5
F3
  8
1
 62
     7
 10
-319.50693819451999
 20
-62.253891958446019
 30
0.0
 11
-314.60693819452001
 21
-62.253891958446019
 31
0.0
  0
LINE
  5
F4
  8
1
 62
     3
 10
-403.30693819452011
 20
20.96637419363293
 30
0.0
 11
-394.50693819451999
 21
44.24610804155396
 31
0.0
  0
LINE
  5
F5
  8
1
 62
     3
 10
-403.30693819452011
 20
44.246108041553967
 30
0.0
 11
-394.50693819451999
 21
20.96637419363293
 31
0.0
  0
LINE
  5
F6
  8
1
 62
     7
 10
-403.30693819452011
 20
44.246108041553967
 30
0.0
 11
-403.30693819452011
 21
20.96637419363293
 31
0.0
  0
LINE
  5
F7
  8
1
 62
     7
 10
-394.50693819451999
 20
-11.75389195844601
 30
0.0
 11
-394.50693819451999
 21
11.80415055740046
 31
0.0
  0
LINE
  5
F8
  8
1
 62
     7
 10
-404.10693819452001
 20
-11.75389195844601
 30
0.0
 11
-404.10693819452001
 21
12.30612015578853
 31
0.0
  0
LINE
  5
F9
  8
1
 62
     7
 10
-393.10693819452001
 20
20.96637419363293
 30
0.0
 11
-404.10693819452001
 21
20.96637419363293
 31
0.0
  0
LINE
  5
FA
  8
1
 62
     7
 10
-404.10693819452001
 20
12.30612015578853
 30
0.0
 11
-393.10693819452001
 21
12.30612015578853
 31
0.0
  0
LINE
  5
FB
  8
1
 62
     7
 10
-394.50693819451999
 20
11.80415055740046
 30
0.0
 11
-403.30693819452011
 21
11.80415055740046
 31
0.0
  0
LINE
  5
FC
  8
1
 62
     7
 10
-393.10693819452001
 20
9.7955096118468408
 30
0.0
 11
-394.50693819451999
 21
9.7955096118468408
 31
0.0
  0
LINE
  5
FD
  8
1
 62
     7
 10
-403.30693819452011
 20
9.7955096118468408
 30
0.0
 11
-404.10693819452001
 21
9.7955096118468408
 31
0.0
  0
LINE
  5
FE
  8
1
 62
     7
 10
-394.50693819451999
 20
20.96637419363293
 30
0.0
 11
-394.50693819451999
 21
38.74610804155396
 31
0.0
  0
LINE
  5
FF
  8
1
 62
     7
 10
-404.10693819452001
 20
20.96637419363293
 30
0.0
 11
-404.10693819452001
 21
45.246108041554002
 31
0.0
  0
LINE
  5
100
  8
1
 62
     7
 10
-404.10693819452001
 20
40.0051652199841
 30
0.0
 11
-403.30693819452011
 21
40.0051652199841
 31
0.0
  0
LINE
  5
101
  8
1
 62
     7
 10
-439.60693819452001
 20
-11.75389195844601
 30
0.0
 11
-439.60693819452001
 21
45.246108041553967
 31
0.0
  0
LINE
  5
102
  8
1
 62
     7
 10
-440.60693819452001
 20
44.246108041553967
 30
0.0
 11
-439.60693819452001
 21
45.246108041553967
 31
0.0
  0
LINE
  5
103
  8
1
 62
     7
 10
-394.50693819451999
 20
40.0051652199841
 30
0.0
 11
-393.10693819452001
 21
40.0051652199841
 31
0.0
  0
LINE
  5
104
  8
1
 62
     7
 10
-393.10693819452001
 20
45.246108041553967
 30
0.0
 11
-393.10693819452001
 21
40.0051652199841
 31
0.0
  0
LINE
  5
105
  8
1
 62
     7
 10
-394.50693819451999
 20
44.24610804155396
 30
0.0
 11
-394.50693819451999
 21
38.74610804155396
 31
0.0
  0
LINE
  5
106
  8
1
 62
     7
 10
-393.10693819452001
 20
38.746108041553981
 30
0.0
 11
-394.50693819451999
 21
38.74610804155396
 31
0.0
  0
LINE
  5
107
  8
1
 62
     7
 10
-403.30693819452011
 20
44.246108041553967
 30
0.0
 11
-394.50693819451999
 21
44.24610804155396
 31
0.0
  0
LINE
  5
108
  8
1
 62
     7
 10
-393.10693819452001
 20
45.246108041553967
 30
0.0
 11
-439.60693819452001
 21
45.246108041553967
 31
0.0
  0
LINE
  5
109
  8
1
 62
     7
 10
-387.10693819452001
 20
16.63324832932377
 30
0.0
 11
-387.10693819452001
 21
-11.75389195844601
 31
0.0
  0
LINE
  5
10A
  8
1
 62
     7
 10
-389.60693819452001
 20
38.746108041553981
 30
0.0
 11
-389.60693819452001
 21
-11.75389195844601
 31
0.0
  0
LINE
  5
10B
  8
1
 62
     7
 10
-393.10693819452001
 20
38.746108041553981
 30
0.0
 11
-393.10693819452001
 21
-11.75389195844601
 31
0.0
  0
LINE
  5
10C
  8
1
 62
     7
 10
-403.30693819452011
 20
11.80415055740046
 30
0.0
 11
-403.30693819452011
 21
-11.75389195844601
 31
0.0
  0
LINE
  5
10D
  8
1
 62
     7
 10
-387.10693819452001
 20
14.846108041553981
 30
0.0
 11
-385.60693819452001
 21
14.846108041553981
 31
0.0
  0
LINE
  5
10E
  8
1
 62
     7
 10
-404.10693819452001
 20
38.496108041553988
 30
0.0
 11
-403.30693819452011
 21
38.49610804155396
 31
0.0
  0
LINE
  5
10F
  8
1
 62
     7
 10
-389.60693819452001
 20
38.746108041553981
 30
0.0
 11
-393.10693819452001
 21
38.746108041553981
 31
0.0
  0
LINE
  5
110
  8
1
 62
     7
 10
-388.1009615280916
 20
26.480912357715571
 30
0.0
 11
-389.60693819452001
 21
38.746108041553981
 31
0.0
  0
LINE
  5
111
  8
1
 62
     7
 10
-388.10693819452001
 20
-11.75389195844601
 30
0.0
 11
-388.10693819452001
 21
26.480912357715571
 31
0.0
  0
LINE
  5
112
  8
1
 62
     7
 10
-385.60693819452001
 20
-11.75389195844601
 30
0.0
 11
-385.60693819452001
 21
14.846108041553981
 31
0.0
  0
LINE
  5
113
  8
1
 62
     7
 10
-388.10693819452001
 20
16.63324832932377
 30
0.0
 11
-387.10693819452001
 21
16.63324832932377
 31
0.0
  0
LINE
  5
114
  8
1
 62
     7
 10
-440.60693819452001
 20
44.246108041553967
 30
0.0
 11
-440.60693819452001
 21
-11.75389195844601
 31
0.0
  0
LINE
  5
115
  8
1
 62
     7
 10
-429.60693819452001
 20
45.246108041553967
 30
0.0
 11
-429.60693819452001
 21
52.458961302917672
 31
0.0
  0
LINE
  5
116
  8
1
 62
     7
 10
-427.60693819452001
 20
52.458961302917672
 30
0.0
 11
-427.60693819452001
 21
45.246108041553967
 31
0.0
  0
LINE
  5
117
  8
1
 62
     7
 10
-226.0
 20
45.02638630786754
 30
0.0
 11
-226.0
 21
39.746108041553981
 31
0.0
  0
LINE
  5
118
  8
1
 62
     7
 10
-236.0
 20
45.02638630786754
 30
0.0
 11
-236.0
 21
39.746108041553981
 31
0.0
  0
LINE
  5
119
  8
1
 62
     7
 10
-236.0
 20
39.746108041553981
 30
0.0
 11
-226.0
 21
39.746108041553981
 31
0.0
  0
LINE
  5
11A
  8
1
 62
     7
 10
-277.67316341257703
 20
20.966374193632952
 30
0.0
 11
-273.10030829489853
 21
18.326235060476169
 31
0.0
  0
LINE
  5
11B
  8
1
 62
     7
 10
-282.67316341257703
 20
12.30612015578858
 30
0.0
 11
-278.10030829489858
 21
9.6659810226317973
 31
0.0
  0
LINE
  5
11C
  8
1
 62
     7
 10
-278.10030829489858
 20
9.6659810226317973
 30
0.0
 11
-273.10030829489853
 21
18.326235060476169
 31
0.0
  0
LINE
  5
11D
  8
1
 62
     7
 10
-282.67316341257703
 20
-35.813904072680558
 30
0.0
 11
-278.10030829489858
 21
-33.173764939523821
 31
0.0
  0
LINE
  5
11E
  8
1
 62
     7
 10
-277.67316341257703
 20
-44.474158110524982
 30
0.0
 11
-273.10030829489853
 21
-41.834018977368189
 31
0.0
  0
LINE
  5
11F
  8
1
 62
     7
 10
-273.10030829489853
 20
-41.834018977368189
 30
0.0
 11
-278.10030829489858
 21
-33.173764939523821
 31
0.0
  0
LINE
  5
120
  8
1
 62
     7
 10
-236.0
 20
-68.534170224759563
 30
0.0
 11
-236.0
 21
-63.253891958445998
 31
0.0
  0
LINE
  5
121
  8
1
 62
     7
 10
-226.0
 20
-68.534170224759563
 30
0.0
 11
-226.0
 21
-63.25389195844604
 31
0.0
  0
LINE
  5
122
  8
1
 62
     7
 10
-226.0
 20
-63.25389195844604
 30
0.0
 11
-236.0
 21
-63.253891958445998
 31
0.0
  0
LINE
  5
123
  8
1
 62
     7
 10
-184.326836587423
 20
-44.474158110525032
 30
0.0
 11
-188.8996917051013
 21
-41.83401897736821
 31
0.0
  0
LINE
  5
124
  8
1
 62
     7
 10
-179.32683658742289
 20
-35.813904072680607
 30
0.0
 11
-183.8996917051013
 21
-33.173764939523849
 31
0.0
  0
LINE
  5
125
  8
1
 62
     7
 10
-183.8996917051013
 20
-33.173764939523849
 30
0.0
 11
-188.8996917051013
 21
-41.83401897736821
 31
0.0
  0
LINE
  5
126
  8
1
 62
     7
 10
-179.32683658742289
 20
12.30612015578849
 30
0.0
 11
-183.8996917051013
 21
9.6659810226317688
 31
0.0
  0
LINE
  5
127
  8
1
 62
     7
 10
-184.32683658742289
 20
20.96637419363292
 30
0.0
 11
-188.8996917051013
 21
18.32623506047614
 31
0.0
  0
LINE
  5
128
  8
1
 62
     7
 10
-188.8996917051013
 20
18.32623506047614
 30
0.0
 11
-183.8996917051013
 21
9.6659810226317688
 31
0.0
  0
LINE
  5
129
  8
1
  6
DASHDOT
 62
     3
 10
-188.13174251267029
 20
12.996108041553979
 30
0.0
 11
-180.77052658050249
 21
17.24610804155397
 31
0.0
  0
LINE
  5
12A
  8
1
  6
DASHDOT
 62
     3
 10
-281.22947341949742
 20
17.24610804155397
 30
0.0
 11
-273.86825748732952
 21
12.996108041553979
 31
0.0
  0
LINE
  5
12B
  8
1
  6
DASHDOT
 62
     3
 10
-180.77052658050249
 20
-40.753891958446019
 30
0.0
 11
-188.13174251267029
 21
-36.503891958446012
 31
0.0
  0
LINE
  5
12C
  8
1
  6
DASHDOT
 62
     3
 10
-273.86825748732952
 20
-36.503891958446012
 30
0.0
 11
-281.22947341949742
 21
-40.753891958446019
 31
0.0
  0
LINE
  5
12D
  8
1
 62
     7
 10
-235.0
 20
5.2461080415539811
 30
0.0
 11
-227.0
 21
5.2461080415539811
 31
0.0
  0
LINE
  5
12E
  8
1
 62
     7
 10
-227.0
 20
5.2461080415539811
 30
0.0
 11
-227.0
 21
2.7029403363549411
 31
0.0
  0
LINE
  5
12F
  8
1
 62
     7
 10
-235.0
 20
2.7029403363549411
 30
0.0
 11
-235.0
 21
5.2461080415539811
 31
0.0
  0
LINE
  5
130
  8
1
 62
     7
 10
-231.0
 20
52.486512682068941
 30
0.0
 11
-231.0
 21
45.246108041553967
 31
0.0
  0
LINE
  5
131
  8
1
 62
     7
 10
-231.0
 20
60.294917582667473
 30
0.0
 11
-231.0
 21
54.104258200119233
 31
0.0
  0
LINE
  5
132
  8
1
 62
     7
 10
-230.0
 20
65.294917582667466
 30
0.0
 11
-230.0
 21
60.294917582667473
 31
0.0
  0
LINE
  5
133
  8
1
 62
     7
 10
-232.0
 20
65.294917582667466
 30
0.0
 11
-232.0
 21
60.294917582667473
 31
0.0
  0
LINE
  5
134
  8
1
 62
     7
 10
-229.80000000000001
 20
65.294917582667466
 30
0.0
 11
-229.80000000000001
 21
60.294917582667473
 31
0.0
  0
LINE
  5
135
  8
1
 62
     7
 10
-229.59999999999991
 20
65.294917582667466
 30
0.0
 11
-229.59999999999991
 21
60.294917582667473
 31
0.0
  0
LINE
  5
136
  8
1
 62
     7
 10
-230.19999999999999
 20
65.294917582667466
 30
0.0
 11
-230.19999999999999
 21
60.294917582667473
 31
0.0
  0
LINE
  5
137
  8
1
 62
     7
 10
-230.40000000000001
 20
65.294917582667466
 30
0.0
 11
-230.40000000000001
 21
60.294917582667473
 31
0.0
  0
LINE
  5
138
  8
1
 62
     7
 10
-231.80000000000001
 20
65.294917582667466
 30
0.0
 11
-231.80000000000001
 21
60.294917582667473
 31
0.0
  0
LINE
  5
139
  8
1
 62
     7
 10
-231.59999999999991
 20
65.294917582667466
 30
0.0
 11
-231.59999999999991
 21
60.294917582667473
 31
0.0
  0
LINE
  5
13A
  8
1
 62
     7
 10
-232.19999999999999
 20
65.294917582667466
 30
0.0
 11
-232.19999999999999
 21
60.294917582667473
 31
0.0
  0
LINE
  5
13B
  8
1
 62
     7
 10
-232.40000000000001
 20
65.294917582667466
 30
0.0
 11
-232.40000000000001
 21
60.294917582667473
 31
0.0
  0
LINE
  5
13C
  8
1
 62
     7
 10
-233.0
 20
60.294917582667473
 30
0.0
 11
-229.0
 21
60.294917582667473
 31
0.0
  0
LINE
  5
13D
  8
1
 62
     7
 10
-229.0
 20
60.294917582667473
 30
0.0
 11
-229.0
 21
54.104258200119233
 31
0.0
  0
LINE
  5
13E
  8
1
 62
     7
 10
-233.0
 20
45.211009516058432
 30
0.0
 11
-233.0
 21
52.486512682068941
 31
0.0
  0
LINE
  5
13F
  8
1
 62
     7
 10
-229.0
 20
52.486512682068941
 30
0.0
 11
-229.0
 21
45.211009516058432
 31
0.0
  0
LINE
  5
140
  8
1
 62
     7
 10
-233.0
 20
54.104258200119233
 30
0.0
 11
-233.0
 21
60.294917582667473
 31
0.0
  0
LINE
  5
141
  8
1
 62
     3
 10
-403.30693819452011
 20
11.80415055740046
 30
0.0
 11
-394.50693819451999
 21
-35.311934474292499
 31
0.0
  0
LINE
  5
142
  8
1
 62
     3
 10
-403.30693819452011
 20
-35.311934474292499
 30
0.0
 11
-394.50693819451999
 21
11.80415055740046
 31
0.0
  0
LINE
  5
143
  8
1
  6
DASHDOT
 62
     3
 10
-231.0
 20
1.2461080415539789
 30
0.0
 11
-231.0
 21
-24.753891958446019
 31
0.0
  0
LINE
  5
144
  8
1
  6
DASHDOT
 62
     3
 10
-244.0
 20
-11.75389195844601
 30
0.0
 11
-218.0
 21
-11.75389195844601
 31
0.0
  0
LINE
  5
145
  8
1
  6
DASHDOT
 62
     3
 10
-310.60693819452001
 20
-11.75389195844601
 30
0.0
 11
-306.04383202918802
 21
-11.75389195844601
 31
0.0
  0
LINE
  5
146
  8
1
  6
DASHDOT
 62
     3
 10
-385.60693819452001
 20
-11.75389195844601
 30
0.0
 11
-381.04383202918802
 21
-11.75389195844601
 31
0.0
  0
LINE
  5
147
  8
1
  6
DASHDOT
 62
     3
 10
-509.42768102658113
 20
-11.75389195844601
 30
0.0
 11
-535.42768102658113
 21
-11.75389195844601
 31
0.0
  0
LINE
  5
148
  8
1
  6
DASHDOT
 62
     3
 10
-522.42768102658113
 20
1.2461080415539789
 30
0.0
 11
-522.42768102658113
 21
-24.753891958446019
 31
0.0
  0
LINE
  5
149
  8
1
  6
DASHDOT
 62
     3
 10
-522.42768102658113
 20
-24.753891958446019
 30
0.0
 11
-522.42768102658113
 21
-26.753891958446019
 31
0.0
  0
ARC
  5
14A
  8
1
 62
     7
 10
-354.10693819452001
 20
54.258849678110849
 30
0.0
 40
0.5321428571428644
 50
200.01595960288481
 51
339.98404039711511
  0
ARC
  5
14B
  8
1
 62
     7
 10
-353.10693819452001
 20
54.258849678110849
 30
0.0
 40
0.5321428571428644
 50
200.01595960288481
 51
339.98404039711511
  0
ARC
  5
14C
  8
1
 62
     7
 10
-354.10693819452001
 20
52.27681844577485
 30
0.0
 40
0.532142857142845
 50
20.015959602879072
 51
159.98404039712091
  0
ARC
  5
14D
  8
1
 62
     7
 10
-353.10693819452001
 20
52.27681844577485
 30
0.0
 40
0.532142857142845
 50
20.015959602879072
 51
159.98404039712091
  0
ARC
  5
14E
  8
1
 62
     7
 10
-353.10693819452001
 20
52.64110416006055
 30
0.0
 40
0.5321428571428644
 50
200.01595960288481
 51
339.98404039711511
  0
ARC
  5
14F
  8
1
 62
     7
 10
-354.10693819452001
 20
53.894563963825149
 30
0.0
 40
0.532142857142845
 50
20.015959602879072
 51
159.98404039712091
  0
ARC
  5
150
  8
1
 62
     7
 10
-521.42768102658113
 20
51.736512682068941
 30
0.0
 40
1.25
 50
36.86989764584402
 51
143.13010235415601
  0
ARC
  5
151
  8
1
 62
     7
 10
-521.42768102658113
 20
53.236512682068941
 30
0.0
 40
1.25
 50
216.86989764584391
 51
323.13010235415601
  0
ARC
  5
152
  8
1
 62
     7
 10
-523.42768102658113
 20
51.736512682068941
 30
0.0
 40
1.25
 50
36.86989764584402
 51
143.13010235415601
  0
ARC
  5
153
  8
1
 62
     7
 10
-523.42768102658113
 20
54.854258200119219
 30
0.0
 40
1.25
 50
216.86989764584391
 51
323.13010235415601
  0
ARC
  5
154
  8
1
 62
     7
 10
-523.42768102658113
 20
53.354258200119233
 30
0.0
 40
1.25
 50
36.86989764584402
 51
143.13010235415601
  0
ARC
  5
155
  8
1
 62
     7
 10
-521.42768102658113
 20
54.854258200119219
 30
0.0
 40
1.25
 50
216.86989764584391
 51
323.13010235415601
  0
ARC
  5
156
  8
1
 62
     7
 10
-522.42768102658113
 20
-11.75389195844601
 30
0.0
 40
15.0
 50
105.4660099534205
 51
74.533990046579461
  0
ARC
  5
157
  8
1
 62
     7
 10
-429.10693819452001
 20
54.258849678110849
 30
0.0
 40
0.5321428571428644
 50
200.01595960288481
 51
339.98404039711511
  0
ARC
  5
158
  8
1
 62
     7
 10
-428.10693819452001
 20
54.258849678110849
 30
0.0
 40
0.5321428571428644
 50
200.01595960288481
 51
339.98404039711511
  0
ARC
  5
159
  8
1
 62
     7
 10
-429.10693819452001
 20
52.27681844577485
 30
0.0
 40
0.532142857142845
 50
20.015959602879072
 51
159.98404039712091
  0
ARC
  5
15A
  8
1
 62
     7
 10
-428.10693819452001
 20
52.27681844577485
 30
0.0
 40
0.532142857142845
 50
20.015959602879072
 51
159.98404039712091
  0
ARC
  5
15B
  8
1
 62
     7
 10
-428.10693819452001
 20
52.64110416006055
 30
0.0
 40
0.5321428571428644
 50
200.01595960288481
 51
339.98404039711511
  0
ARC
  5
15C
  8
1
 62
     7
 10
-429.10693819452001
 20
53.894563963825149
 30
0.0
 40
0.532142857142845
 50
20.015959602879072
 51
159.98404039712091
  0
ARC
  5
15D
  8
1
 62
     7
 10
-231.0
 20
-11.75389195844601
 30
0.0
 40
51.999999999999993
 50
84.482265626219501
 51
95.517734373780499
  0
ARC
  5
15E
  8
1
 62
     7
 10
-231.0
 20
-11.75389195844601
 30
0.0
 40
55.999999999999943
 50
35.122516099780917
 51
84.87748390021909
  0
ARC
  5
15F
  8
1
 62
     7
 10
-231.0
 20
-11.75389195844601
 30
0.0
 40
56.000000000000028
 50
155.12251609978091
 51
180.0
  0
ARC
  5
160
  8
1
 62
     7
 10
-231.0
 20
-11.75389195844601
 30
0.0
 40
51.999999999999993
 50
144.48226562621949
 51
155.5177343737804
  0
ARC
  5
161
  8
1
 62
     7
 10
-231.0
 20
-11.75389195844601
 30
0.0
 40
51.999999999999993
 50
204.4822656262194
 51
215.51773437378051
  0
ARC
  5
162
  8
1
 62
     7
 10
-231.0
 20
-11.75389195844601
 30
0.0
 40
52.0
 50
264.48226562621937
 51
275.51773437378051
  0
ARC
  5
163
  8
1
 62
     7
 10
-231.0
 20
-11.75389195844601
 30
0.0
 40
52.000000000000007
 50
324.48226562621937
 51
335.51773437378051
  0
ARC
  5
164
  8
1
 62
     7
 10
-231.0
 20
-11.75389195844601
 30
0.0
 40
51.999999999999972
 50
24.482265626219451
 51
35.517734373780492
  0
ARC
  5
165
  8
1
 62
     7
 10
-231.0
 20
-11.75389195844601
 30
0.0
 40
56.0
 50
95.122516099780924
 51
144.877483900219
  0
ARC
  5
166
  8
1
 62
     7
 10
-231.0
 20
-11.75389195844601
 30
0.0
 40
56.0
 50
180.0
 51
204.87748390021909
  0
ARC
  5
167
  8
1
 62
     7
 10
-231.0
 20
-11.75389195844601
 30
0.0
 40
56.000000000000007
 50
215.12251609978091
 51
264.8774839002192
  0
ARC
  5
168
  8
1
 62
     7
 10
-231.0
 20
-11.75389195844601
 30
0.0
 40
55.999999999999993
 50
275.12251609978091
 51
324.87748390021892
  0
ARC
  5
169
  8
1
 62
     7
 10
-231.0
 20
-11.75389195844601
 30
0.0
 40
55.999999999999943
 50
335.12251609978091
 51
24.877483900219019
  0
ARC
  5
16A
  8
1
 62
     7
 10
-231.0
 20
-11.75389195844601
 30
0.0
 40
15.0
 50
105.4660099534205
 51
74.533990046579461
  0
ARC
  5
16B
  8
1
 62
     7
 10
-230.0
 20
51.736512682068941
 30
0.0
 40
1.25
 50
36.86989764584402
 51
143.13010235415601
  0
ARC
  5
16C
  8
1
 62
     7
 10
-230.0
 20
53.236512682068941
 30
0.0
 40
1.25
 50
216.86989764584391
 51
323.13010235415601
  0
ARC
  5
16D
  8
1
 62
     7
 10
-232.0
 20
51.736512682068941
 30
0.0
 40
1.25
 50
36.86989764584402
 51
143.13010235415601
  0
ARC
  5
16E
  8
1
 62
     7
 10
-232.0
 20
54.854258200119219
 30
0.0
 40
1.25
 50
216.86989764584391
 51
323.13010235415601
  0
ARC
  5
16F
  8
1
 62
     7
 10
-232.0
 20
53.354258200119233
 30
0.0
 40
1.25
 50
36.86989764584402
 51
143.13010235415601
  0
ARC
  5
170
  8
1
 62
     7
 10
-230.0
 20
54.854258200119219
 30
0.0
 40
1.25
 50
216.86989764584391
 51
323.13010235415601
  0
CIRCLE
  5
171
  8
1
 62
     7
 10
-479.42768102658113
 20
-11.75389195844601
 30
0.0
 40
2.5
  0
CIRCLE
  5
172
  8
1
 62
     3
 10
-479.42768102658113
 20
-11.75389195844601
 30
0.0
 40
3.0
  0
CIRCLE
  5
173
  8
1
 62
     7
 10
-522.42768102658113
 20
-54.753891958446019
 30
0.0
 40
2.5
  0
CIRCLE
  5
174
  8
1
 62
     3
 10
-522.42768102658113
 20
-54.753891958446019
 30
0.0
 40
3.0
  0
CIRCLE
  5
175
  8
1
 62
     7
 10
-565.42768102658113
 20
-11.753891958445999
 30
0.0
 40
2.4999999999999969
  0
CIRCLE
  5
176
  8
1
 62
     3
 10
-565.42768102658113
 20
-11.753891958445999
 30
0.0
 40
2.9999999999999978
  0
CIRCLE
  5
177
  8
1
 62
     7
 10
-522.42768102658113
 20
31.24610804155397
 30
0.0
 40
2.5
  0
CIRCLE
  5
178
  8
1
 62
     3
 10
-522.42768102658113
 20
31.24610804155397
 30
0.0
 40
3.0
  0
CIRCLE
  5
179
  8
1
  6
DASHDOT
 62
     3
 10
-522.42768102658113
 20
-11.75389195844601
 30
0.0
 40
43.0
  0
CIRCLE
  5
17A
  8
1
 62
     7
 10
-522.42768102658113
 20
-11.75389195844601
 30
0.0
 40
57.0
  0
CIRCLE
  5
17B
  8
1
 62
     7
 10
-522.42768102658113
 20
-11.75389195844601
 30
0.0
 40
29.0
  0
CIRCLE
  5
17C
  8
1
 62
     7
 10
-522.42768102658113
 20
-11.75389195844601
 30
0.0
 40
19.999999999999989
  0
CIRCLE
  5
17D
  8
1
 62
     7
 10
-231.0
 20
-11.75389195844601
 30
0.0
 40
57.0
  0
CIRCLE
  5
17E
  8
1
 62
     7
 10
-231.0
 20
-11.75389195844601
 30
0.0
 40
50.5
  0
CIRCLE
  5
17F
  8
1
 62
     7
 10
-231.0
 20
-11.75389195844601
 30
0.0
 40
38.234804316161593
  0
CIRCLE
  5
180
  8
1
 62
     7
 10
-231.0
 20
-11.75389195844601
 30
0.0
 40
26.599999999999991
  0
CIRCLE
  5
181
  8
1
 62
     7
 10
-231.0
 20
-11.75389195844601
 30
0.0
 40
29.0
  0
CIRCLE
  5
182
  8
1
 62
     7
 10
-522.42768102658113
 20
-11.75389195844601
 30
0.0
 40
56.0
  0
TEXT
  5
184
  8
1
 62
     7
 10
-578.74221381842187
 20
70.861211513172208
 30
0.0
 40
5.0
  1
MDB 5
 41
0.9
  7
SIMPLEX
 72
     1
 11
-568.13507096127887
 21
70.861211513172208
 31
0.0
  0
ENDSEC
  0
EOF
