  0
SECTION
  2
HEADER
  9
$ACADVER
  1
AC1009
  9
$INSBASE
 10
0
 20
0
  9
$EXTMIN
 10
-579.4276810265811
 20
-68.75389195844603
  9
$EXTMAX
 10
-174
 20
75.86121151317221
  9
$LIMMIN
 10
-579.4276810265811
 20
-68.75389195844603
  9
$LIMMAX
 10
-174
 20
75.86121151317221
  9
$VIEWCTR
 10
10
 20
10
  9
$VIEWSIZE
 40
10
  9
$SNAPMODE
 70
0
  9
$SNAPUNIT
 10
1
 20
1
  9
$SNAPBASE
 10
0
 20
0
  9
$SNAPANG
 50
0
  9
$SNAPSTYLE
 70
0
  9
$SNAPISOPAIR
 70
0
  9
$GRIDMODE
 70
0
  9
$GRIDUNIT
 10
0
 20
0
  9
$ORTHOMODE
 70
0
  9
$REGENMODE
 70
1
  9
$FILLMODE
 70
1
  9
$QTEXTMODE
 70
0
  9
$DRAGMODE
 70
2
  9
$LTSCALE
 40
1
  9
$OSMODE
 70
0
  9
$ATTMODE
 70
1
  9
$TEXTSIZE
 40
3.5
  9
$TRACEWID
 40
0.5
  9
$TEXTSTYLE
  7
STANDARD
  9
$CLAYER
  8
0
  9
$CELTYPE
  6
BYLAYER
  9
$CECOLOR
 62
256
  9
$DIMSCALE
 40
1
  9
$DIMASZ
 40
0.18
  9
$DIMEXO
 40
0.0625
  9
$DIMDLI
 40
0.38
  9
$DIMRND
 40
0
  9
$DIMDLE
 40
0
  9
$DIMEXE
 40
0.18
  9
$DIMTP
 40
0
  9
$DIMTM
 40
0
  9
$DIMTXT
 40
0.18
  9
$DIMCEN
 40
0.09
  9
$DIMTSZ
 40
0
  9
$DIMTOL
 70
0
  9
$DIMLIM
 70
0
  9
$DIMTIH
 70
1
  9
$DIMTOH
 70
1
  9
$DIMSE1
 70
0
  9
$DIMSE2
 70
0
  9
$DIMTAD
 70
0
  9
$DIMZIN
 70
0
  9
$DIMBLK
  1

  9
$DIMASO
 70
1
  9
$DIMSHO
 70
1
  9
$DIMPOST
  1

  9
$DIMAPOST
  1

  9
$DIMALT
 70
0
  9
$DIMALTD
 70
2
  9
$DIMALTF
 40
25.4
  9
$DIMLFAC
 40
1
  9
$DIMTOFL
 70
0
  9
$DIMTVP
 40
0
  9
$DIMTIX
 70
0
  9
$DIMSOXD
 70
0
  9
$DIMSAH
 70
0
  9
$DIMBLK1
  1

  9
$DIMBLK2
  1

  9
$DIMSTYLE
  2
*UNNAMED
  9
$DIMCLRD
 70
0
  9
$DIMCLRE
 70
0
  9
$DIMCLRT
 70
0
  9
$DIMTFAC
 40
1
  9
$DIMGAP
 40
0.09
  9
$LUNITS
 70
2
  9
$LUPREC
 70
4
  9
$AXISMODE
 70
0
  9
$AXISUNIT
 10
0
 20
0
  9
$SKETCHINC
 40
0.1
  9
$FILLETRAD
 40
2
  9
$AUNITS
 70
0
  9
$AUPREC
 70
0
  9
$MENU
  1
ACAD
  9
$ELEVATION
 40
0
  9
$THICKNESS
 40
0
  9
$VIEWDIR
 10
0
 20
0
 30
1
  9
$LIMCHECK
 70
0
  9
$BLIPMODE
 70
1
  9
$CHAMFERA
 40
0
  9
$CHAMFERB
 40
0
  9
$FASTZOOM
 70
1
  9
$SKPOLY
 70
0
  9
$ANGBASE
 50
0
  9
$ANGDIR
 70
0
  9
$PDMODE
 70
0
  9
$PDSIZE
 40
0
  9
$PLINEWID
 40
0
  9
$COORDS
 70
2
  0
ENDSEC
  0
SECTION
  2
TABLES
  0
TABLE
  2
DIMSTYLE
 70
0
  0
ENDTAB
  0
TABLE
  2
LTYPE
 70
9
  0
LTYPE
  2
CONTINUOUS
 70
64
  3
Solid line
 72
65
 73
0
 40
0
  0
LTYPE
  2
BORDER
 70
64
  3
__ __ . __ __ .
 72
65
 73
6
 40
18.67101162622413
 49
5.334574750349752
 49
-2.667287375174876
 49
5.334574750349752
 49
-2.667287375174876
 49
0
 49
-2.667287375174876
  0
LTYPE
  2
CENTER
 70
64
  3
____ _ ____ _
 72
65
 73
4
 40
21.33829900139901
 49
13.33643687587438
 49
-2.667287375174876
 49
2.667287375174876
 49
-2.667287375174876
  0
LTYPE
  2
DASHDOT
 70
64
  3
__ . __ . __ .
 72
65
 73
4
 40
10.6691495006995
 49
5.334574750349752
 49
-2.667287375174876
 49
0
 49
-2.667287375174876
  0
LTYPE
  2
DASHED
 70
64
  3
__ __ __ __ __
 72
65
 73
2
 40
8.001862125524628
 49
5.334574750349752
 49
-2.667287375174876
  0
LTYPE
  2
DIVIDE
 70
64
  3
__ . . __ . . 
 72
65
 73
6
 40
13.33643687587438
 49
5.334574750349752
 49
-2.667287375174876
 49
0
 49
-2.667287375174876
 49
0
 49
-2.667287375174876
  0
LTYPE
  2
DOT
 70
64
  3
..............
 72
65
 73
4
 40
5.334574750349752
 49
0
 49
-2.667287375174876
 49
0
 49
-2.667287375174876
  0
LTYPE
  2
HIDDEN
 70
64
  3
_ _ _ _ _ _ _
 72
65
 73
2
 40
4.000931062762314
 49
2.667287375174876
 49
-1.333643687587438
  0
LTYPE
  2
PHANTOM
 70
64
  3
_____ _ _ _____ _ _ 
 72
65
 73
6
 40
26.67287375174876
 49
13.33643687587438
 49
-2.667287375174876
 49
2.667287375174876
 49
-2.667287375174876
 49
2.667287375174876
 49
-2.667287375174876
  0
ENDTAB
  0
TABLE
  2
LAYER
 70
3
  0
LAYER
  2
1
 70
0
 62
7
  6
CONTINUOUS
  0
LAYER
  2
0
 70
0
 62
7
  6
CONTINUOUS
  0
ENDTAB
  0
TABLE
  2
STYLE
 70
4
  0
STYLE
  2
STANDARD
 70
0
 40
0
 41
1
 50
0
 71
0
 42
3.5
  3
txt
  4

  0
STYLE
  2
SIMPLEX
 70
0
 40
0
 41
1
 50
0
 71
0
 42
3.5
  3
simplex
  4

  0
STYLE
  2
COMPLEX
 70
0
 40
0
 41
1
 50
0
 71
0
 42
3.5
  3
complex
  4

  0
STYLE
  2
ITALIC
 70
0
 40
0
 41
1
 50
0
 71
0
 42
3.5
  3
italic
  4

  0
ENDTAB
  0
TABLE
  2
VIEW
 70
0
  0
ENDTAB
  0
ENDSEC
  0
SECTION
  2
BLOCKS
  0
ENDSEC
  0
SECTION
  2
ENTITIES
  0
LINE
  8
1
 62
3
  6
DASHDOT
 10
-351.0748873869512
 20
-54.75389195844602
 30
0
 11
-367.60693819452
 21
-54.75389195844602
 31
0
  0
LINE
  8
1
 62
3
 10
-358.5677077099787
 20
-52.35389195844602
 30
0
 11
-359.60693819452
 21
-51.75389195844602
 31
0
  0
LINE
  8
1
 62
3
 10
-358.5677077099787
 20
-57.15389195844602
 30
0
 11
-359.60693819452
 21
-57.75389195844602
 31
0
  0
LINE
  8
1
 62
3
 10
-365.60693819452
 20
-51.75389195844602
 30
0
 11
-359.60693819452
 21
-51.75389195844602
 31
0
  0
LINE
  8
1
 62
3
 10
-359.60693819452
 20
-51.75389195844602
 30
0
 11
-359.60693819452
 21
-57.75389195844602
 31
0
  0
LINE
  8
1
 62
3
 10
-359.60693819452
 20
-57.75389195844602
 30
0
 11
-365.60693819452
 21
-57.75389195844602
 31
0
  0
LINE
  8
1
 62
7
 10
-354.80693819452
 20
-52.35389195844602
 30
0
 11
-353.0748873869512
 21
-54.75389195844602
 31
0
  0
LINE
  8
1
 62
7
 10
-353.0748873869512
 20
-54.75389195844602
 30
0
 11
-354.80693819452
 21
-57.15389195844602
 31
0
  0
LINE
  8
1
 62
7
 10
-365.60693819452
 20
-52.35389195844602
 30
0
 11
-354.80693819452
 21
-52.35389195844602
 31
0
  0
LINE
  8
1
 62
7
 10
-354.80693819452
 20
-52.35389195844602
 30
0
 11
-354.80693819452
 21
-57.15389195844602
 31
0
  0
LINE
  8
1
 62
7
 10
-354.80693819452
 20
-57.15389195844602
 30
0
 11
-365.60693819452
 21
-57.15389195844602
 31
0
  0
LINE
  8
1
 62
3
  6
DASHDOT
 10
-367.60693819452
 20
31.24610804155398
 30
0
 11
-351.0748873869512
 21
31.24610804155398
 31
0
  0
LINE
  8
1
 62
3
 10
-359.60693819452
 20
28.24610804155398
 30
0
 11
-358.5677077099787
 21
28.84610804155398
 31
0
  0
LINE
  8
1
 62
3
 10
-359.60693819452
 20
34.24610804155398
 30
0
 11
-358.5677077099787
 21
33.64610804155398
 31
0
  0
LINE
  8
1
 62
3
 10
-359.60693819452
 20
28.24610804155398
 30
0
 11
-365.60693819452
 21
28.24610804155398
 31
0
  0
LINE
  8
1
 62
3
 10
-359.60693819452
 20
34.24610804155398
 30
0
 11
-359.60693819452
 21
28.24610804155398
 31
0
  0
LINE
  8
1
 62
3
 10
-365.60693819452
 20
34.24610804155398
 30
0
 11
-359.60693819452
 21
34.24610804155398
 31
0
  0
LINE
  8
1
 62
7
 10
-353.0748873869512
 20
31.24610804155398
 30
0
 11
-354.80693819452
 21
28.84610804155398
 31
0
  0
LINE
  8
1
 62
7
 10
-354.80693819452
 20
33.64610804155398
 30
0
 11
-353.0748873869512
 21
31.24610804155398
 31
0
  0
LINE
  8
1
 62
7
 10
-354.80693819452
 20
28.84610804155398
 30
0
 11
-365.60693819452
 21
28.84610804155398
 31
0
  0
LINE
  8
1
 62
7
 10
-354.80693819452
 20
33.64610804155398
 30
0
 11
-354.80693819452
 21
28.84610804155398
 31
0
  0
LINE
  8
1
 62
7
 10
-365.60693819452
 20
33.64610804155398
 30
0
 11
-354.80693819452
 21
33.64610804155398
 31
0
  0
LINE
  8
1
 62
7
 10
-522.4276810265811
 20
52.48651268206894
 30
0
 11
-522.4276810265811
 21
45.24610804155398
 31
0
  0
LINE
  8
1
 62
7
 10
-522.4276810265811
 20
60.29491758266747
 30
0
 11
-522.4276810265811
 21
54.10425820011923
 31
0
  0
LINE
  8
1
 62
7
 10
-353.60693819452
 20
65.26736620351622
 30
0
 11
-353.60693819452
 21
60.26736620351621
 31
0
  0
LINE
  8
1
 62
7
 10
-353.40693819452
 20
65.26736620351622
 30
0
 11
-353.40693819452
 21
60.26736620351621
 31
0
  0
LINE
  8
1
 62
7
 10
-353.2069381945199
 20
65.26736620351622
 30
0
 11
-353.2069381945199
 21
60.26736620351621
 31
0
  0
LINE
  8
1
 62
7
 10
-353.8069381945199
 20
65.26736620351622
 30
0
 11
-353.8069381945199
 21
60.26736620351621
 31
0
  0
LINE
  8
1
 62
7
 10
-354.00693819452
 20
65.26736620351622
 30
0
 11
-354.00693819452
 21
60.26736620351621
 31
0
  0
LINE
  8
1
 62
7
 10
-354.60693819452
 20
60.26736620351621
 30
0
 11
-352.60693819452
 21
60.26736620351621
 31
0
  0
LINE
  8
1
 62
7
 10
-354.60693819452
 20
45.1972985004405
 30
0
 11
-354.60693819452
 21
52.45896130291767
 31
0
  0
LINE
  8
1
 62
7
 10
-352.60693819452
 20
60.26736620351621
 30
0
 11
-352.60693819452
 21
54.07670682096797
 31
0
  0
LINE
  8
1
 62
7
 10
-352.60693819452
 20
52.45896130291767
 30
0
 11
-352.60693819452
 21
45.24610804155399
 31
0
  0
LINE
  8
1
 62
7
 10
-354.60693819452
 20
54.07670682096797
 30
0
 11
-354.60693819452
 21
60.26736620351621
 31
0
  0
LINE
  8
1
 62
7
 10
-521.4276810265811
 20
65.29491758266747
 30
0
 11
-521.4276810265811
 21
60.29491758266747
 31
0
  0
LINE
  8
1
 62
7
 10
-523.4276810265811
 20
65.29491758266747
 30
0
 11
-523.4276810265811
 21
60.29491758266747
 31
0
  0
LINE
  8
1
 62
7
 10
-521.2276810265811
 20
65.29491758266747
 30
0
 11
-521.2276810265811
 21
60.29491758266747
 31
0
  0
LINE
  8
1
 62
7
 10
-521.0276810265812
 20
65.29491758266747
 30
0
 11
-521.0276810265812
 21
60.29491758266747
 31
0
  0
LINE
  8
1
 62
7
 10
-521.6276810265812
 20
65.29491758266747
 30
0
 11
-521.6276810265812
 21
60.29491758266747
 31
0
  0
LINE
  8
1
 62
7
 10
-521.8276810265811
 20
65.29491758266747
 30
0
 11
-521.8276810265811
 21
60.29491758266747
 31
0
  0
LINE
  8
1
 62
7
 10
-523.2276810265811
 20
65.29491758266747
 30
0
 11
-523.2276810265811
 21
60.29491758266747
 31
0
  0
LINE
  8
1
 62
7
 10
-523.0276810265812
 20
65.29491758266747
 30
0
 11
-523.0276810265812
 21
60.29491758266747
 31
0
  0
LINE
  8
1
 62
7
 10
-523.6276810265812
 20
65.29491758266747
 30
0
 11
-523.6276810265812
 21
60.29491758266747
 31
0
  0
LINE
  8
1
 62
7
 10
-523.8276810265811
 20
65.29491758266747
 30
0
 11
-523.8276810265811
 21
60.29491758266747
 31
0
  0
LINE
  8
1
 62
7
 10
-524.4276810265811
 20
60.29491758266747
 30
0
 11
-520.4276810265811
 21
60.29491758266747
 31
0
  0
LINE
  8
1
 62
7
 10
-520.4276810265811
 20
60.29491758266747
 30
0
 11
-520.4276810265811
 21
54.10425820011923
 31
0
  0
LINE
  8
1
 62
7
 10
-524.4276810265811
 20
45.21100951605844
 30
0
 11
-524.4276810265811
 21
52.48651268206894
 31
0
  0
LINE
  8
1
 62
7
 10
-520.4276810265811
 20
52.48651268206894
 30
0
 11
-520.4276810265811
 21
45.21100951605844
 31
0
  0
LINE
  8
1
 62
7
 10
-524.4276810265811
 20
54.10425820011923
 30
0
 11
-524.4276810265811
 21
60.29491758266747
 31
0
  0
LINE
  8
1
 62
7
 10
-360.60693819452
 20
17.24610804155398
 30
0
 11
-335.10693819452
 21
17.24610804155397
 31
0
  0
LINE
  8
1
 62
7
 10
-365.60693819452
 20
44.24610804155398
 30
0
 11
-364.60693819452
 21
45.24610804155398
 31
0
  0
LINE
  8
1
 62
7
 10
-360.60693819452
 20
17.24610804155398
 30
0
 11
-360.60693819452
 21
-11.75389195844602
 31
0
  0
LINE
  8
1
 62
7
 10
-336.10693819452
 20
23.24610804155398
 30
0
 11
-335.10693819452
 21
22.24610804155398
 31
0
  0
LINE
  8
1
 62
7
 10
-335.10693819452
 20
17.24610804155397
 30
0
 11
-335.10693819452
 21
22.24610804155398
 31
0
  0
LINE
  8
1
 62
7
 10
-336.10693819452
 20
39.24610804155398
 30
0
 11
-336.10693819452
 21
23.24610804155398
 31
0
  0
LINE
  8
1
 62
7
 10
-360.60693819452
 20
17.24610804155398
 30
0
 11
-365.60693819452
 21
17.24610804155398
 31
0
  0
LINE
  8
1
 62
7
 10
-329.10693819452
 20
39.24610804155398
 30
0
 11
-336.10693819452
 21
39.24610804155398
 31
0
  0
LINE
  8
1
 62
7
 10
-318.10693819452
 20
40.24610804155398
 30
0
 11
-329.10693819452
 21
40.24610804155398
 31
0
  0
LINE
  8
1
 62
7
 10
-318.10693819452
 20
45.24610804155398
 30
0
 11
-318.10693819452
 21
40.24610804155398
 31
0
  0
LINE
  8
1
 62
7
 10
-329.10693819452
 20
45.24610804155398
 30
0
 11
-329.10693819452
 21
39.24610804155398
 31
0
  0
LINE
  8
1
 62
3
  6
DASHDOT
 10
-369.352316793071
 20
-11.75389195844602
 30
0
 11
-365.60693819452
 21
-11.75389195844602
 31
0
  0
LINE
  8
1
 62
7
 10
-365.60693819452
 20
44.24610804155398
 30
0
 11
-365.60693819452
 21
-11.75389195844602
 31
0
  0
LINE
  8
1
 62
7
 10
-318.10693819452
 20
45.24610804155398
 30
0
 11
-364.60693819452
 21
45.24610804155398
 31
0
  0
LINE
  8
1
 62
7
 10
-318.10693819452
 20
38.74610804155398
 30
0
 11
-318.10693819452
 21
11.24610804155397
 31
0
  0
LINE
  8
1
 62
7
 10
-319.50693819452
 20
44.24610804155398
 30
0
 11
-319.50693819452
 21
38.74610804155398
 31
0
  0
LINE
  8
1
 62
7
 10
-344.60693819452
 20
2.702940336354942
 30
0
 11
-310.60693819452
 21
2.702940336354942
 31
0
  0
LINE
  8
1
 62
7
 10
-344.60693819452
 20
5.246108041553981
 30
0
 11
-310.60693819452
 21
5.246108041553981
 31
0
  0
LINE
  8
1
 62
7
 10
-344.60693819452
 20
8.246108041553971
 30
0
 11
-344.60693819452
 21
-11.75389195844602
 31
0
  0
LINE
  8
1
 62
7
 10
-342.35693819452
 20
8.246108041553971
 30
0
 11
-344.60693819452
 21
8.246108041553971
 31
0
  0
LINE
  8
1
 62
7
 10
-342.35693819452
 20
7.246108041553981
 30
0
 11
-342.35693819452
 21
11.74610804155398
 31
0
  0
LINE
  8
1
 62
7
 10
-340.60693819452
 20
7.246108041553981
 30
0
 11
-342.35693819452
 21
7.246108041553981
 31
0
  0
LINE
  8
1
 62
7
 10
-340.60693819452
 20
11.74610804155398
 30
0
 11
-340.60693819452
 21
7.246108041553981
 31
0
  0
LINE
  8
1
 62
7
 10
-342.35693819452
 20
11.74610804155398
 30
0
 11
-340.60693819452
 21
11.74610804155398
 31
0
  0
LINE
  8
1
 62
7
 10
-340.60693819452
 20
8.746108041553971
 30
0
 11
-328.30693819452
 21
8.746108041553971
 31
0
  0
LINE
  8
1
 62
7
 10
-313.60693819452
 20
15.24610804155397
 30
0
 11
-318.10693819452
 21
15.24610804155397
 31
0
  0
LINE
  8
1
 62
7
 10
-310.60693819452
 20
11.24610804155397
 30
0
 11
-328.30693819452
 21
11.24610804155397
 31
0
  0
LINE
  8
1
 62
7
 10
-318.10693819452
 20
11.84610804155396
 30
0
 11
-313.60693819452
 21
11.84610804155396
 31
0
  0
LINE
  8
1
 62
7
 10
-313.60693819452
 20
14.84610804155396
 30
0
 11
-328.30693819452
 21
14.84610804155396
 31
0
  0
LINE
  8
1
 62
7
 10
-313.60693819452
 20
13.24610804155397
 30
0
 11
-312.10693819452
 21
13.24610804155397
 31
0
  0
LINE
  8
1
 62
7
 10
-312.10693819452
 20
14.84610804155396
 30
0
 11
-310.60693819452
 21
14.84610804155396
 31
0
  0
LINE
  8
1
 62
7
 10
-334.80693819452
 20
38.49610804155398
 30
0
 11
-328.30693819452
 21
38.49610804155398
 31
0
  0
LINE
  8
1
 62
7
 10
-334.80693819452
 20
33.24610804155398
 30
0
 11
-334.80693819452
 21
38.49610804155398
 31
0
  0
LINE
  8
1
 62
7
 10
-333.80693819452
 20
33.24610804155398
 30
0
 11
-334.80693819452
 21
33.24610804155398
 31
0
  0
LINE
  8
1
 62
7
 10
-333.80693819452
 20
16.49610804155397
 30
0
 11
-333.80693819452
 21
33.24610804155398
 31
0
  0
LINE
  8
1
 62
7
 10
-340.10693819452
 20
16.49610804155397
 30
0
 11
-333.80693819452
 21
16.49610804155397
 31
0
  0
LINE
  8
1
 62
7
 10
-340.10693819452
 20
10.74610804155397
 30
0
 11
-340.10693819452
 21
16.49610804155397
 31
0
  0
LINE
  8
1
 62
7
 10
-340.60693819452
 20
10.74610804155397
 30
0
 11
-340.10693819452
 21
10.74610804155397
 31
0
  0
LINE
  8
1
 62
7
 10
-313.60693819452
 20
17.24610804155397
 30
0
 11
-313.10693819452
 21
17.24610804155398
 31
0
  0
LINE
  8
1
 62
7
 10
-313.60693819452
 20
11.84610804155396
 30
0
 11
-313.60693819452
 21
17.24610804155397
 31
0
  0
LINE
  8
1
 62
7
 10
-313.60693819452
 20
16.63324832932376
 30
0
 11
-312.10693819452
 21
16.63324832932376
 31
0
  0
LINE
  8
1
 62
7
 10
-312.10693819452
 20
13.24610804155397
 30
0
 11
-312.10693819452
 21
16.63324832932376
 31
0
  0
LINE
  8
1
 62
7
 10
-328.30693819452
 20
44.24610804155398
 30
0
 11
-328.30693819452
 21
8.746108041553971
 31
0
  0
LINE
  8
1
 62
7
 10
-328.30693819452
 20
44.24610804155398
 30
0
 11
-319.50693819452
 21
44.24610804155398
 31
0
  0
LINE
  8
1
 62
7
 10
-310.60693819452
 20
14.84610804155396
 30
0
 11
-310.60693819452
 21
-11.75389195844602
 31
0
  0
LINE
  8
1
 62
7
 10
-526.4276810265811
 20
5.246108041553981
 30
0
 11
-518.4276810265811
 21
5.246108041553981
 31
0
  0
LINE
  8
1
 62
7
 10
-518.4276810265811
 20
5.246108041553981
 30
0
 11
-518.4276810265811
 21
2.702940336354942
 31
0
  0
LINE
  8
1
 62
7
 10
-526.4276810265811
 20
2.702940336354942
 30
0
 11
-526.4276810265811
 21
5.246108041553981
 31
0
  0
LINE
  8
1
 62
3
 10
-328.30693819452
 20
44.24610804155398
 30
0
 11
-318.10693819452
 21
11.24610804155397
 31
0
  0
LINE
  8
1
 62
3
 10
-319.50693819452
 20
44.24610804155398
 30
0
 11
-328.30693819452
 21
11.24610804155397
 31
0
  0
LINE
  8
1
 62
7
 10
-314.60693819452
 20
38.74610804155398
 30
0
 11
-313.10693819452
 21
26.52958839959205
 31
0
  0
LINE
  8
1
 62
7
 10
-313.10693819452
 20
26.52958839959205
 30
0
 11
-313.10693819452
 21
17.24610804155398
 31
0
  0
LINE
  8
1
 62
7
 10
-314.60693819452
 20
38.74610804155398
 30
0
 11
-319.50693819452
 21
38.74610804155398
 31
0
  0
LINE
  8
1
 62
7
 10
-428.60693819452
 20
65.26736620351622
 30
0
 11
-428.60693819452
 21
60.26736620351621
 31
0
  0
LINE
  8
1
 62
7
 10
-428.4069381945201
 20
65.26736620351622
 30
0
 11
-428.4069381945201
 21
60.26736620351621
 31
0
  0
LINE
  8
1
 62
7
 10
-428.2069381945199
 20
65.26736620351622
 30
0
 11
-428.2069381945199
 21
60.26736620351621
 31
0
  0
LINE
  8
1
 62
7
 10
-428.8069381945199
 20
65.26736620351622
 30
0
 11
-428.8069381945199
 21
60.26736620351621
 31
0
  0
LINE
  8
1
 62
7
 10
-429.00693819452
 20
65.26736620351622
 30
0
 11
-429.00693819452
 21
60.26736620351621
 31
0
  0
LINE
  8
1
 62
7
 10
-429.60693819452
 20
60.26736620351621
 30
0
 11
-427.60693819452
 21
60.26736620351621
 31
0
  0
LINE
  8
1
 62
7
 10
-427.60693819452
 20
60.26736620351621
 30
0
 11
-427.60693819452
 21
54.07670682096797
 31
0
  0
LINE
  8
1
 62
7
 10
-429.60693819452
 20
54.07670682096797
 30
0
 11
-429.60693819452
 21
60.26736620351621
 31
0
  0
LINE
  8
1
 62
3
 10
-394.50693819452
 20
-67.75389195844601
 30
0
 11
-403.3069381945202
 21
-44.47415811052497
 31
0
  0
LINE
  8
1
 62
3
 10
-394.50693819452
 20
-44.47415811052497
 30
0
 11
-403.3069381945202
 21
-67.75389195844602
 31
0
  0
LINE
  8
1
 62
7
 10
-403.3069381945202
 20
-44.47415811052497
 30
0
 11
-403.3069381945202
 21
-67.75389195844602
 31
0
  0
LINE
  8
1
 62
7
 10
-394.50693819452
 20
-35.3119344742925
 30
0
 11
-394.50693819452
 21
-11.75389195844602
 31
0
  0
LINE
  8
1
 62
7
 10
-404.10693819452
 20
-35.81390407268058
 30
0
 11
-404.10693819452
 21
-11.75389195844602
 31
0
  0
LINE
  8
1
 62
7
 10
-404.10693819452
 20
-44.47415811052497
 30
0
 11
-393.10693819452
 21
-44.47415811052497
 31
0
  0
LINE
  8
1
 62
7
 10
-393.10693819452
 20
-35.81390407268058
 30
0
 11
-404.10693819452
 21
-35.81390407268058
 31
0
  0
LINE
  8
1
 62
7
 10
-403.3069381945202
 20
-35.3119344742925
 30
0
 11
-394.50693819452
 21
-35.3119344742925
 31
0
  0
LINE
  8
1
 62
7
 10
-394.50693819452
 20
-33.30329352873888
 30
0
 11
-393.10693819452
 21
-33.30329352873888
 31
0
  0
LINE
  8
1
 62
7
 10
-404.10693819452
 20
-33.30329352873888
 30
0
 11
-403.3069381945202
 21
-33.30329352873888
 31
0
  0
LINE
  8
1
 62
7
 10
-394.50693819452
 20
-62.253891958446
 30
0
 11
-394.50693819452
 21
-44.47415811052497
 31
0
  0
LINE
  8
1
 62
7
 10
-404.10693819452
 20
-68.75389195844603
 30
0
 11
-404.10693819452
 21
-44.47415811052497
 31
0
  0
LINE
  8
1
 62
7
 10
-403.3069381945202
 20
-63.51294913687615
 30
0
 11
-404.10693819452
 21
-63.51294913687615
 31
0
  0
LINE
  8
1
 62
7
 10
-439.60693819452
 20
-68.75389195844602
 30
0
 11
-439.60693819452
 21
-11.75389195844602
 31
0
  0
LINE
  8
1
 62
7
 10
-439.60693819452
 20
-68.75389195844602
 30
0
 11
-440.60693819452
 21
-67.75389195844602
 31
0
  0
LINE
  8
1
 62
7
 10
-393.10693819452
 20
-63.51294913687615
 30
0
 11
-394.50693819452
 21
-63.51294913687615
 31
0
  0
LINE
  8
1
 62
7
 10
-393.10693819452
 20
-63.51294913687615
 30
0
 11
-393.10693819452
 21
-68.75389195844602
 31
0
  0
LINE
  8
1
 62
3
  6
DASHDOT
 10
-444.3523167930709
 20
-11.75389195844602
 30
0
 11
-440.60693819452
 21
-11.75389195844602
 31
0
  0
LINE
  8
1
 62
7
 10
-394.50693819452
 20
-62.253891958446
 30
0
 11
-394.50693819452
 21
-67.75389195844601
 31
0
  0
LINE
  8
1
 62
7
 10
-394.50693819452
 20
-62.253891958446
 30
0
 11
-393.10693819452
 21
-62.25389195844602
 31
0
  0
LINE
  8
1
 62
7
 10
-394.50693819452
 20
-67.75389195844601
 30
0
 11
-403.3069381945202
 21
-67.75389195844602
 31
0
  0
LINE
  8
1
 62
7
 10
-439.60693819452
 20
-68.75389195844602
 30
0
 11
-393.10693819452
 21
-68.75389195844602
 31
0
  0
LINE
  8
1
 62
7
 10
-387.10693819452
 20
-11.75389195844602
 30
0
 11
-387.10693819452
 21
-40.14103224621581
 31
0
  0
LINE
  8
1
 62
7
 10
-389.60693819452
 20
-11.75389195844602
 30
0
 11
-389.60693819452
 21
-62.25389195844602
 31
0
  0
LINE
  8
1
 62
7
 10
-393.10693819452
 20
-11.75389195844602
 30
0
 11
-393.10693819452
 21
-62.25389195844602
 31
0
  0
LINE
  8
1
 62
7
 10
-403.3069381945202
 20
-11.75389195844602
 30
0
 11
-403.3069381945202
 21
-35.3119344742925
 31
0
  0
LINE
  8
1
 62
7
 10
-385.60693819452
 20
-38.35389195844601
 30
0
 11
-387.10693819452
 21
-38.35389195844601
 31
0
  0
LINE
  8
1
 62
7
 10
-403.3069381945202
 20
-62.00389195844601
 30
0
 11
-404.10693819452
 21
-62.00389195844603
 31
0
  0
LINE
  8
1
 62
7
 10
-393.10693819452
 20
-62.25389195844602
 30
0
 11
-389.60693819452
 21
-62.25389195844602
 31
0
  0
LINE
  8
1
 62
7
 10
-389.60693819452
 20
-62.25389195844602
 30
0
 11
-388.1009615280917
 21
-49.98869627460762
 31
0
  0
LINE
  8
1
 62
7
 10
-388.10693819452
 20
-49.98869627460762
 30
0
 11
-388.10693819452
 21
-11.75389195844602
 31
0
  0
LINE
  8
1
 62
7
 10
-385.60693819452
 20
-38.35389195844601
 30
0
 11
-385.60693819452
 21
-11.75389195844602
 31
0
  0
LINE
  8
1
 62
7
 10
-387.10693819452
 20
-40.14103224621581
 30
0
 11
-388.10693819452
 21
-40.14103224621581
 31
0
  0
LINE
  8
1
 62
7
 10
-440.60693819452
 20
-11.75389195844602
 30
0
 11
-440.60693819452
 21
-67.75389195844602
 31
0
  0
LINE
  8
1
 62
7
 10
-335.10693819452
 20
-40.75389195844601
 30
0
 11
-360.60693819452
 21
-40.75389195844602
 31
0
  0
LINE
  8
1
 62
7
 10
-364.60693819452
 20
-68.75389195844602
 30
0
 11
-365.60693819452
 21
-67.75389195844602
 31
0
  0
LINE
  8
1
 62
7
 10
-360.60693819452
 20
-11.75389195844602
 30
0
 11
-360.60693819452
 21
-40.75389195844602
 31
0
  0
LINE
  8
1
 62
7
 10
-335.10693819452
 20
-45.75389195844602
 30
0
 11
-336.10693819452
 21
-46.75389195844602
 31
0
  0
LINE
  8
1
 62
7
 10
-335.10693819452
 20
-45.75389195844602
 30
0
 11
-335.10693819452
 21
-40.75389195844601
 31
0
  0
LINE
  8
1
 62
7
 10
-336.10693819452
 20
-46.75389195844602
 30
0
 11
-336.10693819452
 21
-62.75389195844602
 31
0
  0
LINE
  8
1
 62
7
 10
-365.60693819452
 20
-40.75389195844602
 30
0
 11
-360.60693819452
 21
-40.75389195844602
 31
0
  0
LINE
  8
1
 62
7
 10
-336.10693819452
 20
-62.75389195844602
 30
0
 11
-329.10693819452
 21
-62.75389195844602
 31
0
  0
LINE
  8
1
 62
7
 10
-329.10693819452
 20
-63.75389195844602
 30
0
 11
-318.10693819452
 21
-63.75389195844602
 31
0
  0
LINE
  8
1
 62
7
 10
-318.10693819452
 20
-63.75389195844602
 30
0
 11
-318.10693819452
 21
-68.75389195844602
 31
0
  0
LINE
  8
1
 62
7
 10
-329.10693819452
 20
-62.75389195844602
 30
0
 11
-329.10693819452
 21
-68.75389195844602
 31
0
  0
LINE
  8
1
 62
7
 10
-365.60693819452
 20
-11.75389195844602
 30
0
 11
-365.60693819452
 21
-67.75389195844602
 31
0
  0
LINE
  8
1
 62
7
 10
-364.60693819452
 20
-68.75389195844602
 30
0
 11
-318.10693819452
 21
-68.75389195844602
 31
0
  0
LINE
  8
1
 62
7
 10
-318.10693819452
 20
-34.75389195844601
 30
0
 11
-318.10693819452
 21
-62.25389195844602
 31
0
  0
LINE
  8
1
 62
7
 10
-319.50693819452
 20
-62.25389195844602
 30
0
 11
-319.50693819452
 21
-67.75389195844602
 31
0
  0
LINE
  8
1
 62
7
 10
-310.60693819452
 20
-26.75389195844601
 30
0
 11
-344.60693819452
 21
-26.75389195844601
 31
0
  0
LINE
  8
1
 62
7
 10
-310.60693819452
 20
-28.75389195844602
 30
0
 11
-344.60693819452
 21
-28.75389195844602
 31
0
  0
LINE
  8
1
 62
7
 10
-344.60693819452
 20
-11.75389195844602
 30
0
 11
-344.60693819452
 21
-31.75389195844601
 31
0
  0
LINE
  8
1
 62
7
 10
-344.60693819452
 20
-31.75389195844601
 30
0
 11
-342.35693819452
 21
-31.75389195844601
 31
0
  0
LINE
  8
1
 62
7
 10
-342.35693819452
 20
-35.25389195844602
 30
0
 11
-342.35693819452
 21
-30.75389195844602
 31
0
  0
LINE
  8
1
 62
7
 10
-342.35693819452
 20
-30.75389195844602
 30
0
 11
-340.60693819452
 21
-30.75389195844602
 31
0
  0
LINE
  8
1
 62
7
 10
-340.60693819452
 20
-30.75389195844602
 30
0
 11
-340.60693819452
 21
-35.25389195844602
 31
0
  0
LINE
  8
1
 62
7
 10
-340.60693819452
 20
-35.25389195844602
 30
0
 11
-342.35693819452
 21
-35.25389195844602
 31
0
  0
LINE
  8
1
 62
7
 10
-328.30693819452
 20
-32.25389195844601
 30
0
 11
-340.60693819452
 21
-32.25389195844601
 31
0
  0
LINE
  8
1
 62
7
 10
-318.10693819452
 20
-38.75389195844601
 30
0
 11
-313.60693819452
 21
-38.75389195844601
 31
0
  0
LINE
  8
1
 62
7
 10
-328.30693819452
 20
-34.75389195844601
 30
0
 11
-310.60693819452
 21
-34.75389195844601
 31
0
  0
LINE
  8
1
 62
7
 10
-313.60693819452
 20
-35.353891958446
 30
0
 11
-318.10693819452
 21
-35.353891958446
 31
0
  0
LINE
  8
1
 62
7
 10
-328.30693819452
 20
-38.353891958446
 30
0
 11
-313.60693819452
 21
-38.353891958446
 31
0
  0
LINE
  8
1
 62
7
 10
-312.10693819452
 20
-36.75389195844601
 30
0
 11
-313.60693819452
 21
-36.75389195844601
 31
0
  0
LINE
  8
1
 62
7
 10
-310.60693819452
 20
-38.35389195844601
 30
0
 11
-312.10693819452
 21
-38.353891958446
 31
0
  0
LINE
  8
1
 62
7
 10
-328.30693819452
 20
-62.00389195844602
 30
0
 11
-334.80693819452
 21
-62.00389195844602
 31
0
  0
LINE
  8
1
 62
7
 10
-334.80693819452
 20
-62.00389195844602
 30
0
 11
-334.80693819452
 21
-56.75389195844602
 31
0
  0
LINE
  8
1
 62
7
 10
-334.80693819452
 20
-56.75389195844602
 30
0
 11
-333.80693819452
 21
-56.75389195844602
 31
0
  0
LINE
  8
1
 62
7
 10
-333.80693819452
 20
-56.75389195844602
 30
0
 11
-333.80693819452
 21
-40.00389195844601
 31
0
  0
LINE
  8
1
 62
7
 10
-333.80693819452
 20
-40.00389195844601
 30
0
 11
-340.10693819452
 21
-40.00389195844601
 31
0
  0
LINE
  8
1
 62
7
 10
-340.10693819452
 20
-40.00389195844601
 30
0
 11
-340.10693819452
 21
-34.25389195844601
 31
0
  0
LINE
  8
1
 62
7
 10
-340.10693819452
 20
-34.25389195844601
 30
0
 11
-340.60693819452
 21
-34.25389195844601
 31
0
  0
LINE
  8
1
 62
7
 10
-313.10693819452
 20
-40.75389195844602
 30
0
 11
-313.60693819452
 21
-40.75389195844601
 31
0
  0
LINE
  8
1
 62
7
 10
-313.60693819452
 20
-40.75389195844601
 30
0
 11
-313.60693819452
 21
-35.353891958446
 31
0
  0
LINE
  8
1
 62
7
 10
-312.10693819452
 20
-40.14103224621581
 30
0
 11
-313.60693819452
 21
-40.1410322462158
 31
0
  0
LINE
  8
1
 62
7
 10
-312.10693819452
 20
-40.14103224621581
 30
0
 11
-312.10693819452
 21
-36.75389195844601
 31
0
  0
LINE
  8
1
 62
7
 10
-328.30693819452
 20
-32.25389195844601
 30
0
 11
-328.30693819452
 21
-67.75389195844602
 31
0
  0
LINE
  8
1
 62
7
 10
-319.50693819452
 20
-67.75389195844602
 30
0
 11
-328.30693819452
 21
-67.75389195844602
 31
0
  0
LINE
  8
1
 62
7
 10
-310.60693819452
 20
-11.75389195844602
 30
0
 11
-310.60693819452
 21
-38.35389195844601
 31
0
  0
LINE
  8
1
 62
3
 10
-318.10693819452
 20
-34.75389195844601
 30
0
 11
-328.30693819452
 21
-67.75389195844602
 31
0
  0
LINE
  8
1
 62
3
 10
-328.30693819452
 20
-34.75389195844601
 30
0
 11
-319.50693819452
 21
-67.75389195844602
 31
0
  0
LINE
  8
1
 62
7
 10
-313.10693819452
 20
-50.0373723164841
 30
0
 11
-314.60693819452
 21
-62.25389195844602
 31
0
  0
LINE
  8
1
 62
7
 10
-313.10693819452
 20
-40.75389195844602
 30
0
 11
-313.10693819452
 21
-50.0373723164841
 31
0
  0
LINE
  8
1
 62
7
 10
-319.50693819452
 20
-62.25389195844602
 30
0
 11
-314.60693819452
 21
-62.25389195844602
 31
0
  0
LINE
  8
1
 62
3
 10
-403.3069381945202
 20
20.96637419363293
 30
0
 11
-394.50693819452
 21
44.24610804155397
 31
0
  0
LINE
  8
1
 62
3
 10
-403.3069381945202
 20
44.24610804155398
 30
0
 11
-394.50693819452
 21
20.96637419363293
 31
0
  0
LINE
  8
1
 62
7
 10
-403.3069381945202
 20
44.24610804155398
 30
0
 11
-403.3069381945202
 21
20.96637419363293
 31
0
  0
LINE
  8
1
 62
7
 10
-394.50693819452
 20
-11.75389195844602
 30
0
 11
-394.50693819452
 21
11.80415055740046
 31
0
  0
LINE
  8
1
 62
7
 10
-404.10693819452
 20
-11.75389195844602
 30
0
 11
-404.10693819452
 21
12.30612015578854
 31
0
  0
LINE
  8
1
 62
7
 10
-393.10693819452
 20
20.96637419363293
 30
0
 11
-404.10693819452
 21
20.96637419363293
 31
0
  0
LINE
  8
1
 62
7
 10
-404.10693819452
 20
12.30612015578854
 30
0
 11
-393.10693819452
 21
12.30612015578854
 31
0
  0
LINE
  8
1
 62
7
 10
-394.50693819452
 20
11.80415055740046
 30
0
 11
-403.3069381945202
 21
11.80415055740046
 31
0
  0
LINE
  8
1
 62
7
 10
-393.10693819452
 20
9.795509611846839
 30
0
 11
-394.50693819452
 21
9.795509611846839
 31
0
  0
LINE
  8
1
 62
7
 10
-403.3069381945202
 20
9.795509611846839
 30
0
 11
-404.10693819452
 21
9.795509611846839
 31
0
  0
LINE
  8
1
 62
7
 10
-394.50693819452
 20
20.96637419363293
 30
0
 11
-394.50693819452
 21
38.74610804155396
 31
0
  0
LINE
  8
1
 62
7
 10
-404.10693819452
 20
20.96637419363293
 30
0
 11
-404.10693819452
 21
45.246108041554
 31
0
  0
LINE
  8
1
 62
7
 10
-404.10693819452
 20
40.00516521998411
 30
0
 11
-403.3069381945202
 21
40.00516521998411
 31
0
  0
LINE
  8
1
 62
7
 10
-439.60693819452
 20
-11.75389195844602
 30
0
 11
-439.60693819452
 21
45.24610804155398
 31
0
  0
LINE
  8
1
 62
7
 10
-440.60693819452
 20
44.24610804155398
 30
0
 11
-439.60693819452
 21
45.24610804155398
 31
0
  0
LINE
  8
1
 62
7
 10
-394.50693819452
 20
40.00516521998411
 30
0
 11
-393.10693819452
 21
40.00516521998411
 31
0
  0
LINE
  8
1
 62
7
 10
-393.10693819452
 20
45.24610804155398
 30
0
 11
-393.10693819452
 21
40.00516521998411
 31
0
  0
LINE
  8
1
 62
7
 10
-394.50693819452
 20
44.24610804155397
 30
0
 11
-394.50693819452
 21
38.74610804155396
 31
0
  0
LINE
  8
1
 62
7
 10
-393.10693819452
 20
38.74610804155398
 30
0
 11
-394.50693819452
 21
38.74610804155396
 31
0
  0
LINE
  8
1
 62
7
 10
-403.3069381945202
 20
44.24610804155398
 30
0
 11
-394.50693819452
 21
44.24610804155397
 31
0
  0
LINE
  8
1
 62
7
 10
-393.10693819452
 20
45.24610804155398
 30
0
 11
-439.60693819452
 21
45.24610804155398
 31
0
  0
LINE
  8
1
 62
7
 10
-387.10693819452
 20
16.63324832932377
 30
0
 11
-387.10693819452
 21
-11.75389195844602
 31
0
  0
LINE
  8
1
 62
7
 10
-389.60693819452
 20
38.74610804155398
 30
0
 11
-389.60693819452
 21
-11.75389195844602
 31
0
  0
LINE
  8
1
 62
7
 10
-393.10693819452
 20
38.74610804155398
 30
0
 11
-393.10693819452
 21
-11.75389195844602
 31
0
  0
LINE
  8
1
 62
7
 10
-403.3069381945202
 20
11.80415055740046
 30
0
 11
-403.3069381945202
 21
-11.75389195844602
 31
0
  0
LINE
  8
1
 62
7
 10
-387.10693819452
 20
14.84610804155398
 30
0
 11
-385.60693819452
 21
14.84610804155398
 31
0
  0
LINE
  8
1
 62
7
 10
-404.10693819452
 20
38.49610804155399
 30
0
 11
-403.3069381945202
 21
38.49610804155397
 31
0
  0
LINE
  8
1
 62
7
 10
-389.60693819452
 20
38.74610804155398
 30
0
 11
-393.10693819452
 21
38.74610804155398
 31
0
  0
LINE
  8
1
 62
7
 10
-388.1009615280917
 20
26.48091235771558
 30
0
 11
-389.60693819452
 21
38.74610804155398
 31
0
  0
LINE
  8
1
 62
7
 10
-388.10693819452
 20
-11.75389195844602
 30
0
 11
-388.10693819452
 21
26.48091235771558
 31
0
  0
LINE
  8
1
 62
7
 10
-385.60693819452
 20
-11.75389195844602
 30
0
 11
-385.60693819452
 21
14.84610804155398
 31
0
  0
LINE
  8
1
 62
7
 10
-388.10693819452
 20
16.63324832932377
 30
0
 11
-387.10693819452
 21
16.63324832932377
 31
0
  0
LINE
  8
1
 62
7
 10
-440.60693819452
 20
44.24610804155398
 30
0
 11
-440.60693819452
 21
-11.75389195844602
 31
0
  0
LINE
  8
1
 62
7
 10
-429.60693819452
 20
45.24610804155398
 30
0
 11
-429.60693819452
 21
52.45896130291767
 31
0
  0
LINE
  8
1
 62
7
 10
-427.60693819452
 20
52.45896130291767
 30
0
 11
-427.60693819452
 21
45.24610804155398
 31
0
  0
LINE
  8
1
 62
7
 10
-226
 20
45.02638630786754
 30
0
 11
-226
 21
39.74610804155398
 31
0
  0
LINE
  8
1
 62
7
 10
-236
 20
45.02638630786754
 30
0
 11
-236
 21
39.74610804155398
 31
0
  0
LINE
  8
1
 62
7
 10
-236
 20
39.74610804155398
 30
0
 11
-226
 21
39.74610804155398
 31
0
  0
LINE
  8
1
 62
7
 10
-277.673163412577
 20
20.96637419363296
 30
0
 11
-273.1003082948986
 21
18.32623506047618
 31
0
  0
LINE
  8
1
 62
7
 10
-282.673163412577
 20
12.30612015578858
 30
0
 11
-278.1003082948986
 21
9.665981022631797
 31
0
  0
LINE
  8
1
 62
7
 10
-278.1003082948986
 20
9.665981022631797
 30
0
 11
-273.1003082948986
 21
18.32623506047618
 31
0
  0
LINE
  8
1
 62
7
 10
-282.673163412577
 20
-35.81390407268056
 30
0
 11
-278.1003082948986
 21
-33.17376493952382
 31
0
  0
LINE
  8
1
 62
7
 10
-277.673163412577
 20
-44.47415811052498
 30
0
 11
-273.1003082948986
 21
-41.83401897736819
 31
0
  0
LINE
  8
1
 62
7
 10
-273.1003082948986
 20
-41.83401897736819
 30
0
 11
-278.1003082948986
 21
-33.17376493952382
 31
0
  0
LINE
  8
1
 62
7
 10
-236.0000000000001
 20
-68.53417022475956
 30
0
 11
-236
 21
-63.25389195844601
 31
0
  0
LINE
  8
1
 62
7
 10
-226
 20
-68.53417022475956
 30
0
 11
-226
 21
-63.25389195844603
 31
0
  0
LINE
  8
1
 62
7
 10
-226
 20
-63.25389195844603
 30
0
 11
-236
 21
-63.25389195844601
 31
0
  0
LINE
  8
1
 62
7
 10
-184.3268365874231
 20
-44.47415811052504
 30
0
 11
-188.8996917051014
 21
-41.83401897736822
 31
0
  0
LINE
  8
1
 62
7
 10
-179.326836587423
 20
-35.81390407268061
 30
0
 11
-183.8996917051014
 21
-33.17376493952385
 31
0
  0
LINE
  8
1
 62
7
 10
-183.8996917051014
 20
-33.17376493952385
 30
0
 11
-188.8996917051014
 21
-41.83401897736822
 31
0
  0
LINE
  8
1
 62
7
 10
-179.326836587423
 20
12.30612015578849
 30
0
 11
-183.8996917051014
 21
9.665981022631769
 31
0
  0
LINE
  8
1
 62
7
 10
-184.326836587423
 20
20.96637419363292
 30
0
 11
-188.8996917051014
 21
18.32623506047615
 31
0
  0
LINE
  8
1
 62
7
 10
-188.8996917051014
 20
18.32623506047615
 30
0
 11
-183.8996917051014
 21
9.665981022631769
 31
0
  0
LINE
  8
1
 62
3
  6
DASHDOT
 10
-188.1317425126703
 20
12.99610804155398
 30
0
 11
-180.7705265805026
 21
17.24610804155397
 31
0
  0
LINE
  8
1
 62
3
  6
DASHDOT
 10
-281.2294734194974
 20
17.24610804155397
 30
0
 11
-273.8682574873296
 21
12.99610804155398
 31
0
  0
LINE
  8
1
 62
3
  6
DASHDOT
 10
-180.7705265805026
 20
-40.75389195844602
 30
0
 11
-188.1317425126703
 21
-36.50389195844602
 31
0
  0
LINE
  8
1
 62
3
  6
DASHDOT
 10
-273.8682574873296
 20
-36.50389195844602
 30
0
 11
-281.2294734194974
 21
-40.75389195844602
 31
0
  0
LINE
  8
1
 62
7
 10
-235
 20
5.246108041553981
 30
0
 11
-227
 21
5.246108041553981
 31
0
  0
LINE
  8
1
 62
7
 10
-227
 20
5.246108041553981
 30
0
 11
-227
 21
2.702940336354942
 31
0
  0
LINE
  8
1
 62
7
 10
-235
 20
2.702940336354942
 30
0
 11
-235
 21
5.246108041553981
 31
0
  0
LINE
  8
1
 62
7
 10
-231
 20
52.48651268206894
 30
0
 11
-231
 21
45.24610804155398
 31
0
  0
LINE
  8
1
 62
7
 10
-231
 20
60.29491758266747
 30
0
 11
-231
 21
54.10425820011923
 31
0
  0
LINE
  8
1
 62
7
 10
-230
 20
65.29491758266747
 30
0
 11
-230
 21
60.29491758266747
 31
0
  0
LINE
  8
1
 62
7
 10
-232
 20
65.29491758266747
 30
0
 11
-232
 21
60.29491758266747
 31
0
  0
LINE
  8
1
 62
7
 10
-229.8
 20
65.29491758266747
 30
0
 11
-229.8
 21
60.29491758266747
 31
0
  0
LINE
  8
1
 62
7
 10
-229.6
 20
65.29491758266747
 30
0
 11
-229.6
 21
60.29491758266747
 31
0
  0
LINE
  8
1
 62
7
 10
-230.2000000000001
 20
65.29491758266747
 30
0
 11
-230.2000000000001
 21
60.29491758266747
 31
0
  0
LINE
  8
1
 62
7
 10
-230.4
 20
65.29491758266747
 30
0
 11
-230.4
 21
60.29491758266747
 31
0
  0
LINE
  8
1
 62
7
 10
-231.8
 20
65.29491758266747
 30
0
 11
-231.8
 21
60.29491758266747
 31
0
  0
LINE
  8
1
 62
7
 10
-231.6
 20
65.29491758266747
 30
0
 11
-231.6
 21
60.29491758266747
 31
0
  0
LINE
  8
1
 62
7
 10
-232.2000000000001
 20
65.29491758266747
 30
0
 11
-232.2000000000001
 21
60.29491758266747
 31
0
  0
LINE
  8
1
 62
7
 10
-232.4
 20
65.29491758266747
 30
0
 11
-232.4
 21
60.29491758266747
 31
0
  0
LINE
  8
1
 62
7
 10
-233
 20
60.29491758266747
 30
0
 11
-229
 21
60.29491758266747
 31
0
  0
LINE
  8
1
 62
7
 10
-229
 20
60.29491758266747
 30
0
 11
-229
 21
54.10425820011923
 31
0
  0
LINE
  8
1
 62
7
 10
-233
 20
45.21100951605844
 30
0
 11
-233
 21
52.48651268206894
 31
0
  0
LINE
  8
1
 62
7
 10
-229
 20
52.48651268206894
 30
0
 11
-229
 21
45.21100951605844
 31
0
  0
LINE
  8
1
 62
7
 10
-233
 20
54.10425820011923
 30
0
 11
-233
 21
60.29491758266747
 31
0
  0
LINE
  8
1
 62
3
 10
-403.3069381945202
 20
11.80415055740046
 30
0
 11
-394.50693819452
 21
-35.3119344742925
 31
0
  0
LINE
  8
1
 62
3
 10
-403.3069381945202
 20
-35.3119344742925
 30
0
 11
-394.50693819452
 21
11.80415055740046
 31
0
  0
LINE
  8
1
 62
3
  6
DASHDOT
 10
-231
 20
1.246108041553979
 30
0
 11
-231
 21
-24.75389195844602
 31
0
  0
LINE
  8
1
 62
3
  6
DASHDOT
 10
-244
 20
-11.75389195844602
 30
0
 11
-218
 21
-11.75389195844602
 31
0
  0
LINE
  8
1
 62
3
  6
DASHDOT
 10
-310.60693819452
 20
-11.75389195844602
 30
0
 11
-306.043832029188
 21
-11.75389195844602
 31
0
  0
LINE
  8
1
 62
3
  6
DASHDOT
 10
-385.60693819452
 20
-11.75389195844602
 30
0
 11
-381.043832029188
 21
-11.75389195844602
 31
0
  0
LINE
  8
1
 62
3
  6
DASHDOT
 10
-509.4276810265811
 20
-11.75389195844602
 30
0
 11
-535.4276810265811
 21
-11.75389195844602
 31
0
  0
LINE
  8
1
 62
3
  6
DASHDOT
 10
-522.4276810265811
 20
1.246108041553979
 30
0
 11
-522.4276810265811
 21
-24.75389195844602
 31
0
  0
LINE
  8
1
 62
3
  6
DASHDOT
 10
-522.4276810265811
 20
-24.75389195844602
 30
0
 11
-522.4276810265811
 21
-26.75389195844602
 31
0
  0
ARC
  8
1
 62
7
 10
-354.10693819452
 20
54.25884967811085
 30
0
 40
0.5321428571428644
 50
200.0159596028848
 51
339.9840403971152
  0
ARC
  8
1
 62
7
 10
-353.10693819452
 20
54.25884967811085
 30
0
 40
0.5321428571428644
 50
200.0159596028848
 51
339.9840403971152
  0
ARC
  8
1
 62
7
 10
-354.10693819452
 20
52.27681844577485
 30
0
 40
0.5321428571428449
 50
20.01595960287907
 51
159.9840403971209
  0
ARC
  8
1
 62
7
 10
-353.10693819452
 20
52.27681844577485
 30
0
 40
0.5321428571428449
 50
20.01595960287907
 51
159.9840403971209
  0
ARC
  8
1
 62
7
 10
-353.10693819452
 20
52.64110416006055
 30
0
 40
0.5321428571428644
 50
200.0159596028848
 51
339.9840403971152
  0
ARC
  8
1
 62
7
 10
-354.10693819452
 20
53.89456396382515
 30
0
 40
0.5321428571428449
 50
20.01595960287907
 51
159.9840403971209
  0
ARC
  8
1
 62
7
 10
-521.4276810265811
 20
51.73651268206894
 30
0
 40
1.25
 50
36.86989764584402
 51
143.130102354156
  0
ARC
  8
1
 62
7
 10
-521.4276810265811
 20
53.23651268206894
 30
0
 40
1.25
 50
216.869897645844
 51
323.130102354156
  0
ARC
  8
1
 62
7
 10
-523.4276810265811
 20
51.73651268206894
 30
0
 40
1.25
 50
36.86989764584402
 51
143.130102354156
  0
ARC
  8
1
 62
7
 10
-523.4276810265811
 20
54.85425820011923
 30
0
 40
1.25
 50
216.869897645844
 51
323.130102354156
  0
ARC
  8
1
 62
7
 10
-523.4276810265811
 20
53.35425820011923
 30
0
 40
1.25
 50
36.86989764584402
 51
143.130102354156
  0
ARC
  8
1
 62
7
 10
-521.4276810265811
 20
54.85425820011923
 30
0
 40
1.25
 50
216.869897645844
 51
323.130102354156
  0
ARC
  8
1
 62
7
 10
-522.4276810265811
 20
-11.75389195844602
 30
0
 40
15
 50
105.4660099534205
 51
74.53399004657946
  0
ARC
  8
1
 62
7
 10
-429.10693819452
 20
54.25884967811085
 30
0
 40
0.5321428571428644
 50
200.0159596028848
 51
339.9840403971152
  0
ARC
  8
1
 62
7
 10
-428.10693819452
 20
54.25884967811085
 30
0
 40
0.5321428571428644
 50
200.0159596028848
 51
339.9840403971152
  0
ARC
  8
1
 62
7
 10
-429.10693819452
 20
52.27681844577485
 30
0
 40
0.5321428571428449
 50
20.01595960287907
 51
159.9840403971209
  0
ARC
  8
1
 62
7
 10
-428.10693819452
 20
52.27681844577485
 30
0
 40
0.5321428571428449
 50
20.01595960287907
 51
159.9840403971209
  0
ARC
  8
1
 62
7
 10
-428.10693819452
 20
52.64110416006055
 30
0
 40
0.5321428571428644
 50
200.0159596028848
 51
339.9840403971152
  0
ARC
  8
1
 62
7
 10
-429.10693819452
 20
53.89456396382515
 30
0
 40
0.5321428571428449
 50
20.01595960287907
 51
159.9840403971209
  0
ARC
  8
1
 62
7
 10
-231
 20
-11.75389195844602
 30
0
 40
51.99999999999999
 50
84.4822656262195
 51
95.5177343737805
  0
ARC
  8
1
 62
7
 10
-231
 20
-11.75389195844602
 30
0
 40
55.99999999999993
 50
35.12251609978092
 51
84.87748390021909
  0
ARC
  8
1
 62
7
 10
-231
 20
-11.75389195844602
 30
0
 40
56.00000000000003
 50
155.1225160997809
 51
180
  0
ARC
  8
1
 62
7
 10
-231
 20
-11.75389195844602
 30
0
 40
51.99999999999999
 50
144.4822656262195
 51
155.5177343737805
  0
ARC
  8
1
 62
7
 10
-231
 20
-11.75389195844602
 30
0
 40
51.99999999999999
 50
204.4822656262195
 51
215.5177343737805
  0
ARC
  8
1
 62
7
 10
-231
 20
-11.75389195844602
 30
0
 40
52
 50
264.4822656262195
 51
275.5177343737805
  0
ARC
  8
1
 62
7
 10
-231
 20
-11.75389195844602
 30
0
 40
52.00000000000001
 50
324.4822656262195
 51
335.5177343737805
  0
ARC
  8
1
 62
7
 10
-231
 20
-11.75389195844602
 30
0
 40
51.99999999999997
 50
24.48226562621946
 51
35.51773437378049
  0
ARC
  8
1
 62
7
 10
-231
 20
-11.75389195844602
 30
0
 40
56
 50
95.1225160997809
 51
144.877483900219
  0
ARC
  8
1
 62
7
 10
-231
 20
-11.75389195844602
 30
0
 40
56
 50
180
 51
204.8774839002191
  0
ARC
  8
1
 62
7
 10
-231
 20
-11.75389195844602
 30
0
 40
56.00000000000001
 50
215.1225160997809
 51
264.8774839002192
  0
ARC
  8
1
 62
7
 10
-231
 20
-11.75389195844602
 30
0
 40
55.99999999999999
 50
275.1225160997809
 51
324.877483900219
  0
ARC
  8
1
 62
7
 10
-231
 20
-11.75389195844602
 30
0
 40
55.99999999999994
 50
335.1225160997809
 51
24.87748390021902
  0
ARC
  8
1
 62
7
 10
-231
 20
-11.75389195844602
 30
0
 40
15
 50
105.4660099534205
 51
74.53399004657946
  0
ARC
  8
1
 62
7
 10
-230
 20
51.73651268206894
 30
0
 40
1.25
 50
36.86989764584402
 51
143.130102354156
  0
ARC
  8
1
 62
7
 10
-230
 20
53.23651268206894
 30
0
 40
1.25
 50
216.869897645844
 51
323.130102354156
  0
ARC
  8
1
 62
7
 10
-232
 20
51.73651268206894
 30
0
 40
1.25
 50
36.86989764584402
 51
143.130102354156
  0
ARC
  8
1
 62
7
 10
-232
 20
54.85425820011923
 30
0
 40
1.25
 50
216.869897645844
 51
323.130102354156
  0
ARC
  8
1
 62
7
 10
-232
 20
53.35425820011923
 30
0
 40
1.25
 50
36.86989764584402
 51
143.130102354156
  0
ARC
  8
1
 62
7
 10
-230
 20
54.85425820011923
 30
0
 40
1.25
 50
216.869897645844
 51
323.130102354156
  0
CIRCLE
  8
1
 62
7
 10
-479.4276810265811
 20
-11.75389195844602
 30
0
 40
2.5
  0
CIRCLE
  8
1
 62
3
 10
-479.4276810265811
 20
-11.75389195844602
 30
0
 40
3
  0
CIRCLE
  8
1
 62
7
 10
-522.4276810265811
 20
-54.75389195844602
 30
0
 40
2.5
  0
CIRCLE
  8
1
 62
3
 10
-522.4276810265811
 20
-54.75389195844602
 30
0
 40
3
  0
CIRCLE
  8
1
 62
7
 10
-565.4276810265811
 20
-11.75389195844601
 30
0
 40
2.499999999999998
  0
CIRCLE
  8
1
 62
3
 10
-565.4276810265811
 20
-11.75389195844601
 30
0
 40
2.999999999999998
  0
CIRCLE
  8
1
 62
7
 10
-522.4276810265811
 20
31.24610804155398
 30
0
 40
2.5
  0
CIRCLE
  8
1
 62
3
 10
-522.4276810265811
 20
31.24610804155398
 30
0
 40
3
  0
CIRCLE
  8
1
 62
3
  6
DASHDOT
 10
-522.4276810265811
 20
-11.75389195844602
 30
0
 40
43
  0
CIRCLE
  8
1
 62
7
 10
-522.4276810265811
 20
-11.75389195844602
 30
0
 40
57
  0
CIRCLE
  8
1
 62
7
 10
-522.4276810265811
 20
-11.75389195844602
 30
0
 40
29
  0
CIRCLE
  8
1
 62
7
 10
-522.4276810265811
 20
-11.75389195844602
 30
0
 40
19.99999999999999
  0
CIRCLE
  8
1
 62
7
 10
-231
 20
-11.75389195844602
 30
0
 40
57
  0
CIRCLE
  8
1
 62
7
 10
-231
 20
-11.75389195844602
 30
0
 40
50.5
  0
CIRCLE
  8
1
 62
7
 10
-231
 20
-11.75389195844602
 30
0
 40
38.23480431616159
  0
CIRCLE
  8
1
 62
7
 10
-231
 20
-11.75389195844602
 30
0
 40
26.59999999999999
  0
CIRCLE
  8
1
 62
7
 10
-231
 20
-11.75389195844602
 30
0
 40
29
  0
CIRCLE
  8
1
 62
7
 10
-522.4276810265811
 20
-11.75389195844602
 30
0
 40
56
  0
TEXT
  8
1
 62
7
 10
-579.384967787065
 20
62.1481251202235
 30
0
 40
5
  1
DC4223
 41
0.9
  7
SIMPLEX
 72
1
 11
-565.884967787065
 21
62.1481251202235
 31
0
  0
TEXT
  8
1
 62
7
 10
-579.385070961279
 20
70.86121151317221
 30
0
 40
5
  1
MDB 5
 41
0.9
  7
SIMPLEX
 72
1
 11
-568.135070961279
 21
70.86121151317221
 31
0
  0
ENDSEC
  0
EOF
