  0
SECTION
  2
HEADER
  9
$ACADVER
  1
AC1009
  9
$INSBASE
 10
0.0
 20
0.0
 30
0.0
  9
$EXTMIN
 10
-1319.521349412275
 20
-42.069469126919401
 30
0.0
  9
$EXTMAX
 10
-568.5
 20
253.20840360525301
 30
0.0
  9
$LIMMIN
 10
-1319.521349412275
 20
-34.328630587737869
  9
$LIMMAX
 10
-568.5
 20
253.20840360525301
  9
$ORTHOMODE
 70
     0
  9
$REGENMODE
 70
     1
  9
$FILLMODE
 70
     1
  9
$QTEXTMODE
 70
     0
  9
$MIRRTEXT
 70
     1
  9
$DRAGMODE
 70
     2
  9
$LTSCALE
 40
1.0
  9
$OSMODE
 70
    37
  9
$ATTMODE
 70
     1
  9
$TEXTSIZE
 40
3.5
  9
$TRACEWID
 40
0.5
  9
$TEXTSTYLE
  7
STANDARD
  9
$CLAYER
  8
0
  9
$CELTYPE
  6
BYLAYER
  9
$CECOLOR
 62
   256
  9
$DIMSCALE
 40
1.0
  9
$DIMASZ
 40
0.18
  9
$DIMEXO
 40
0.0625
  9
$DIMDLI
 40
0.38
  9
$DIMRND
 40
0.0
  9
$DIMDLE
 40
0.0
  9
$DIMEXE
 40
0.18
  9
$DIMTP
 40
0.0
  9
$DIMTM
 40
0.0
  9
$DIMTXT
 40
0.18
  9
$DIMCEN
 40
0.09
  9
$DIMTSZ
 40
0.0
  9
$DIMTOL
 70
     0
  9
$DIMLIM
 70
     0
  9
$DIMTIH
 70
     1
  9
$DIMTOH
 70
     1
  9
$DIMSE1
 70
     0
  9
$DIMSE2
 70
     0
  9
$DIMTAD
 70
     0
  9
$DIMZIN
 70
     0
  9
$DIMBLK
  1

  9
$DIMASO
 70
     1
  9
$DIMSHO
 70
     1
  9
$DIMPOST
  1

  9
$DIMAPOST
  1

  9
$DIMALT
 70
     0
  9
$DIMALTD
 70
     2
  9
$DIMALTF
 40
25.399999999999999
  9
$DIMLFAC
 40
1.0
  9
$DIMTOFL
 70
     0
  9
$DIMTVP
 40
0.0
  9
$DIMTIX
 70
     0
  9
$DIMSOXD
 70
     0
  9
$DIMSAH
 70
     0
  9
$DIMBLK1
  1

  9
$DIMBLK2
  1

  9
$DIMSTYLE
  2
STANDARD
  9
$DIMCLRD
 70
     0
  9
$DIMCLRE
 70
     0
  9
$DIMCLRT
 70
     0
  9
$DIMTFAC
 40
1.0
  9
$DIMGAP
 40
0.09
  9
$LUNITS
 70
     2
  9
$LUPREC
 70
     4
  9
$SKETCHINC
 40
0.1
  9
$FILLETRAD
 40
2.0
  9
$AUNITS
 70
     0
  9
$AUPREC
 70
     0
  9
$MENU
  1
ACAD
  9
$ELEVATION
 40
0.0
  9
$PELEVATION
 40
0.0
  9
$THICKNESS
 40
0.0
  9
$LIMCHECK
 70
     0
  9
$BLIPMODE
 70
     0
  9
$CHAMFERA
 40
0.0
  9
$CHAMFERB
 40
0.0
  9
$SKPOLY
 70
     0
  9
$TDCREATE
 40
2452095.0307258102
  9
$TDUPDATE
 40
2452095.0312674758
  9
$TDINDWG
 40
0.0005849537
  9
$TDUSRTIMER
 40
0.0005849537
  9
$USRTIMER
 70
     1
  9
$ANGBASE
 50
0.0
  9
$ANGDIR
 70
     0
  9
$PDMODE
 70
     0
  9
$PDSIZE
 40
0.0
  9
$PLINEWID
 40
0.0
  9
$COORDS
 70
     1
  9
$SPLFRAME
 70
     0
  9
$SPLINETYPE
 70
     6
  9
$SPLINESEGS
 70
     8
  9
$ATTDIA
 70
     0
  9
$ATTREQ
 70
     1
  9
$HANDLING
 70
 10241
  9
$HANDSEED
  5
1ED
  9
$SURFTAB1
 70
     6
  9
$SURFTAB2
 70
     6
  9
$SURFTYPE
 70
     6
  9
$SURFU
 70
     6
  9
$SURFV
 70
     6
  9
$UCSNAME
  2

  9
$UCSORG
 10
0.0
 20
0.0
 30
0.0
  9
$UCSXDIR
 10
1.0
 20
0.0
 30
0.0
  9
$UCSYDIR
 10
0.0
 20
1.0
 30
0.0
  9
$PUCSNAME
  2

  9
$PUCSORG
 10
0.0
 20
0.0
 30
0.0
  9
$PUCSXDIR
 10
1.0
 20
0.0
 30
0.0
  9
$PUCSYDIR
 10
0.0
 20
1.0
 30
0.0
  9
$USERI1
 70
     0
  9
$USERI2
 70
     0
  9
$USERI3
 70
     0
  9
$USERI4
 70
     0
  9
$USERI5
 70
     0
  9
$USERR1
 40
0.0
  9
$USERR2
 40
0.0
  9
$USERR3
 40
0.0
  9
$USERR4
 40
0.0
  9
$USERR5
 40
0.0
  9
$WORLDVIEW
 70
     1
  9
$SHADEDGE
 70
     3
  9
$SHADEDIF
 70
    70
  9
$TILEMODE
 70
     1
  9
$MAXACTVP
 70
    64
  9
$PLIMCHECK
 70
     0
  9
$PEXTMIN
 10
1.0000000000000000E+020
 20
1.0000000000000000E+020
 30
1.0000000000000000E+020
  9
$PEXTMAX
 10
-1.0000000000000000E+020
 20
-1.0000000000000000E+020
 30
-1.0000000000000000E+020
  9
$PLIMMIN
 10
0.0
 20
0.0
  9
$PLIMMAX
 10
12.0
 20
9.0
  9
$UNITMODE
 70
     0
  9
$VISRETAIN
 70
     1
  9
$PLINEGEN
 70
     0
  9
$PSLTSCALE
 70
     1
  0
ENDSEC
  0
SECTION
  2
TABLES
  0
TABLE
  2
VPORT
 70
     2
  0
VPORT
  2
*ACTIVE
 70
     0
 10
0.0
 20
0.0
 11
1.0
 21
1.0
 12
-1280.39148112917
 22
232.56764740386771
 13
0.0
 23
0.0
 14
1.0
 24
1.0
 15
0.0
 25
0.0
 16
0.0
 26
0.0
 36
1.0
 17
0.0
 27
0.0
 37
0.0
 40
8.9999996696582034
 41
2.4144144144144142
 42
50.0
 43
0.0
 44
0.0
 50
0.0
 51
0.0
 71
     0
 72
   100
 73
     1
 74
     1
 75
     0
 76
     0
 77
     0
 78
     0
  0
ENDTAB
  0
TABLE
  2
LTYPE
 70
     9
  0
LTYPE
  2
CONTINUOUS
 70
     0
  3
Solid line
 72
    65
 73
     0
 40
0.0
  0
LTYPE
  2
BORDER
 70
     0
  3
__ __ . __ __ .
 72
    65
 73
     6
 40
34.586509512407389
 49
9.8818598606878272
 49
-4.9409299303439154
 49
9.8818598606878272
 49
-4.9409299303439154
 49
0.0
 49
-4.9409299303439154
  0
LTYPE
  2
CENTER
 70
     0
  3
____ _ ____ _
 72
    65
 73
     4
 40
39.527439442751323
 49
24.704649651719571
 49
-4.9409299303439154
 49
4.9409299303439154
 49
-4.9409299303439154
  0
LTYPE
  2
DASHDOT
 70
     0
  3
__ . __ . __ .
 72
    65
 73
     4
 40
19.763719721375661
 49
9.8818598606878272
 49
-4.9409299303439154
 49
0.0
 49
-4.9409299303439154
  0
LTYPE
  2
DASHED
 70
     0
  3
__ __ __ __ __
 72
    65
 73
     2
 40
14.82278979103174
 49
9.8818598606878272
 49
-4.9409299303439154
  0
LTYPE
  2
DIVIDE
 70
     0
  3
__ . . __ . . 
 72
    65
 73
     6
 40
24.704649651719571
 49
9.8818598606878272
 49
-4.9409299303439154
 49
0.0
 49
-4.9409299303439154
 49
0.0
 49
-4.9409299303439154
  0
LTYPE
  2
DOT
 70
     0
  3
..............
 72
    65
 73
     4
 40
9.8818598606878272
 49
0.0
 49
-4.9409299303439154
 49
0.0
 49
-4.9409299303439154
  0
LTYPE
  2
HIDDEN
 70
     0
  3
_ _ _ _ _ _ _
 72
    65
 73
     2
 40
7.4113948955158717
 49
4.9409299303439154
 49
-2.4704649651719559
  0
LTYPE
  2
PHANTOM
 70
     0
  3
_____ _ _ _____ _ _ 
 72
    65
 73
     6
 40
49.409299303439141
 49
24.704649651719571
 49
-4.9409299303439154
 49
4.9409299303439154
 49
-4.9409299303439154
 49
4.9409299303439154
 49
-4.9409299303439154
  0
ENDTAB
  0
TABLE
  2
LAYER
 70
     2
  0
LAYER
  2
0
 70
     0
 62
     7
  6
CONTINUOUS
  0
LAYER
  2
1
 70
     0
 62
     7
  6
CONTINUOUS
  0
ENDTAB
  0
TABLE
  2
STYLE
 70
     4
  0
STYLE
  2
STANDARD
 70
     0
 40
0.0
 41
1.0
 50
0.0
 71
     0
 42
3.5
  3
txt
  4

  0
STYLE
  2
SIMPLEX
 70
     0
 40
0.0
 41
1.0
 50
0.0
 71
     0
 42
3.5
  3
simplex
  4

  0
STYLE
  2
COMPLEX
 70
     0
 40
0.0
 41
1.0
 50
0.0
 71
     0
 42
3.5
  3
complex
  4

  0
STYLE
  2
ITALIC
 70
     0
 40
0.0
 41
1.0
 50
0.0
 71
     0
 42
3.5
  3
italic
  4

  0
ENDTAB
  0
TABLE
  2
VIEW
 70
     0
  0
ENDTAB
  0
TABLE
  2
UCS
 70
     0
  0
ENDTAB
  0
TABLE
  2
APPID
 70
     1
  0
APPID
  2
ACAD
 70
     0
  0
ENDTAB
  0
TABLE
  2
DIMSTYLE
 70
     1
  0
DIMSTYLE
  2
STANDARD
 70
     0
  3

  4

  5

  6

  7

 40
1.0
 41
0.18
 42
0.0625
 43
0.38
 44
0.18
 45
0.0
 46
0.0
 47
0.0
 48
0.0
140
0.18
141
0.09
142
0.0
143
25.399999999999999
144
1.0
145
0.0
146
1.0
147
0.09
 71
     0
 72
     0
 73
     1
 74
     1
 75
     0
 76
     0
 77
     0
 78
     0
170
     0
171
     2
172
     0
173
     0
174
     0
175
     0
176
     0
177
     0
178
     0
  0
ENDTAB
  0
ENDSEC
  0
SECTION
  2
BLOCKS
  0
BLOCK
  8
0
  2
$MODEL_SPACE
 70
     0
 10
0.0
 20
0.0
 30
0.0
  3
$MODEL_SPACE
  1

  0
ENDBLK
  5
20
  8
0
  0
BLOCK
 67
     1
  8
0
  2
$PAPER_SPACE
 70
     0
 10
0.0
 20
0.0
 30
0.0
  3
$PAPER_SPACE
  1

  0
ENDBLK
  5
1C
 67
     1
  8
0
  0
ENDSEC
  0
SECTION
  2
ENTITIES
  0
LINE
  5
33
  8
1
  6
DASHDOT
 62
     3
 10
-1201.021349412275
 20
54.17136941226218
 30
0.0
 11
-1201.021349412275
 21
114.17136941226219
 31
0.0
  0
LINE
  5
34
  8
1
  6
DASHDOT
 62
     3
 10
-1231.021349412275
 20
84.171369412262194
 30
0.0
 11
-1171.021349412274
 21
84.171369412262194
 31
0.0
  0
LINE
  5
35
  8
1
  6
DASHDOT
 62
     3
 10
-956.85422804924485
 20
84.171369412262166
 30
0.0
 11
-951.09426251274067
 21
84.171369412262166
 31
0.0
  0
LINE
  5
36
  8
1
  6
DASHDOT
 62
     3
 10
-831.85422804924485
 20
84.171369412262166
 30
0.0
 11
-826.0942625127409
 21
84.171369412262166
 31
0.0
  0
LINE
  5
37
  8
1
  6
DASHDOT
 62
     3
 10
-717.0
 20
84.171369412262166
 30
0.0
 11
-657.0
 21
84.171369412262166
 31
0.0
  0
LINE
  5
38
  8
1
  6
DASHDOT
 62
     3
 10
-687.0
 20
114.17136941226219
 30
0.0
 11
-687.0
 21
54.17136941226218
 31
0.0
  0
LINE
  5
39
  8
1
 62
     7
 10
-907.25422804924517
 20
240.81171153033429
 30
0.0
 11
-907.25422804924517
 21
245.81171153033429
 31
0.0
  0
LINE
  5
3A
  8
1
 62
     7
 10
-907.05422804924501
 20
240.81171153033429
 30
0.0
 11
-907.05422804924501
 21
245.81171153033429
 31
0.0
  0
LINE
  5
3B
  8
1
 62
     7
 10
-906.85422804924485
 20
240.81171153033429
 30
0.0
 11
-906.85422804924485
 21
245.81171153033429
 31
0.0
  0
LINE
  5
3C
  8
1
 62
     7
 10
-906.65422804924469
 20
240.81171153033429
 30
0.0
 11
-906.65422804924469
 21
245.81171153033429
 31
0.0
  0
LINE
  5
3D
  8
1
 62
     7
 10
-906.45422804924533
 20
240.81171153033429
 30
0.0
 11
-906.45422804924533
 21
245.81171153033429
 31
0.0
  0
LINE
  5
3E
  8
1
 62
     7
 10
-908.35422804924497
 20
240.81171153033429
 30
0.0
 11
-905.35422804924485
 21
240.81171153033429
 31
0.0
  0
LINE
  5
3F
  8
1
 62
     7
 10
-908.35422804924497
 20
220.94324822133521
 30
0.0
 11
-908.35422804924497
 21
202.67136941226221
 31
0.0
  0
LINE
  5
40
  8
1
 62
     7
 10
-908.35422804924497
 20
240.81171153033429
 30
0.0
 11
-908.35422804924497
 21
223.39398330504011
 31
0.0
  0
LINE
  5
41
  8
1
 62
     7
 10
-905.35422804924485
 20
220.94324822133521
 30
0.0
 11
-905.35422804924485
 21
202.63338864205579
 31
0.0
  0
LINE
  5
42
  8
1
 62
     7
 10
-905.35422804924485
 20
240.81171153033429
 30
0.0
 11
-905.35422804924485
 21
223.39398330504011
 31
0.0
  0
LINE
  5
43
  8
1
 62
     7
 10
-1202.921349412275
 20
240.81171153033429
 30
0.0
 11
-1202.921349412275
 21
245.81171153033429
 31
0.0
  0
LINE
  5
44
  8
1
 62
     7
 10
-1202.721349412275
 20
240.81171153033429
 30
0.0
 11
-1202.721349412275
 21
245.81171153033429
 31
0.0
  0
LINE
  5
45
  8
1
 62
     7
 10
-1202.521349412275
 20
240.81171153033429
 30
0.0
 11
-1202.521349412275
 21
245.81171153033429
 31
0.0
  0
LINE
  5
46
  8
1
 62
     7
 10
-1202.3213494122749
 20
240.81171153033429
 30
0.0
 11
-1202.3213494122749
 21
245.81171153033429
 31
0.0
  0
LINE
  5
47
  8
1
 62
     7
 10
-1202.1213494122751
 20
240.81171153033429
 30
0.0
 11
-1202.1213494122751
 21
245.81171153033429
 31
0.0
  0
LINE
  5
48
  8
1
 62
     7
 10
-1199.9213494122739
 20
240.81171153033429
 30
0.0
 11
-1199.9213494122739
 21
245.81171153033429
 31
0.0
  0
LINE
  5
49
  8
1
 62
     7
 10
-1199.721349412275
 20
240.81171153033429
 30
0.0
 11
-1199.721349412275
 21
245.81171153033429
 31
0.0
  0
LINE
  5
4A
  8
1
 62
     7
 10
-1199.521349412274
 20
240.81171153033429
 30
0.0
 11
-1199.521349412274
 21
245.81171153033429
 31
0.0
  0
LINE
  5
4B
  8
1
 62
     7
 10
-1199.321349412274
 20
240.81171153033429
 30
0.0
 11
-1199.321349412274
 21
245.81171153033429
 31
0.0
  0
LINE
  5
4C
  8
1
 62
     7
 10
-1199.121349412274
 20
240.81171153033429
 30
0.0
 11
-1199.121349412274
 21
245.81171153033429
 31
0.0
  0
LINE
  5
4D
  8
1
 62
     7
 10
-1201.021349412275
 20
240.81171153033429
 30
0.0
 11
-1198.021349412275
 21
240.81171153033429
 31
0.0
  0
LINE
  5
4E
  8
1
 62
     7
 10
-1201.021349412275
 20
220.94324822133521
 30
0.0
 11
-1201.021349412275
 21
202.67136941226221
 31
0.0
  0
LINE
  5
4F
  8
1
 62
     7
 10
-1201.021349412275
 20
240.81171153033429
 30
0.0
 11
-1201.021349412275
 21
224.6660213181481
 31
0.0
  0
LINE
  5
50
  8
1
 62
     7
 10
-1204.021349412275
 20
240.81171153033429
 30
0.0
 11
-1204.021349412275
 21
224.6660213181481
 31
0.0
  0
LINE
  5
51
  8
1
 62
     7
 10
-1204.021349412275
 20
202.63338864205579
 30
0.0
 11
-1204.021349412275
 21
220.94324822133521
 31
0.0
  0
LINE
  5
52
  8
1
 62
     7
 10
-1198.021349412275
 20
220.94324822133521
 30
0.0
 11
-1198.021349412275
 21
202.63338864205579
 31
0.0
  0
LINE
  5
53
  8
1
 62
     7
 10
-1198.021349412275
 20
240.81171153033429
 30
0.0
 11
-1198.021349412275
 21
224.6660213181481
 31
0.0
  0
LINE
  5
54
  8
1
 62
     7
 10
-1204.021349412275
 20
240.81171153033429
 30
0.0
 11
-1201.021349412275
 21
240.81171153033429
 31
0.0
  0
LINE
  5
55
  8
1
  6
DASHDOT
 62
     3
 10
-1127.091590623445
 20
126.8547355501173
 30
0.0
 11
-1110.5672517689291
 21
136.39506703595299
 31
0.0
  0
LINE
  5
56
  8
1
  6
DASHDOT
 62
     3
 10
-1110.5672517689291
 20
31.94767178857132
 30
0.0
 11
-1127.091590623445
 21
41.488003274406928
 31
0.0
  0
LINE
  5
57
  8
1
  6
DASHDOT
 62
     3
 10
-1291.475447055622
 20
136.39506703595299
 30
0.0
 11
-1274.9511082011049
 21
126.8547355501173
 31
0.0
  0
LINE
  5
58
  8
1
  6
DASHDOT
 62
     3
 10
-1274.9511082011049
 20
41.488003274406928
 30
0.0
 11
-1291.475447055622
 21
31.94767178857132
 31
0.0
  0
LINE
  5
59
  8
1
 62
     7
 10
-848.85422804924485
 20
191.6713694122621
 30
0.0
 11
-848.85422804924485
 21
138.17136941226221
 31
0.0
  0
LINE
  5
5A
  8
1
 62
     7
 10
-851.45422804924488
 20
194.1713694122621
 30
0.0
 11
-848.85422804924485
 21
194.1713694122621
 31
0.0
  0
LINE
  5
5B
  8
1
 62
     7
 10
-851.45422804924488
 20
191.6713694122621
 30
0.0
 11
-848.85422804924485
 21
191.6713694122621
 31
0.0
  0
LINE
  5
5C
  8
1
 62
     7
 10
-851.45422804924488
 20
201.6713694122621
 30
0.0
 11
-851.45422804924488
 21
191.6713694122621
 31
0.0
  0
LINE
  5
5D
  8
1
 62
     7
 10
-848.85422804924485
 20
202.67136941226221
 30
0.0
 11
-848.85422804924485
 21
194.1713694122621
 31
0.0
  0
LINE
  5
5E
  8
1
 62
     7
 10
-927.85422804924497
 20
200.67136941226221
 30
0.0
 11
-925.85422804924485
 21
202.67136941226221
 31
0.0
  0
LINE
  5
5F
  8
1
 62
     7
 10
-890.85422804924485
 20
192.0713694122621
 30
0.0
 11
-890.85422804924485
 21
162.6713694122621
 31
0.0
  0
LINE
  5
60
  8
1
 62
     7
 10
-888.85422804924485
 20
162.6713694122621
 30
0.0
 11
-888.85422804924485
 21
149.0713694122621
 31
0.0
  0
LINE
  5
61
  8
1
 62
     7
 10
-919.85422804924497
 20
148.1713694122621
 30
0.0
 11
-919.85422804924497
 21
84.171369412262166
 31
0.0
  0
LINE
  5
62
  8
1
 62
     7
 10
-919.85422804924497
 20
148.6713694122621
 30
0.0
 11
-919.85422804924497
 21
148.1713694122621
 31
0.0
  0
LINE
  5
63
  8
1
 62
     7
 10
-907.85422804924485
 20
149.0713694122621
 30
0.0
 11
-907.85422804924485
 21
148.6713694122621
 31
0.0
  0
LINE
  5
64
  8
1
 62
     7
 10
-907.85422804924485
 20
148.6713694122621
 30
0.0
 11
-919.85422804924497
 21
148.6713694122621
 31
0.0
  0
LINE
  5
65
  8
1
 62
     7
 10
-888.85422804924485
 20
149.0713694122621
 30
0.0
 11
-907.85422804924485
 21
149.0713694122621
 31
0.0
  0
LINE
  5
66
  8
1
 62
     7
 10
-927.85422804924497
 20
150.1713694122621
 30
0.0
 11
-925.85422804924485
 21
148.1713694122621
 31
0.0
  0
LINE
  5
67
  8
1
 62
     7
 10
-873.35422804924497
 20
194.1713694122621
 30
0.0
 11
-873.35422804924497
 21
192.0713694122621
 31
0.0
  0
LINE
  5
68
  8
1
 62
     7
 10
-873.35422804924497
 20
194.1713694122621
 30
0.0
 11
-851.45422804924488
 21
194.1713694122621
 31
0.0
  0
LINE
  5
69
  8
1
 62
     7
 10
-927.85422804924497
 20
200.67136941226221
 30
0.0
 11
-927.85422804924497
 21
150.1713694122621
 31
0.0
  0
LINE
  5
6A
  8
1
 62
     7
 10
-925.85422804924485
 20
202.67136941226221
 30
0.0
 11
-848.85422804924485
 21
202.67136941226221
 31
0.0
  0
LINE
  5
6B
  8
1
 62
     7
 10
-909.85422804924497
 20
127.42136941226219
 30
0.0
 11
-909.85422804924497
 21
135.42136941226221
 31
0.0
  0
LINE
  5
6C
  8
1
 62
     7
 10
-913.85422804924485
 20
129.17136941226221
 30
0.0
 11
-913.85422804924485
 21
125.17136941226219
 31
0.0
  0
LINE
  5
6D
  8
1
 62
     7
 10
-909.85422804924497
 20
129.17136941226221
 30
0.0
 11
-913.85422804924485
 21
129.17136941226221
 31
0.0
  0
LINE
  5
6E
  8
1
 62
     7
 10
-906.85422804924485
 20
127.42136941226219
 30
0.0
 11
-909.85422804924497
 21
127.42136941226219
 31
0.0
  0
LINE
  5
6F
  8
1
 62
     7
 10
-906.85422804924485
 20
135.42136941226221
 30
0.0
 11
-906.85422804924485
 21
127.42136941226219
 31
0.0
  0
LINE
  5
70
  8
1
 62
     7
 10
-909.85422804924497
 20
135.42136941226221
 30
0.0
 11
-906.85422804924485
 21
135.42136941226221
 31
0.0
  0
LINE
  5
71
  8
1
 62
     7
 10
-913.85422804924485
 20
118.712389074759
 30
0.0
 11
-912.85422804924497
 21
117.712389074759
 31
0.0
  0
LINE
  5
72
  8
1
 62
     7
 10
-1211.021349412275
 20
124.17136941226219
 30
0.0
 11
-1211.021349412275
 21
117.712389074759
 31
0.0
  0
LINE
  5
73
  8
1
 62
     7
 10
-1191.021349412275
 20
124.17136941226219
 30
0.0
 11
-1191.021349412275
 21
117.712389074759
 31
0.0
  0
LINE
  5
74
  8
1
 62
     7
 10
-1211.021349412275
 20
124.17136941226219
 30
0.0
 11
-1191.021349412275
 21
124.17136941226219
 31
0.0
  0
LINE
  5
75
  8
1
 62
     7
 10
-832.85422804924485
 20
119.17136941226219
 30
0.0
 11
-832.85422804924485
 21
124.17136941226219
 31
0.0
  0
LINE
  5
76
  8
1
 62
     7
 10
-832.85422804924485
 20
124.17136941226219
 30
0.0
 11
-912.85422804924497
 21
124.17136941226219
 31
0.0
  0
LINE
  5
77
  8
1
 62
     7
 10
-831.85422804924485
 20
125.17136941226219
 30
0.0
 11
-832.85422804924485
 21
124.17136941226219
 31
0.0
  0
LINE
  5
78
  8
1
 62
     7
 10
-871.85422804924485
 20
138.17136941226221
 30
0.0
 11
-863.85422804924485
 21
138.17136941226221
 31
0.0
  0
LINE
  5
79
  8
1
 62
     7
 10
-863.85422804924485
 20
138.17136941226221
 30
0.0
 11
-859.85422804924497
 21
138.17136941226221
 31
0.0
  0
LINE
  5
7A
  8
1
 62
     7
 10
-904.85422804924497
 20
131.67136941226221
 30
0.0
 11
-903.85422804924497
 21
131.67136941226221
 31
0.0
  0
LINE
  5
7B
  8
1
 62
     7
 10
-904.85422804924497
 20
148.5713694122621
 30
0.0
 11
-903.85422804924497
 21
148.5713694122621
 31
0.0
  0
LINE
  5
7C
  8
1
 62
     3
 10
-848.85422804924485
 20
138.17136941226221
 30
0.0
 11
-871.85422804924485
 21
201.6713694122621
 31
0.0
  0
LINE
  5
7D
  8
1
 62
     3
 10
-871.85422804924485
 20
138.17136941226221
 30
0.0
 11
-851.45422804924488
 21
201.6713694122621
 31
0.0
  0
LINE
  5
7E
  8
1
 62
     7
 10
-871.85422804924485
 20
191.0713694122621
 30
0.0
 11
-871.85422804924485
 21
201.6713694122621
 31
0.0
  0
LINE
  5
7F
  8
1
 62
     7
 10
-871.85422804924485
 20
201.6713694122621
 30
0.0
 11
-851.45422804924488
 21
201.6713694122621
 31
0.0
  0
LINE
  5
80
  8
1
 62
     7
 10
-906.85422804924485
 20
132.67136941226221
 30
0.0
 11
-905.85422804924485
 21
131.67136941226221
 31
0.0
  0
LINE
  5
81
  8
1
 62
     7
 10
-888.35422804924485
 20
191.5713694122621
 30
0.0
 11
-888.85422804924485
 21
191.0713694122621
 31
0.0
  0
LINE
  5
82
  8
1
 62
     7
 10
-871.85422804924485
 20
191.0713694122621
 30
0.0
 11
-872.35422804924497
 21
191.5713694122621
 31
0.0
  0
LINE
  5
83
  8
1
 62
     7
 10
-904.85422804924497
 20
148.5713694122621
 30
0.0
 11
-905.85422804924485
 21
147.5713694122621
 31
0.0
  0
LINE
  5
84
  8
1
 62
     7
 10
-905.85422804924485
 20
131.67136941226221
 30
0.0
 11
-904.85422804924497
 21
131.67136941226221
 31
0.0
  0
LINE
  5
85
  8
1
 62
     7
 10
-906.85422804924485
 20
132.67136941226221
 30
0.0
 11
-906.85422804924485
 21
137.67136941226221
 31
0.0
  0
LINE
  5
86
  8
1
 62
     7
 10
-906.85422804924485
 20
137.67136941226221
 30
0.0
 11
-905.85422804924485
 21
137.67136941226221
 31
0.0
  0
LINE
  5
87
  8
1
 62
     7
 10
-905.85422804924485
 20
137.67136941226221
 30
0.0
 11
-905.85422804924485
 21
147.5713694122621
 31
0.0
  0
LINE
  5
88
  8
1
 62
     7
 10
-903.85422804924497
 20
148.5713694122621
 30
0.0
 11
-886.85422804924497
 21
148.5713694122621
 31
0.0
  0
LINE
  5
89
  8
1
 62
     7
 10
-886.85422804924497
 20
148.5713694122621
 30
0.0
 11
-886.85422804924497
 21
180.1713694122621
 31
0.0
  0
LINE
  5
8A
  8
1
 62
     7
 10
-888.85422804924485
 20
180.1713694122621
 30
0.0
 11
-888.85422804924485
 21
191.0713694122621
 31
0.0
  0
LINE
  5
8B
  8
1
 62
     7
 10
-888.35422804924485
 20
191.5713694122621
 30
0.0
 11
-872.35422804924497
 21
191.5713694122621
 31
0.0
  0
LINE
  5
8C
  8
1
 62
     7
 10
-871.85422804924485
 20
191.0713694122621
 30
0.0
 11
-871.85422804924485
 21
143.0713694122621
 31
0.0
  0
LINE
  5
8D
  8
1
 62
     7
 10
-848.85422804924485
 20
191.6713694122621
 30
0.0
 11
-848.85422804924485
 21
190.67136941226221
 31
0.0
  0
LINE
  5
8E
  8
1
 62
     7
 10
-833.85422804924485
 20
188.6713694122621
 30
0.0
 11
-836.85422804924497
 21
191.6713694122621
 31
0.0
  0
LINE
  5
8F
  8
1
 62
     7
 10
-833.85422804924485
 20
148.43676530728109
 30
0.0
 11
-833.85422804924485
 21
151.1713694122621
 31
0.0
  0
LINE
  5
90
  8
1
 62
     7
 10
-848.85422804924485
 20
144.1713694122621
 30
0.0
 11
-838.75422804924517
 21
144.1713694122621
 31
0.0
  0
LINE
  5
91
  8
1
 62
     7
 10
-838.75422804924517
 20
139.07136941226219
 30
0.0
 11
-848.85422804924485
 21
139.07136941226219
 31
0.0
  0
LINE
  5
92
  8
1
 62
     7
 10
-848.85422804924485
 20
191.6713694122621
 30
0.0
 11
-836.85422804924497
 21
191.6713694122621
 31
0.0
  0
LINE
  5
93
  8
1
 62
     7
 10
-833.85422804924485
 20
188.6713694122621
 30
0.0
 11
-833.85422804924485
 21
151.1713694122621
 31
0.0
  0
LINE
  5
94
  8
1
 62
     7
 10
-833.85422804924485
 20
151.1713694122621
 30
0.0
 11
-838.75422804924517
 21
151.1713694122621
 31
0.0
  0
LINE
  5
95
  8
1
 62
     7
 10
-838.75422804924517
 20
151.1713694122621
 30
0.0
 11
-838.75422804924517
 21
137.17136941226221
 31
0.0
  0
LINE
  5
96
  8
1
 62
     7
 10
-834.75422804924506
 20
137.17136941226221
 30
0.0
 11
-834.75422804924506
 21
146.0713694122621
 31
0.0
  0
LINE
  5
97
  8
1
 62
     7
 10
-834.75422804924506
 20
146.0713694122621
 30
0.0
 11
-838.75422804924517
 21
146.0713694122621
 31
0.0
  0
LINE
  5
98
  8
1
  6
DASHDOT
 62
     7
 10
-871.35422804924485
 20
143.5713694122621
 30
0.0
 11
-871.85422804924485
 21
143.0713694122621
 31
0.0
  0
LINE
  5
99
  8
1
  6
DASHDOT
 62
     3
 10
-873.88334047528099
 20
141.1713694122621
 30
0.0
 11
-836.42345881847575
 21
141.1713694122621
 31
0.0
  0
LINE
  5
9A
  8
1
 62
     7
 10
-904.85422804924497
 20
131.67136941226221
 30
0.0
 11
-905.85422804924485
 21
130.67136941226221
 31
0.0
  0
LINE
  5
9B
  8
1
 62
     7
 10
-831.85422804924485
 20
138.17136941226221
 30
0.0
 11
-832.85422804924485
 21
139.17136941226221
 31
0.0
  0
LINE
  5
9C
  8
1
 62
     7
 10
-859.85422804924497
 20
138.17136941226221
 30
0.0
 11
-838.95422804924488
 21
138.17136941226221
 31
0.0
  0
LINE
  5
9D
  8
1
 62
     7
 10
-834.75422804924506
 20
138.17136941226221
 30
0.0
 11
-831.85422804924485
 21
138.17136941226221
 31
0.0
  0
LINE
  5
9E
  8
1
 62
     7
 10
-831.85422804924485
 20
118.712389074759
 30
0.0
 11
-832.85422804924485
 21
117.712389074759
 31
0.0
  0
LINE
  5
9F
  8
1
 62
     7
 10
-832.85422804924485
 20
119.17136941226219
 30
0.0
 11
-832.85422804924485
 21
84.171369412262166
 31
0.0
  0
LINE
  5
A0
  8
1
 62
     7
 10
-906.85422804924485
 20
129.17136941226221
 30
0.0
 11
-905.85422804924485
 21
129.17136941226221
 31
0.0
  0
LINE
  5
A1
  8
1
 62
     7
 10
-905.85422804924485
 20
129.17136941226221
 30
0.0
 11
-905.85422804924485
 21
130.67136941226221
 31
0.0
  0
LINE
  5
A2
  8
1
 62
     7
 10
-903.85422804924497
 20
131.67136941226221
 30
0.0
 11
-871.85422804924485
 21
131.67136941226221
 31
0.0
  0
LINE
  5
A3
  8
1
 62
     7
 10
-871.85422804924485
 20
131.67136941226221
 30
0.0
 11
-871.85422804924485
 21
143.0713694122621
 31
0.0
  0
LINE
  5
A4
  8
1
 62
     7
 10
-871.35422804924485
 20
143.5713694122621
 30
0.0
 11
-838.95422804924488
 21
143.5713694122621
 31
0.0
  0
LINE
  5
A5
  8
1
 62
     7
 10
-838.95422804924488
 20
143.5713694122621
 30
0.0
 11
-838.95422804924488
 21
137.17136941226221
 31
0.0
  0
LINE
  5
A6
  8
1
 62
     7
 10
-838.95422804924488
 20
137.17136941226221
 30
0.0
 11
-834.75422804924506
 21
137.17136941226221
 31
0.0
  0
LINE
  5
A7
  8
1
 62
     7
 10
-834.75422804924506
 20
137.17136941226221
 30
0.0
 11
-834.75422804924506
 21
139.17136941226221
 31
0.0
  0
LINE
  5
A8
  8
1
 62
     7
 10
-834.75422804924506
 20
139.17136941226221
 30
0.0
 11
-832.85422804924485
 21
139.17136941226221
 31
0.0
  0
LINE
  5
A9
  8
1
 62
     7
 10
-831.85422804924485
 20
138.17136941226221
 30
0.0
 11
-831.85422804924485
 21
125.17136941226219
 31
0.0
  0
LINE
  5
AA
  8
1
 62
     7
 10
-873.35422804924497
 20
194.1713694122621
 30
0.0
 11
-873.35422804924497
 21
202.67136941226221
 31
0.0
  0
LINE
  5
AB
  8
1
 62
     7
 10
-912.85422804924497
 20
124.17136941226219
 30
0.0
 11
-913.85422804924485
 21
125.17136941226219
 31
0.0
  0
LINE
  5
AC
  8
1
 62
     7
 10
-912.85422804924497
 20
117.712389074759
 30
0.0
 11
-832.85422804924485
 21
117.712389074759
 31
0.0
  0
LINE
  5
AD
  8
1
 62
     7
 10
-925.85422804924485
 20
148.1713694122621
 30
0.0
 11
-919.85422804924497
 21
148.1713694122621
 31
0.0
  0
LINE
  5
AE
  8
1
 62
     7
 10
-925.85422804924485
 20
148.1713694122621
 30
0.0
 11
-925.85422804924485
 21
84.171369412262166
 31
0.0
  0
LINE
  5
AF
  8
1
 62
     7
 10
-912.85422804924497
 20
124.17136941226219
 30
0.0
 11
-912.85422804924497
 21
84.171369412262166
 31
0.0
  0
LINE
  5
B0
  8
1
 62
     7
 10
-913.85422804924485
 20
125.17136941226219
 30
0.0
 11
-913.85422804924485
 21
120.17136941226219
 31
0.0
  0
LINE
  5
B1
  8
1
 62
     7
 10
-927.85422804924497
 20
150.1713694122621
 30
0.0
 11
-927.85422804924497
 21
84.171369412262166
 31
0.0
  0
LINE
  5
B2
  8
1
 62
     7
 10
-831.85422804924485
 20
125.17136941226219
 30
0.0
 11
-831.85422804924485
 21
120.17136941226219
 31
0.0
  0
LINE
  5
B3
  8
1
 62
     7
 10
-831.85422804924485
 20
120.17136941226219
 30
0.0
 11
-831.85422804924485
 21
84.171369412262166
 31
0.0
  0
LINE
  5
B4
  8
1
 62
     7
 10
-913.85422804924485
 20
120.17136941226219
 30
0.0
 11
-913.85422804924485
 21
84.171369412262166
 31
0.0
  0
LINE
  5
B5
  8
1
 62
     7
 10
-886.85422804924497
 20
180.1713694122621
 30
0.0
 11
-888.85422804924485
 21
180.1713694122621
 31
0.0
  0
LINE
  5
B6
  8
1
  6
DASHDOT
 62
     3
 10
-934.09426251274067
 20
84.171369412262166
 30
0.0
 11
-927.85422804924497
 21
84.171369412262166
 31
0.0
  0
LINE
  5
B7
  8
1
 62
     7
 10
-1032.2542280492451
 20
240.81171153033429
 30
0.0
 11
-1032.2542280492451
 21
245.81171153033429
 31
0.0
  0
LINE
  5
B8
  8
1
 62
     7
 10
-1032.054228049245
 20
240.81171153033429
 30
0.0
 11
-1032.054228049245
 21
245.81171153033429
 31
0.0
  0
LINE
  5
B9
  8
1
 62
     7
 10
-1031.854228049245
 20
240.81171153033429
 30
0.0
 11
-1031.854228049245
 21
245.81171153033429
 31
0.0
  0
LINE
  5
BA
  8
1
 62
     7
 10
-1031.654228049244
 20
240.81171153033429
 30
0.0
 11
-1031.654228049244
 21
245.81171153033429
 31
0.0
  0
LINE
  5
BB
  8
1
 62
     7
 10
-1031.4542280492451
 20
240.81171153033429
 30
0.0
 11
-1031.4542280492451
 21
245.81171153033429
 31
0.0
  0
LINE
  5
BC
  8
1
 62
     7
 10
-1033.354228049245
 20
240.81171153033429
 30
0.0
 11
-1030.354228049245
 21
240.81171153033429
 31
0.0
  0
LINE
  5
BD
  8
1
 62
     7
 10
-1033.354228049245
 20
220.94324822133521
 30
0.0
 11
-1033.354228049245
 21
202.67136941226221
 31
0.0
  0
LINE
  5
BE
  8
1
 62
     7
 10
-1033.354228049245
 20
240.81171153033429
 30
0.0
 11
-1033.354228049245
 21
223.39398330504011
 31
0.0
  0
LINE
  5
BF
  8
1
 62
     7
 10
-1030.354228049245
 20
220.94324822133521
 30
0.0
 11
-1030.354228049245
 21
202.63338864205579
 31
0.0
  0
LINE
  5
C0
  8
1
 62
     7
 10
-1030.354228049245
 20
240.81171153033429
 30
0.0
 11
-1030.354228049245
 21
223.39398330504011
 31
0.0
  0
LINE
  5
C1
  8
1
 62
     7
 10
-1050.8542280492441
 20
-34.32863058773782
 30
0.0
 11
-1052.854228049245
 21
-32.32863058773782
 31
0.0
  0
LINE
  5
C2
  8
1
 62
     7
 10
-998.35422804924497
 20
-34.32863058773782
 30
0.0
 11
-998.35422804924497
 21
15.39983699623884
 31
0.0
  0
LINE
  5
C3
  8
1
 62
     7
 10
-1050.8542280492441
 20
-34.32863058773782
 30
0.0
 11
-998.35422804924497
 21
-34.32863058773782
 31
0.0
  0
LINE
  5
C4
  8
1
 62
     7
 10
-996.85422804924485
 20
-23.32863058773782
 30
0.0
 11
-998.35422804924497
 21
-23.32863058773782
 31
0.0
  0
LINE
  5
C5
  8
1
 62
     7
 10
-996.85422804924485
 20
-33.32863058773782
 30
0.0
 11
-996.85422804924485
 21
15.39983699623884
 31
0.0
  0
LINE
  5
C6
  8
1
 62
     7
 10
-973.85422804924485
 20
84.171369412262166
 30
0.0
 11
-973.85422804924485
 21
-23.32863058773782
 31
0.0
  0
LINE
  5
C7
  8
1
 62
     7
 10
-958.85422804924485
 20
84.171369412262166
 30
0.0
 11
-958.85422804924485
 21
29.17136941226217
 31
0.0
  0
LINE
  5
C8
  8
1
 62
     7
 10
-958.85422804924485
 20
29.17136941226217
 30
0.0
 11
-957.85422804924485
 21
29.17136941226217
 31
0.0
  0
LINE
  5
C9
  8
1
 62
     7
 10
-961.85422804924497
 20
84.171369412262166
 30
0.0
 11
-961.85422804924497
 21
-23.32863058773782
 31
0.0
  0
LINE
  5
CA
  8
1
 62
     7
 10
-957.85422804924485
 20
84.171369412262166
 30
0.0
 11
-957.85422804924485
 21
29.17136941226217
 31
0.0
  0
LINE
  5
CB
  8
1
 62
     7
 10
-961.85422804924497
 20
-23.32863058773782
 30
0.0
 11
-958.85422804924485
 21
-20.32863058773782
 31
0.0
  0
LINE
  5
CC
  8
1
 62
     7
 10
-958.85422804924485
 20
29.17136941226217
 30
0.0
 11
-958.85422804924485
 21
-20.32863058773782
 31
0.0
  0
LINE
  5
CD
  8
1
 62
     7
 10
-957.85422804924485
 20
29.17136941226217
 30
0.0
 11
-956.85422804924485
 21
30.17136941226217
 31
0.0
  0
LINE
  5
CE
  8
1
 62
     7
 10
-956.85422804924485
 20
84.171369412262166
 30
0.0
 11
-956.85422804924485
 21
30.17136941226217
 31
0.0
  0
LINE
  5
CF
  8
1
 62
     7
 10
-998.35422804924497
 20
38.473339813026918
 30
0.0
 11
-996.85422804924485
 21
38.473339813026918
 31
0.0
  0
LINE
  5
D0
  8
1
 62
     7
 10
-976.45422804924465
 20
38.473339813026918
 30
0.0
 11
-973.85422804924485
 21
38.473339813026918
 31
0.0
  0
LINE
  5
D1
  8
1
 62
     7
 10
-996.85422804924485
 20
35.205662223242207
 30
0.0
 11
-976.45422804924465
 21
35.205662223242207
 31
0.0
  0
LINE
  5
D2
  8
1
 62
     7
 10
-998.35422804924497
 20
34.452395879496521
 30
0.0
 11
-973.85422804924485
 21
34.452395879496521
 31
0.0
  0
LINE
  5
D3
  8
1
 62
     7
 10
-998.35422804924497
 20
15.39983699623884
 30
0.0
 11
-973.85422804924485
 21
15.39983699623884
 31
0.0
  0
LINE
  5
D4
  8
1
 62
     7
 10
-996.85422804924485
 20
35.205662223242207
 30
0.0
 11
-996.85422804924485
 21
84.171369412262166
 31
0.0
  0
LINE
  5
D5
  8
1
 62
     7
 10
-976.45422804924465
 20
35.205662223242207
 30
0.0
 11
-976.45422804924465
 21
84.171369412262166
 31
0.0
  0
LINE
  5
D6
  8
1
 62
     7
 10
-976.45422804924465
 20
15.39983699623884
 30
0.0
 11
-976.45422804924465
 21
-33.32863058773782
 31
0.0
  0
LINE
  5
D7
  8
1
 62
     7
 10
-976.45422804924465
 20
-23.32863058773782
 30
0.0
 11
-961.85422804924497
 21
-23.32863058773782
 31
0.0
  0
LINE
  5
D8
  8
1
 62
     7
 10
-976.45422804924465
 20
-33.32863058773782
 30
0.0
 11
-996.85422804924485
 21
-33.32863058773782
 31
0.0
  0
LINE
  5
D9
  8
1
 62
     7
 10
-998.35422804924497
 20
-34.32863058773782
 30
0.0
 11
-973.85422804924485
 21
-34.32863058773782
 31
0.0
  0
LINE
  5
DA
  8
1
 62
     7
 10
-998.35422804924497
 20
-25.277248669465848
 30
0.0
 11
-996.85422804924485
 21
-25.277248669465848
 31
0.0
  0
LINE
  5
DB
  8
1
 62
     7
 10
-976.45422804924465
 20
-25.277248669465848
 30
0.0
 11
-973.85422804924485
 21
-25.277248669465848
 31
0.0
  0
LINE
  5
DC
  8
1
 62
     7
 10
-973.85422804924485
 20
-25.277248669465848
 30
0.0
 11
-973.85422804924485
 21
-34.32863058773782
 31
0.0
  0
LINE
  5
DD
  8
1
 62
     3
 10
-976.45422804924465
 20
15.39983699623884
 30
0.0
 11
-996.85422804924485
 21
-33.32863058773782
 31
0.0
  0
LINE
  5
DE
  8
1
 62
     3
 10
-976.45422804924465
 20
-33.32863058773782
 30
0.0
 11
-996.85422804924485
 21
15.39983699623884
 31
0.0
  0
LINE
  5
DF
  8
1
 62
     7
 10
-998.35422804924497
 20
34.452395879496521
 30
0.0
 11
-998.35422804924497
 21
84.171369412262166
 31
0.0
  0
LINE
  5
E0
  8
1
 62
     7
 10
-1050.8542280492441
 20
-34.32863058773782
 30
0.0
 11
-1050.8542280492441
 21
84.171369412262166
 31
0.0
  0
LINE
  5
E1
  8
1
  6
DASHDOT
 62
     3
 10
-1059.0942625127409
 20
84.171369412262166
 30
0.0
 11
-1052.854228049245
 21
84.171369412262166
 31
0.0
  0
LINE
  5
E2
  8
1
 62
     7
 10
-890.85422804924485
 20
192.0713694122621
 30
0.0
 11
-873.35422804924497
 21
192.0713694122621
 31
0.0
  0
LINE
  5
E3
  8
1
 62
     7
 10
-890.85422804924485
 20
162.6713694122621
 30
0.0
 11
-888.85422804924485
 21
162.6713694122621
 31
0.0
  0
LINE
  5
E4
  8
1
 62
     7
 10
-848.85422804924485
 20
30.17136941226212
 30
0.0
 11
-848.85422804924485
 21
-23.32863058773788
 31
0.0
  0
LINE
  5
E5
  8
1
 62
     7
 10
-848.85422804924485
 20
-25.82863058773788
 30
0.0
 11
-851.45422804924488
 21
-25.82863058773788
 31
0.0
  0
LINE
  5
E6
  8
1
 62
     7
 10
-848.85422804924485
 20
-23.32863058773788
 30
0.0
 11
-851.45422804924488
 21
-23.32863058773788
 31
0.0
  0
LINE
  5
E7
  8
1
 62
     7
 10
-851.45422804924488
 20
-23.32863058773788
 30
0.0
 11
-851.45422804924488
 21
-33.328630587737869
 31
0.0
  0
LINE
  5
E8
  8
1
 62
     7
 10
-848.85422804924485
 20
-25.82863058773788
 30
0.0
 11
-848.85422804924485
 21
-34.328630587737869
 31
0.0
  0
LINE
  5
E9
  8
1
 62
     7
 10
-925.85422804924485
 20
-34.328630587737869
 30
0.0
 11
-927.85422804924497
 21
-32.328630587737869
 31
0.0
  0
LINE
  5
EA
  8
1
 62
     7
 10
-890.85422804924485
 20
5.6713694122621217
 30
0.0
 11
-890.85422804924485
 21
-23.72863058773785
 31
0.0
  0
LINE
  5
EB
  8
1
 62
     7
 10
-888.85422804924485
 20
19.27136941226215
 30
0.0
 11
-888.85422804924485
 21
5.6713694122621217
 31
0.0
  0
LINE
  5
EC
  8
1
 62
     7
 10
-919.85422804924497
 20
84.171369412262166
 30
0.0
 11
-919.85422804924497
 21
20.171369412262109
 31
0.0
  0
LINE
  5
ED
  8
1
 62
     7
 10
-919.85422804924497
 20
20.171369412262109
 30
0.0
 11
-919.85422804924497
 21
19.671369412262109
 31
0.0
  0
LINE
  5
EE
  8
1
 62
     7
 10
-907.85422804924485
 20
19.671369412262109
 30
0.0
 11
-907.85422804924485
 21
19.27136941226215
 31
0.0
  0
LINE
  5
EF
  8
1
 62
     7
 10
-919.85422804924497
 20
19.671369412262109
 30
0.0
 11
-907.85422804924485
 21
19.671369412262109
 31
0.0
  0
LINE
  5
F0
  8
1
 62
     7
 10
-907.85422804924485
 20
19.27136941226215
 30
0.0
 11
-888.85422804924485
 21
19.27136941226215
 31
0.0
  0
LINE
  5
F1
  8
1
 62
     7
 10
-925.85422804924485
 20
20.171369412262109
 30
0.0
 11
-927.85422804924497
 21
18.17136941226212
 31
0.0
  0
LINE
  5
F2
  8
1
 62
     7
 10
-873.35422804924497
 20
-23.72863058773785
 30
0.0
 11
-873.35422804924497
 21
-25.82863058773788
 31
0.0
  0
LINE
  5
F3
  8
1
 62
     7
 10
-851.45422804924488
 20
-25.82863058773788
 30
0.0
 11
-873.35422804924497
 21
-25.82863058773788
 31
0.0
  0
LINE
  5
F4
  8
1
 62
     7
 10
-927.85422804924497
 20
18.17136941226212
 30
0.0
 11
-927.85422804924497
 21
-32.328630587737869
 31
0.0
  0
LINE
  5
F5
  8
1
 62
     7
 10
-848.85422804924485
 20
-34.328630587737869
 30
0.0
 11
-925.85422804924485
 21
-34.328630587737869
 31
0.0
  0
LINE
  5
F6
  8
1
 62
     7
 10
-909.85422804924497
 20
32.921369412262123
 30
0.0
 11
-909.85422804924497
 21
40.921369412262138
 31
0.0
  0
LINE
  5
F7
  8
1
 62
     7
 10
-913.85422804924485
 20
43.171369412262138
 30
0.0
 11
-913.85422804924485
 21
39.171369412262109
 31
0.0
  0
LINE
  5
F8
  8
1
 62
     7
 10
-913.85422804924485
 20
39.171369412262109
 30
0.0
 11
-909.85422804924497
 21
39.171369412262109
 31
0.0
  0
LINE
  5
F9
  8
1
 62
     7
 10
-909.85422804924497
 20
40.921369412262138
 30
0.0
 11
-906.85422804924485
 21
40.921369412262138
 31
0.0
  0
LINE
  5
FA
  8
1
 62
     7
 10
-906.85422804924485
 20
40.921369412262138
 30
0.0
 11
-906.85422804924485
 21
32.921369412262123
 31
0.0
  0
LINE
  5
FB
  8
1
 62
     7
 10
-906.85422804924485
 20
32.921369412262123
 30
0.0
 11
-909.85422804924497
 21
32.921369412262123
 31
0.0
  0
LINE
  5
FC
  8
1
 62
     7
 10
-912.85422804924497
 20
49.171369412262138
 30
0.0
 11
-913.85422804924485
 21
48.171369412262138
 31
0.0
  0
LINE
  5
FD
  8
1
 62
     7
 10
-832.85422804924485
 20
44.171369412262138
 30
0.0
 11
-832.85422804924485
 21
49.171369412262138
 31
0.0
  0
LINE
  5
FE
  8
1
 62
     7
 10
-912.85422804924497
 20
44.171369412262138
 30
0.0
 11
-832.85422804924485
 21
44.171369412262138
 31
0.0
  0
LINE
  5
FF
  8
1
 62
     7
 10
-832.85422804924485
 20
44.171369412262138
 30
0.0
 11
-831.85422804924485
 21
43.171369412262138
 31
0.0
  0
LINE
  5
100
  8
1
 62
     7
 10
-863.85422804924485
 20
30.17136941226212
 30
0.0
 11
-871.85422804924485
 21
30.17136941226212
 31
0.0
  0
LINE
  5
101
  8
1
 62
     7
 10
-859.85422804924497
 20
30.17136941226212
 30
0.0
 11
-863.85422804924485
 21
30.17136941226212
 31
0.0
  0
LINE
  5
102
  8
1
 62
     7
 10
-903.85422804924497
 20
36.671369412262109
 30
0.0
 11
-904.85422804924497
 21
36.671369412262109
 31
0.0
  0
LINE
  5
103
  8
1
 62
     7
 10
-903.85422804924497
 20
19.771369412262139
 30
0.0
 11
-904.85422804924497
 21
19.771369412262139
 31
0.0
  0
LINE
  5
104
  8
1
 62
     3
 10
-871.85422804924485
 20
-33.328630587737869
 30
0.0
 11
-848.85422804924485
 21
30.17136941226212
 31
0.0
  0
LINE
  5
105
  8
1
 62
     3
 10
-851.45422804924488
 20
-33.328630587737869
 30
0.0
 11
-871.85422804924485
 21
30.17136941226212
 31
0.0
  0
LINE
  5
106
  8
1
 62
     7
 10
-871.85422804924485
 20
-33.328630587737869
 30
0.0
 11
-871.85422804924485
 21
-22.72863058773785
 31
0.0
  0
LINE
  5
107
  8
1
 62
     7
 10
-851.45422804924488
 20
-33.328630587737869
 30
0.0
 11
-871.85422804924485
 21
-33.328630587737869
 31
0.0
  0
LINE
  5
108
  8
1
 62
     7
 10
-905.85422804924485
 20
36.671369412262109
 30
0.0
 11
-906.85422804924485
 21
35.671369412262109
 31
0.0
  0
LINE
  5
109
  8
1
 62
     7
 10
-888.85422804924485
 20
-22.72863058773785
 30
0.0
 11
-888.35422804924485
 21
-23.22863058773785
 31
0.0
  0
LINE
  5
10A
  8
1
 62
     7
 10
-872.35422804924497
 20
-23.22863058773785
 30
0.0
 11
-871.85422804924485
 21
-22.72863058773785
 31
0.0
  0
LINE
  5
10B
  8
1
 62
     7
 10
-905.85422804924485
 20
20.77136941226215
 30
0.0
 11
-904.85422804924497
 21
19.771369412262139
 31
0.0
  0
LINE
  5
10C
  8
1
 62
     7
 10
-904.85422804924497
 20
36.671369412262109
 30
0.0
 11
-905.85422804924485
 21
36.671369412262109
 31
0.0
  0
LINE
  5
10D
  8
1
 62
     7
 10
-906.85422804924485
 20
30.67136941226212
 30
0.0
 11
-906.85422804924485
 21
35.671369412262109
 31
0.0
  0
LINE
  5
10E
  8
1
 62
     7
 10
-905.85422804924485
 20
30.67136941226212
 30
0.0
 11
-906.85422804924485
 21
30.67136941226212
 31
0.0
  0
LINE
  5
10F
  8
1
 62
     7
 10
-905.85422804924485
 20
20.77136941226215
 30
0.0
 11
-905.85422804924485
 21
30.67136941226212
 31
0.0
  0
LINE
  5
110
  8
1
 62
     7
 10
-886.85422804924497
 20
19.771369412262139
 30
0.0
 11
-903.85422804924497
 21
19.771369412262139
 31
0.0
  0
LINE
  5
111
  8
1
 62
     7
 10
-886.85422804924497
 20
-11.82863058773788
 30
0.0
 11
-886.85422804924497
 21
19.771369412262139
 31
0.0
  0
LINE
  5
112
  8
1
 62
     7
 10
-888.85422804924485
 20
-22.72863058773785
 30
0.0
 11
-888.85422804924485
 21
-11.82863058773788
 31
0.0
  0
LINE
  5
113
  8
1
 62
     7
 10
-872.35422804924497
 20
-23.22863058773785
 30
0.0
 11
-888.35422804924485
 21
-23.22863058773785
 31
0.0
  0
LINE
  5
114
  8
1
 62
     7
 10
-871.85422804924485
 20
25.27136941226215
 30
0.0
 11
-871.85422804924485
 21
-22.72863058773785
 31
0.0
  0
LINE
  5
115
  8
1
 62
     7
 10
-848.85422804924485
 20
-22.32863058773788
 30
0.0
 11
-848.85422804924485
 21
-23.32863058773788
 31
0.0
  0
LINE
  5
116
  8
1
 62
     7
 10
-836.85422804924497
 20
-23.32863058773788
 30
0.0
 11
-833.85422804924485
 21
-20.328630587737869
 31
0.0
  0
LINE
  5
117
  8
1
 62
     7
 10
-833.85422804924485
 20
17.17136941226212
 30
0.0
 11
-833.85422804924485
 21
19.905973517243119
 31
0.0
  0
LINE
  5
118
  8
1
 62
     7
 10
-838.75422804924517
 20
24.17136941226212
 30
0.0
 11
-848.85422804924485
 21
24.17136941226212
 31
0.0
  0
LINE
  5
119
  8
1
 62
     7
 10
-848.85422804924485
 20
29.27136941226215
 30
0.0
 11
-838.75422804924517
 21
29.27136941226215
 31
0.0
  0
LINE
  5
11A
  8
1
 62
     7
 10
-836.85422804924497
 20
-23.32863058773788
 30
0.0
 11
-848.85422804924485
 21
-23.32863058773788
 31
0.0
  0
LINE
  5
11B
  8
1
 62
     7
 10
-833.85422804924485
 20
17.17136941226212
 30
0.0
 11
-833.85422804924485
 21
-20.328630587737869
 31
0.0
  0
LINE
  5
11C
  8
1
 62
     7
 10
-838.75422804924517
 20
17.17136941226212
 30
0.0
 11
-833.85422804924485
 21
17.17136941226212
 31
0.0
  0
LINE
  5
11D
  8
1
 62
     7
 10
-838.75422804924517
 20
31.171369412262109
 30
0.0
 11
-838.75422804924517
 21
17.17136941226212
 31
0.0
  0
LINE
  5
11E
  8
1
 62
     7
 10
-834.75422804924506
 20
22.271369412262139
 30
0.0
 11
-834.75422804924506
 21
31.171369412262109
 31
0.0
  0
LINE
  5
11F
  8
1
 62
     7
 10
-838.75422804924517
 20
22.271369412262139
 30
0.0
 11
-834.75422804924506
 21
22.271369412262139
 31
0.0
  0
LINE
  5
120
  8
1
  6
DASHDOT
 62
     7
 10
-871.85422804924485
 20
25.27136941226215
 30
0.0
 11
-871.35422804924485
 21
24.771369412262139
 31
0.0
  0
LINE
  5
121
  8
1
  6
DASHDOT
 62
     3
 10
-836.42345881847575
 20
27.17136941226212
 30
0.0
 11
-873.88334047528099
 21
27.17136941226212
 31
0.0
  0
LINE
  5
122
  8
1
 62
     7
 10
-905.85422804924485
 20
37.671369412262109
 30
0.0
 11
-904.85422804924497
 21
36.671369412262109
 31
0.0
  0
LINE
  5
123
  8
1
 62
     7
 10
-832.85422804924485
 20
29.17136941226212
 30
0.0
 11
-831.85422804924485
 21
30.17136941226212
 31
0.0
  0
LINE
  5
124
  8
1
 62
     7
 10
-838.95422804924488
 20
30.17136941226212
 30
0.0
 11
-859.85422804924497
 21
30.17136941226212
 31
0.0
  0
LINE
  5
125
  8
1
 62
     7
 10
-831.85422804924485
 20
30.17136941226212
 30
0.0
 11
-834.75422804924506
 21
30.17136941226212
 31
0.0
  0
LINE
  5
126
  8
1
 62
     7
 10
-832.85422804924485
 20
49.171369412262138
 30
0.0
 11
-831.85422804924485
 21
48.171369412262138
 31
0.0
  0
LINE
  5
127
  8
1
 62
     7
 10
-832.85422804924485
 20
84.171369412262166
 30
0.0
 11
-832.85422804924485
 21
49.171369412262138
 31
0.0
  0
LINE
  5
128
  8
1
 62
     7
 10
-905.85422804924485
 20
39.171369412262109
 30
0.0
 11
-906.85422804924485
 21
39.171369412262109
 31
0.0
  0
LINE
  5
129
  8
1
 62
     7
 10
-905.85422804924485
 20
37.671369412262109
 30
0.0
 11
-905.85422804924485
 21
39.171369412262109
 31
0.0
  0
LINE
  5
12A
  8
1
 62
     7
 10
-871.85422804924485
 20
36.671369412262109
 30
0.0
 11
-903.85422804924497
 21
36.671369412262109
 31
0.0
  0
LINE
  5
12B
  8
1
 62
     7
 10
-871.85422804924485
 20
25.27136941226215
 30
0.0
 11
-871.85422804924485
 21
36.671369412262109
 31
0.0
  0
LINE
  5
12C
  8
1
 62
     7
 10
-838.95422804924488
 20
24.771369412262139
 30
0.0
 11
-871.35422804924485
 21
24.771369412262139
 31
0.0
  0
LINE
  5
12D
  8
1
 62
     7
 10
-838.95422804924488
 20
31.171369412262109
 30
0.0
 11
-838.95422804924488
 21
24.771369412262139
 31
0.0
  0
LINE
  5
12E
  8
1
 62
     7
 10
-834.75422804924506
 20
31.171369412262109
 30
0.0
 11
-838.95422804924488
 21
31.171369412262109
 31
0.0
  0
LINE
  5
12F
  8
1
 62
     7
 10
-834.75422804924506
 20
29.17136941226212
 30
0.0
 11
-834.75422804924506
 21
31.171369412262109
 31
0.0
  0
LINE
  5
130
  8
1
 62
     7
 10
-832.85422804924485
 20
29.17136941226212
 30
0.0
 11
-834.75422804924506
 21
29.17136941226212
 31
0.0
  0
LINE
  5
131
  8
1
 62
     7
 10
-831.85422804924485
 20
43.171369412262138
 30
0.0
 11
-831.85422804924485
 21
30.17136941226212
 31
0.0
  0
LINE
  5
132
  8
1
 62
     7
 10
-873.35422804924497
 20
-34.328630587737869
 30
0.0
 11
-873.35422804924497
 21
-25.82863058773788
 31
0.0
  0
LINE
  5
133
  8
1
 62
     7
 10
-913.85422804924485
 20
43.171369412262138
 30
0.0
 11
-912.85422804924497
 21
44.171369412262138
 31
0.0
  0
LINE
  5
134
  8
1
 62
     7
 10
-832.85422804924485
 20
49.171369412262138
 30
0.0
 11
-912.85422804924497
 21
49.171369412262138
 31
0.0
  0
LINE
  5
135
  8
1
 62
     7
 10
-919.85422804924497
 20
20.171369412262109
 30
0.0
 11
-925.85422804924485
 21
20.171369412262109
 31
0.0
  0
LINE
  5
136
  8
1
 62
     7
 10
-925.85422804924485
 20
84.171369412262166
 30
0.0
 11
-925.85422804924485
 21
20.171369412262109
 31
0.0
  0
LINE
  5
137
  8
1
 62
     7
 10
-912.85422804924497
 20
84.171369412262166
 30
0.0
 11
-912.85422804924497
 21
44.171369412262138
 31
0.0
  0
LINE
  5
138
  8
1
 62
     7
 10
-913.85422804924485
 20
48.171369412262138
 30
0.0
 11
-913.85422804924485
 21
43.171369412262138
 31
0.0
  0
LINE
  5
139
  8
1
 62
     7
 10
-927.85422804924497
 20
84.171369412262166
 30
0.0
 11
-927.85422804924497
 21
18.17136941226212
 31
0.0
  0
LINE
  5
13A
  8
1
 62
     7
 10
-831.85422804924485
 20
48.171369412262138
 30
0.0
 11
-831.85422804924485
 21
43.171369412262138
 31
0.0
  0
LINE
  5
13B
  8
1
 62
     7
 10
-831.85422804924485
 20
84.171369412262166
 30
0.0
 11
-831.85422804924485
 21
48.171369412262138
 31
0.0
  0
LINE
  5
13C
  8
1
 62
     7
 10
-913.85422804924485
 20
84.171369412262166
 30
0.0
 11
-913.85422804924485
 21
48.171369412262138
 31
0.0
  0
LINE
  5
13D
  8
1
 62
     7
 10
-888.85422804924485
 20
-11.82863058773788
 30
0.0
 11
-886.85422804924497
 21
-11.82863058773788
 31
0.0
  0
LINE
  5
13E
  8
1
 62
     7
 10
-873.35422804924497
 20
-23.72863058773785
 30
0.0
 11
-890.85422804924485
 21
-23.72863058773785
 31
0.0
  0
LINE
  5
13F
  8
1
 62
     7
 10
-888.85422804924485
 20
5.6713694122621217
 30
0.0
 11
-890.85422804924485
 21
5.6713694122621217
 31
0.0
  0
LINE
  5
140
  8
1
 62
     7
 10
-1052.854228049245
 20
84.171369412262166
 30
0.0
 11
-1052.854228049245
 21
-32.32863058773782
 31
0.0
  0
LINE
  5
141
  8
1
 62
     7
 10
-1052.854228049245
 20
200.67136941226221
 30
0.0
 11
-1050.8542280492441
 21
202.67136941226221
 31
0.0
  0
LINE
  5
142
  8
1
 62
     7
 10
-998.35422804924497
 20
152.94290182828539
 30
0.0
 11
-998.35422804924497
 21
202.67136941226221
 31
0.0
  0
LINE
  5
143
  8
1
 62
     7
 10
-998.35422804924497
 20
202.67136941226221
 30
0.0
 11
-1050.8542280492441
 21
202.67136941226221
 31
0.0
  0
LINE
  5
144
  8
1
 62
     7
 10
-998.35422804924497
 20
191.6713694122621
 30
0.0
 11
-996.85422804924485
 21
191.6713694122621
 31
0.0
  0
LINE
  5
145
  8
1
 62
     7
 10
-996.85422804924485
 20
152.94290182828539
 30
0.0
 11
-996.85422804924485
 21
201.6713694122621
 31
0.0
  0
LINE
  5
146
  8
1
 62
     7
 10
-973.85422804924485
 20
191.6713694122621
 30
0.0
 11
-973.85422804924485
 21
84.171369412262166
 31
0.0
  0
LINE
  5
147
  8
1
 62
     7
 10
-958.85422804924485
 20
139.17136941226221
 30
0.0
 11
-958.85422804924485
 21
84.171369412262166
 31
0.0
  0
LINE
  5
148
  8
1
 62
     7
 10
-957.85422804924485
 20
139.17136941226221
 30
0.0
 11
-958.85422804924485
 21
139.17136941226221
 31
0.0
  0
LINE
  5
149
  8
1
 62
     7
 10
-961.85422804924497
 20
191.6713694122621
 30
0.0
 11
-961.85422804924497
 21
84.171369412262166
 31
0.0
  0
LINE
  5
14A
  8
1
 62
     7
 10
-957.85422804924485
 20
139.17136941226221
 30
0.0
 11
-957.85422804924485
 21
84.171369412262166
 31
0.0
  0
LINE
  5
14B
  8
1
 62
     7
 10
-958.85422804924485
 20
188.6713694122621
 30
0.0
 11
-961.85422804924497
 21
191.6713694122621
 31
0.0
  0
LINE
  5
14C
  8
1
 62
     7
 10
-958.85422804924485
 20
188.6713694122621
 30
0.0
 11
-958.85422804924485
 21
139.17136941226221
 31
0.0
  0
LINE
  5
14D
  8
1
 62
     7
 10
-956.85422804924485
 20
138.17136941226221
 30
0.0
 11
-957.85422804924485
 21
139.17136941226221
 31
0.0
  0
LINE
  5
14E
  8
1
 62
     7
 10
-956.85422804924485
 20
138.17136941226221
 30
0.0
 11
-956.85422804924485
 21
84.171369412262166
 31
0.0
  0
LINE
  5
14F
  8
1
 62
     7
 10
-996.85422804924485
 20
129.86939901149739
 30
0.0
 11
-998.35422804924497
 21
129.86939901149739
 31
0.0
  0
LINE
  5
150
  8
1
 62
     7
 10
-973.85422804924485
 20
129.86939901149739
 30
0.0
 11
-976.45422804924465
 21
129.86939901149739
 31
0.0
  0
LINE
  5
151
  8
1
 62
     7
 10
-976.45422804924465
 20
133.13707660128219
 30
0.0
 11
-996.85422804924485
 21
133.13707660128219
 31
0.0
  0
LINE
  5
152
  8
1
 62
     7
 10
-973.85422804924485
 20
133.8903429450277
 30
0.0
 11
-998.35422804924497
 21
133.8903429450277
 31
0.0
  0
LINE
  5
153
  8
1
 62
     7
 10
-973.85422804924485
 20
152.94290182828539
 30
0.0
 11
-998.35422804924497
 21
152.94290182828539
 31
0.0
  0
LINE
  5
154
  8
1
 62
     7
 10
-996.85422804924485
 20
84.171369412262166
 30
0.0
 11
-996.85422804924485
 21
133.13707660128219
 31
0.0
  0
LINE
  5
155
  8
1
 62
     7
 10
-976.45422804924465
 20
84.171369412262166
 30
0.0
 11
-976.45422804924465
 21
133.13707660128219
 31
0.0
  0
LINE
  5
156
  8
1
 62
     7
 10
-976.45422804924465
 20
201.6713694122621
 30
0.0
 11
-976.45422804924465
 21
152.94290182828539
 31
0.0
  0
LINE
  5
157
  8
1
 62
     7
 10
-961.85422804924497
 20
191.6713694122621
 30
0.0
 11
-976.45422804924465
 21
191.6713694122621
 31
0.0
  0
LINE
  5
158
  8
1
 62
     7
 10
-996.85422804924485
 20
201.6713694122621
 30
0.0
 11
-976.45422804924465
 21
201.6713694122621
 31
0.0
  0
LINE
  5
159
  8
1
 62
     7
 10
-973.85422804924485
 20
202.67136941226221
 30
0.0
 11
-998.35422804924497
 21
202.67136941226221
 31
0.0
  0
LINE
  5
15A
  8
1
 62
     7
 10
-996.85422804924485
 20
193.61998749399041
 30
0.0
 11
-998.35422804924497
 21
193.61998749399041
 31
0.0
  0
LINE
  5
15B
  8
1
 62
     7
 10
-973.85422804924485
 20
193.61998749399041
 30
0.0
 11
-976.45422804924465
 21
193.61998749399041
 31
0.0
  0
LINE
  5
15C
  8
1
 62
     7
 10
-973.85422804924485
 20
202.67136941226221
 30
0.0
 11
-973.85422804924485
 21
193.61998749399041
 31
0.0
  0
LINE
  5
15D
  8
1
 62
     3
 10
-996.85422804924485
 20
201.6713694122621
 30
0.0
 11
-976.45422804924465
 21
152.94290182828539
 31
0.0
  0
LINE
  5
15E
  8
1
 62
     3
 10
-996.85422804924485
 20
152.94290182828539
 30
0.0
 11
-976.45422804924465
 21
201.6713694122621
 31
0.0
  0
LINE
  5
15F
  8
1
 62
     7
 10
-998.35422804924497
 20
84.171369412262166
 30
0.0
 11
-998.35422804924497
 21
133.8903429450277
 31
0.0
  0
LINE
  5
160
  8
1
 62
     7
 10
-1050.8542280492441
 20
84.171369412262166
 30
0.0
 11
-1050.8542280492441
 21
202.67136941226221
 31
0.0
  0
LINE
  5
161
  8
1
 62
     7
 10
-1052.854228049245
 20
200.67136941226221
 30
0.0
 11
-1052.854228049245
 21
84.171369412262166
 31
0.0
  0
LINE
  5
162
  8
1
 62
     7
 10
-698.0
 20
193.1713694122621
 30
0.0
 11
-676.0
 21
193.1713694122621
 31
0.0
  0
LINE
  5
163
  8
1
 62
     7
 10
-676.0
 20
193.1713694122621
 30
0.0
 11
-676.0
 21
202.15971629448609
 31
0.0
  0
LINE
  5
164
  8
1
 62
     7
 10
-698.0
 20
202.15971629448609
 30
0.0
 11
-698.0
 21
193.1713694122621
 31
0.0
  0
LINE
  5
165
  8
1
 62
     7
 10
-786.8967690125038
 20
129.14508997063351
 30
0.0
 11
-775.8967690125038
 21
148.197648853891
 31
0.0
  0
LINE
  5
166
  8
1
 62
     7
 10
-775.8967690125038
 20
148.197648853891
 30
0.0
 11
-783.68090575053623
 21
152.69182229500299
 31
0.0
  0
LINE
  5
167
  8
1
 62
     7
 10
-794.68090575053623
 20
133.6392634117455
 30
0.0
 11
-786.8967690125038
 21
129.14508997063351
 31
0.0
  0
LINE
  5
168
  8
1
 62
     7
 10
-775.89676901250402
 20
20.145089970633531
 30
0.0
 11
-786.8967690125038
 21
39.197648853891224
 31
0.0
  0
LINE
  5
169
  8
1
 62
     7
 10
-786.8967690125038
 20
39.197648853891224
 30
0.0
 11
-794.68090575053645
 21
34.703475412779198
 31
0.0
  0
LINE
  5
16A
  8
1
 62
     7
 10
-783.68090575053645
 20
15.65091652952162
 30
0.0
 11
-775.89676901250402
 21
20.145089970633531
 31
0.0
  0
LINE
  5
16B
  8
1
 62
     7
 10
-676.00000000000023
 20
-24.828630587737852
 30
0.0
 11
-698.00000000000034
 21
-24.828630587737731
 31
0.0
  0
LINE
  5
16C
  8
1
 62
     7
 10
-698.00000000000034
 20
-24.828630587737731
 30
0.0
 11
-698.00000000000034
 21
-33.816977469961671
 31
0.0
  0
LINE
  5
16D
  8
1
 62
     7
 10
-676.00000000000023
 20
-33.81697746996155
 30
0.0
 11
-676.00000000000023
 21
-24.828630587737852
 31
0.0
  0
LINE
  5
16E
  8
1
 62
     7
 10
-587.10323098749632
 20
39.197648853890762
 30
0.0
 11
-598.1032309874962
 21
20.1450899706333
 31
0.0
  0
LINE
  5
16F
  8
1
 62
     7
 10
-598.1032309874962
 20
20.1450899706333
 30
0.0
 11
-590.31909424946377
 21
15.65091652952127
 31
0.0
  0
LINE
  5
170
  8
1
 62
     7
 10
-579.31909424946377
 20
34.703475412778971
 30
0.0
 11
-587.10323098749632
 21
39.197648853890762
 31
0.0
  0
LINE
  5
171
  8
1
 62
     7
 10
-598.10323098749609
 20
148.19764885389091
 30
0.0
 11
-587.10323098749632
 21
129.14508997063311
 31
0.0
  0
LINE
  5
172
  8
1
 62
     7
 10
-587.10323098749632
 20
129.14508997063311
 30
0.0
 11
-579.31909424946366
 21
133.63926341174519
 31
0.0
  0
LINE
  5
173
  8
1
 62
     7
 10
-590.31909424946377
 20
152.69182229500271
 30
0.0
 11
-598.10323098749609
 21
148.19764885389091
 31
0.0
  0
LINE
  5
174
  8
1
  6
DASHDOT
 62
     3
 10
-598.23239611209488
 20
135.42136941226221
 30
0.0
 11
-582.64393884397509
 21
144.4213694122621
 31
0.0
  0
LINE
  5
175
  8
1
  6
DASHDOT
 62
     3
 10
-791.35606115602491
 20
144.4213694122621
 30
0.0
 11
-775.76760388790501
 21
135.42136941226221
 31
0.0
  0
LINE
  5
176
  8
1
  6
DASHDOT
 62
     3
 10
-582.64393884397509
 20
23.921369412262209
 30
0.0
 11
-598.23239611209488
 21
32.921369412262209
 31
0.0
  0
LINE
  5
177
  8
1
  6
DASHDOT
 62
     3
 10
-775.76760388790501
 20
32.921369412262209
 30
0.0
 11
-791.35606115602491
 21
23.921369412262209
 31
0.0
  0
LINE
  5
178
  8
1
 62
     7
 10
-697.0
 20
124.17136941226219
 30
0.0
 11
-697.0
 21
117.712389074759
 31
0.0
  0
LINE
  5
179
  8
1
 62
     7
 10
-697.0
 20
124.17136941226219
 30
0.0
 11
-677.0
 21
124.17136941226219
 31
0.0
  0
LINE
  5
17A
  8
1
 62
     7
 10
-677.0
 20
124.17136941226219
 30
0.0
 11
-677.0
 21
117.712389074759
 31
0.0
  0
LINE
  5
17B
  8
1
 62
     7
 10
-688.89999999999975
 20
240.81171153033429
 30
0.0
 11
-688.89999999999975
 21
245.81171153033429
 31
0.0
  0
LINE
  5
17C
  8
1
 62
     7
 10
-688.70000000000005
 20
240.81171153033429
 30
0.0
 11
-688.70000000000005
 21
245.81171153033429
 31
0.0
  0
LINE
  5
17D
  8
1
 62
     7
 10
-688.49999999999989
 20
240.81171153033429
 30
0.0
 11
-688.49999999999989
 21
245.81171153033429
 31
0.0
  0
LINE
  5
17E
  8
1
 62
     7
 10
-688.29999999999995
 20
240.81171153033429
 30
0.0
 11
-688.29999999999995
 21
245.81171153033429
 31
0.0
  0
LINE
  5
17F
  8
1
 62
     7
 10
-688.0999999999998
 20
240.81171153033429
 30
0.0
 11
-688.0999999999998
 21
245.81171153033429
 31
0.0
  0
LINE
  5
180
  8
1
 62
     7
 10
-685.89999999999986
 20
240.81171153033429
 30
0.0
 11
-685.89999999999986
 21
245.81171153033429
 31
0.0
  0
LINE
  5
181
  8
1
 62
     7
 10
-685.70000000000005
 20
240.81171153033429
 30
0.0
 11
-685.70000000000005
 21
245.81171153033429
 31
0.0
  0
LINE
  5
182
  8
1
 62
     7
 10
-685.5
 20
240.81171153033429
 30
0.0
 11
-685.5
 21
245.81171153033429
 31
0.0
  0
LINE
  5
183
  8
1
 62
     7
 10
-685.29999999999995
 20
240.81171153033429
 30
0.0
 11
-685.29999999999995
 21
245.81171153033429
 31
0.0
  0
LINE
  5
184
  8
1
 62
     7
 10
-685.0999999999998
 20
240.81171153033429
 30
0.0
 11
-685.0999999999998
 21
245.81171153033429
 31
0.0
  0
LINE
  5
185
  8
1
 62
     7
 10
-687.0
 20
240.81171153033429
 30
0.0
 11
-684.0
 21
240.81171153033429
 31
0.0
  0
LINE
  5
186
  8
1
 62
     7
 10
-687.0
 20
220.94324822133521
 30
0.0
 11
-687.0
 21
202.67136941226221
 31
0.0
  0
LINE
  5
187
  8
1
 62
     7
 10
-687.0
 20
240.81171153033429
 30
0.0
 11
-687.0
 21
224.6660213181481
 31
0.0
  0
LINE
  5
188
  8
1
 62
     7
 10
-690.0
 20
240.81171153033429
 30
0.0
 11
-690.0
 21
224.6660213181481
 31
0.0
  0
LINE
  5
189
  8
1
 62
     7
 10
-690.0
 20
202.63338864205579
 30
0.0
 11
-690.0
 21
220.94324822133521
 31
0.0
  0
LINE
  5
18A
  8
1
 62
     7
 10
-684.0
 20
220.94324822133521
 30
0.0
 11
-684.0
 21
202.63338864205579
 31
0.0
  0
LINE
  5
18B
  8
1
 62
     7
 10
-684.0
 20
240.81171153033429
 30
0.0
 11
-684.0
 21
224.6660213181481
 31
0.0
  0
LINE
  5
18C
  8
1
 62
     7
 10
-690.0
 20
240.81171153033429
 30
0.0
 11
-687.0
 21
240.81171153033429
 31
0.0
  0
LINE
  5
18D
  8
1
 62
     3
 10
-996.85422804924485
 20
133.13707660128219
 30
0.0
 11
-976.45422804924465
 21
35.205662223242207
 31
0.0
  0
LINE
  5
18E
  8
1
 62
     3
 10
-996.85422804924485
 20
35.205662223242207
 30
0.0
 11
-976.45422804924465
 21
133.13707660128219
 31
0.0
  0
LINE
  5
18F
  8
1
 62
     7
 10
-927.85422804924497
 20
183.97136941226219
 30
0.0
 11
-906.25422804924472
 21
183.97136941226219
 31
0.0
  0
LINE
  5
190
  8
1
 62
     7
 10
-906.25422804924472
 20
183.97136941226219
 30
0.0
 11
-906.25422804924472
 21
174.3713694122622
 31
0.0
  0
LINE
  5
191
  8
1
 62
     7
 10
-906.25422804924472
 20
174.3713694122622
 30
0.0
 11
-927.85422804924497
 21
174.3713694122622
 31
0.0
  0
LINE
  5
192
  8
1
 62
     7
 10
-906.25422804924472
 20
183.97136941226219
 30
0.0
 11
-902.79012643410726
 21
179.1713694122621
 31
0.0
  0
LINE
  5
193
  8
1
 62
     7
 10
-902.79012643410726
 20
179.1713694122621
 30
0.0
 11
-906.25422804924472
 21
174.3713694122622
 31
0.0
  0
LINE
  5
194
  8
1
 62
     3
 10
-927.85422804924497
 20
185.1713694122621
 30
0.0
 11
-915.85422804924485
 21
185.1713694122621
 31
0.0
  0
LINE
  5
195
  8
1
 62
     3
 10
-915.85422804924485
 20
185.1713694122621
 30
0.0
 11
-915.85422804924485
 21
173.1713694122621
 31
0.0
  0
LINE
  5
196
  8
1
 62
     3
 10
-915.85422804924485
 20
173.1713694122621
 30
0.0
 11
-927.85422804924497
 21
173.1713694122621
 31
0.0
  0
LINE
  5
197
  8
1
 62
     3
 10
-915.85422804924485
 20
185.1713694122621
 30
0.0
 11
-913.77576708016238
 21
183.97136941226219
 31
0.0
  0
LINE
  5
198
  8
1
 62
     3
 10
-915.85422804924485
 20
173.1713694122621
 30
0.0
 11
-913.77576708016238
 21
174.3713694122622
 31
0.0
  0
LINE
  5
199
  8
1
  6
DASHDOT
 62
     3
 10
-929.85422804924497
 20
179.1713694122621
 30
0.0
 11
-900.79012643410715
 21
179.1713694122621
 31
0.0
  0
LINE
  5
19A
  8
1
 62
     7
 10
-906.25422804924472
 20
-15.628630587737851
 30
0.0
 11
-927.85422804924497
 21
-15.628630587737829
 31
0.0
  0
LINE
  5
19B
  8
1
 62
     7
 10
-906.25422804924472
 20
-6.0286305877378368
 30
0.0
 11
-906.25422804924472
 21
-15.628630587737851
 31
0.0
  0
LINE
  5
19C
  8
1
 62
     7
 10
-927.85422804924497
 20
-6.0286305877378368
 30
0.0
 11
-906.25422804924472
 21
-6.0286305877378368
 31
0.0
  0
LINE
  5
19D
  8
1
 62
     7
 10
-902.79012643410726
 20
-10.828630587737839
 30
0.0
 11
-906.25422804924472
 21
-15.628630587737851
 31
0.0
  0
LINE
  5
19E
  8
1
 62
     7
 10
-906.25422804924472
 20
-6.0286305877378368
 30
0.0
 11
-902.79012643410726
 21
-10.828630587737839
 31
0.0
  0
LINE
  5
19F
  8
1
 62
     3
 10
-915.85422804924485
 20
-16.828630587737841
 30
0.0
 11
-927.85422804924497
 21
-16.828630587737841
 31
0.0
  0
LINE
  5
1A0
  8
1
 62
     3
 10
-915.85422804924485
 20
-4.8286305877378473
 30
0.0
 11
-915.85422804924485
 21
-16.828630587737841
 31
0.0
  0
LINE
  5
1A1
  8
1
 62
     3
 10
-927.85422804924497
 20
-4.8286305877378473
 30
0.0
 11
-915.85422804924485
 21
-4.8286305877378473
 31
0.0
  0
LINE
  5
1A2
  8
1
 62
     3
 10
-913.77576708016238
 20
-15.628630587737851
 30
0.0
 11
-915.85422804924485
 21
-16.828630587737841
 31
0.0
  0
LINE
  5
1A3
  8
1
 62
     3
 10
-913.77576708016238
 20
-6.0286305877378368
 30
0.0
 11
-915.85422804924485
 21
-4.8286305877378473
 31
0.0
  0
LINE
  5
1A4
  8
1
  6
DASHDOT
 62
     3
 10
-900.79012643410715
 20
-10.828630587737839
 30
0.0
 11
-929.85422804924497
 21
-10.828630587737839
 31
0.0
  0
ARC
  5
1A5
  8
1
 62
     7
 10
-906.10422804924485
 20
223.70648330504011
 30
0.0
 40
0.8125
 50
202.6198649480404
 51
337.38013505195948
  0
ARC
  5
1A6
  8
1
 62
     7
 10
-907.60422804924485
 20
223.08148330504011
 30
0.0
 40
0.8125
 50
22.61986494804043
 51
157.3801350519596
  0
ARC
  5
1A7
  8
1
 62
     7
 10
-907.60422804924485
 20
223.70648330504011
 30
0.0
 40
0.8125
 50
202.6198649480404
 51
337.38013505195948
  0
ARC
  5
1A8
  8
1
 62
     7
 10
-906.10422804924485
 20
221.2557482213353
 30
0.0
 40
0.8125
 50
202.6198649480404
 51
337.38013505195948
  0
ARC
  5
1A9
  8
1
 62
     7
 10
-906.10422804924485
 20
220.6307482213353
 30
0.0
 40
0.8125
 50
22.61986494804043
 51
157.3801350519596
  0
ARC
  5
1AA
  8
1
 62
     7
 10
-907.60422804924485
 20
220.6307482213353
 30
0.0
 40
0.8125
 50
22.61986494804043
 51
157.3801350519596
  0
ARC
  5
1AB
  8
1
 62
     7
 10
-1202.521349412275
 20
224.04102131814821
 30
0.0
 40
1.625
 50
22.61986494804043
 51
157.3801350519596
  0
ARC
  5
1AC
  8
1
 62
     7
 10
-1199.521349412274
 20
225.2910213181481
 30
0.0
 40
1.625
 50
202.6198649480404
 51
337.38013505195948
  0
ARC
  5
1AD
  8
1
 62
     7
 10
-1202.521349412275
 20
225.2910213181481
 30
0.0
 40
1.625
 50
202.6198649480404
 51
337.38013505195948
  0
ARC
  5
1AE
  8
1
 62
     7
 10
-1199.521349412274
 20
221.56824822133521
 30
0.0
 40
1.625
 50
202.6198649480404
 51
337.38013505195948
  0
ARC
  5
1AF
  8
1
 62
     7
 10
-1199.521349412274
 20
220.3182482213353
 30
0.0
 40
1.625
 50
22.61986494804043
 51
157.3801350519596
  0
ARC
  5
1B0
  8
1
 62
     7
 10
-1202.521349412275
 20
220.3182482213353
 30
0.0
 40
1.625
 50
22.61986494804043
 51
157.3801350519596
  0
ARC
  5
1B1
  8
1
 62
     7
 10
-1201.021349412275
 20
84.171369412262166
 30
0.0
 40
34.999999999999993
 50
106.6015495990203
 51
73.398450400979755
  0
ARC
  5
1B2
  8
1
 62
     7
 10
-1031.104228049245
 20
223.70648330504011
 30
0.0
 40
0.8125
 50
202.6198649480404
 51
337.38013505195948
  0
ARC
  5
1B3
  8
1
 62
     7
 10
-1032.604228049245
 20
223.08148330504011
 30
0.0
 40
0.8125
 50
22.61986494804043
 51
157.3801350519596
  0
ARC
  5
1B4
  8
1
 62
     7
 10
-1032.604228049245
 20
223.70648330504011
 30
0.0
 40
0.8125
 50
202.6198649480404
 51
337.38013505195948
  0
ARC
  5
1B5
  8
1
 62
     7
 10
-1031.104228049245
 20
221.2557482213353
 30
0.0
 40
0.8125
 50
202.6198649480404
 51
337.38013505195948
  0
ARC
  5
1B6
  8
1
 62
     7
 10
-1031.104228049245
 20
220.6307482213353
 30
0.0
 40
0.8125
 50
22.61986494804043
 51
157.3801350519596
  0
ARC
  5
1B7
  8
1
 62
     7
 10
-1032.604228049245
 20
220.6307482213353
 30
0.0
 40
0.8125
 50
22.61986494804043
 51
157.3801350519596
  0
ARC
  5
1B8
  8
1
 62
     7
 10
-687.0
 20
84.171369412262166
 30
0.0
 40
110.0
 50
84.260829522733218
 51
95.739170477266768
  0
ARC
  5
1B9
  8
1
 62
     7
 10
-687.0
 20
84.171369412262166
 30
0.0
 40
110.0
 50
144.26082952273319
 51
155.7391704772667
  0
ARC
  5
1BA
  8
1
 62
     7
 10
-687.0
 20
84.171369412262166
 30
0.0
 40
110.0
 50
204.2608295227331
 51
215.73917047726661
  0
ARC
  5
1BB
  8
1
 62
     7
 10
-687.0
 20
84.171369412262166
 30
0.0
 40
109.9999999999997
 50
264.2608295227331
 51
275.7391704772665
  0
ARC
  5
1BC
  8
1
 62
     7
 10
-687.0
 20
84.171369412262166
 30
0.0
 40
109.9999999999997
 50
324.2608295227331
 51
335.73917047726661
  0
ARC
  5
1BD
  8
1
 62
     7
 10
-687.0
 20
84.171369412262166
 30
0.0
 40
109.9999999999997
 50
24.260829522733118
 51
35.739170477266711
  0
ARC
  5
1BE
  8
1
 62
     7
 10
-687.0
 20
84.171369412262166
 30
0.0
 40
34.999999999999993
 50
106.6015495990203
 51
73.398450400979755
  0
ARC
  5
1BF
  8
1
 62
     7
 10
-688.49999999999989
 20
224.04102131814821
 30
0.0
 40
1.625
 50
22.61986494804043
 51
157.3801350519596
  0
ARC
  5
1C0
  8
1
 62
     7
 10
-685.5
 20
225.2910213181481
 30
0.0
 40
1.625
 50
202.6198649480404
 51
337.38013505195948
  0
ARC
  5
1C1
  8
1
 62
     7
 10
-688.49999999999989
 20
225.2910213181481
 30
0.0
 40
1.625
 50
202.6198649480404
 51
337.38013505195948
  0
ARC
  5
1C2
  8
1
 62
     7
 10
-685.5
 20
221.56824822133521
 30
0.0
 40
1.625
 50
202.6198649480404
 51
337.38013505195948
  0
ARC
  5
1C3
  8
1
 62
     7
 10
-685.5
 20
220.3182482213353
 30
0.0
 40
1.625
 50
22.61986494804043
 51
157.3801350519596
  0
ARC
  5
1C4
  8
1
 62
     7
 10
-688.49999999999989
 20
220.3182482213353
 30
0.0
 40
1.625
 50
22.61986494804043
 51
157.3801350519596
  0
ARC
  5
1C5
  8
1
 62
     7
 10
-687.0
 20
84.171369412262166
 30
0.0
 40
117.5
 50
35.371726214800589
 51
84.628273785199355
  0
ARC
  5
1C6
  8
1
 62
     7
 10
-687.0
 20
84.171369412262166
 30
0.0
 40
117.5
 50
155.37172621480059
 51
180.0
  0
ARC
  5
1C7
  8
1
 62
     7
 10
-687.0
 20
84.171369412262166
 30
0.0
 40
117.5
 50
95.371726214800645
 51
144.6282737851991
  0
ARC
  5
1C8
  8
1
 62
     7
 10
-687.0
 20
84.171369412262166
 30
0.0
 40
117.5
 50
180.0
 51
204.62827378519921
  0
ARC
  5
1C9
  8
1
 62
     7
 10
-687.0
 20
84.171369412262166
 30
0.0
 40
117.5
 50
215.3717262148005
 51
264.62827378519933
  0
ARC
  5
1CA
  8
1
 62
     7
 10
-687.0
 20
84.171369412262166
 30
0.0
 40
117.5
 50
275.37172621480062
 51
324.62827378519921
  0
ARC
  5
1CB
  8
1
 62
     7
 10
-687.0
 20
84.171369412262166
 30
0.0
 40
117.5
 50
335.37172621480062
 51
24.628273785199291
  0
CIRCLE
  5
1CC
  8
1
 62
     3
 10
-1118.748936052752
 20
131.67136941226201
 30
0.0
 40
6.0000000000000488
  0
CIRCLE
  5
1CD
  8
1
 62
     3
 10
-1118.7489360527541
 20
36.671369412262102
 30
0.0
 40
5.9999999999999929
  0
CIRCLE
  5
1CE
  8
1
 62
     3
 10
-1201.021349412275
 20
-10.82863058773783
 30
0.0
 40
6.0
  0
CIRCLE
  5
1CF
  8
1
 62
     3
 10
-1283.293762771797
 20
36.67136941226218
 30
0.0
 40
6.0
  0
CIRCLE
  5
1D0
  8
1
 62
     3
 10
-1283.293762771797
 20
131.67136941226221
 30
0.0
 40
6.0000000000000622
  0
CIRCLE
  5
1D1
  8
1
 62
     7
 10
-1118.748936052752
 20
131.67136941226201
 30
0.0
 40
5.0000000000000897
  0
CIRCLE
  5
1D2
  8
1
 62
     7
 10
-1118.7489360527541
 20
36.671369412262102
 30
0.0
 40
4.9999999999999982
  0
CIRCLE
  5
1D3
  8
1
 62
     7
 10
-1201.021349412275
 20
-10.82863058773783
 30
0.0
 40
5.0
  0
CIRCLE
  5
1D4
  8
1
 62
     7
 10
-1283.293762771797
 20
36.67136941226218
 30
0.0
 40
5.0000000000000044
  0
CIRCLE
  5
1D5
  8
1
 62
     7
 10
-1283.293762771797
 20
131.67136941226221
 30
0.0
 40
5.000000000000103
  0
CIRCLE
  5
1D6
  8
1
 62
     7
 10
-1201.021349412275
 20
179.1713694122621
 30
0.0
 40
5.0
  0
CIRCLE
  5
1D7
  8
1
 62
     3
 10
-1201.021349412275
 20
179.1713694122621
 30
0.0
 40
6.0
  0
CIRCLE
  5
1D8
  8
1
 62
     7
 10
-1201.021349412275
 20
84.171369412262166
 30
0.0
 40
118.5
  0
CIRCLE
  5
1D9
  8
1
  6
DASHDOT
 62
     3
 10
-1201.021349412275
 20
84.171369412262166
 30
0.0
 40
95.000000000000057
  0
CIRCLE
  5
1DA
  8
1
 62
     7
 10
-1201.021349412275
 20
84.171369412262166
 30
0.0
 40
64.000000000000043
  0
CIRCLE
  5
1DB
  8
1
 62
     7
 10
-1201.021349412275
 20
84.171369412262166
 30
0.0
 40
116.5
  0
CIRCLE
  5
1DC
  8
1
 62
     7
 10
-1201.021349412275
 20
84.171369412262166
 30
0.0
 40
66.0
  0
CIRCLE
  5
1DD
  8
1
 62
     7
 10
-1201.021349412275
 20
84.171369412262166
 30
0.0
 40
45.0
  0
CIRCLE
  5
1DE
  8
1
 62
     7
 10
-687.0
 20
84.171369412262166
 30
0.0
 40
118.5
  0
CIRCLE
  5
1DF
  8
1
 62
     7
 10
-687.0
 20
84.171369412262166
 30
0.0
 40
107.4999999999999
  0
CIRCLE
  5
1E0
  8
1
 62
     7
 10
-687.0
 20
84.171369412262166
 30
0.0
 40
104.4999999999999
  0
CIRCLE
  5
1E1
  8
1
 62
     7
 10
-687.0
 20
84.171369412262166
 30
0.0
 40
55.0
  0
CIRCLE
  5
1E2
  8
1
 62
     7
 10
-687.0
 20
84.171369412262166
 30
0.0
 40
54.0
  0
CIRCLE
  5
1E3
  8
1
 62
     7
 10
-687.0
 20
84.171369412262166
 30
0.0
 40
67.0
  0
TEXT
  5
1E5
  8
1
 62
     7
 10
-1311.9481874087001
 20
243.2084036052529
 30
0.0
 40
10.0
  1
MDB 80
 41
0.9
  7
SIMPLEX
 72
     1
 11
-1286.4481874087001
 21
243.2084036052529
 31
0.0
  0
ENDSEC
  0
EOF
