  0
SECTION
  2
HEADER
  9
$ACADVER
  1
AC1009
  9
$INSBASE
 10
0
 20
0
  9
$EXTMIN
 10
-1319.521349412275
 20
-34.32863058773788
  9
$EXTMAX
 10
-568.5
 20
253.208403605253
  9
$LIMMIN
 10
-1319.521349412275
 20
-34.32863058773788
  9
$LIMMAX
 10
-568.5
 20
253.208403605253
  9
$VIEWCTR
 10
10
 20
10
  9
$VIEWSIZE
 40
10
  9
$SNAPMODE
 70
0
  9
$SNAPUNIT
 10
1
 20
1
  9
$SNAPBASE
 10
0
 20
0
  9
$SNAPANG
 50
0
  9
$SNAPSTYLE
 70
0
  9
$SNAPISOPAIR
 70
0
  9
$GRIDMODE
 70
0
  9
$GRIDUNIT
 10
0
 20
0
  9
$ORTHOMODE
 70
0
  9
$REGENMODE
 70
1
  9
$FILLMODE
 70
1
  9
$QTEXTMODE
 70
0
  9
$DRAGMODE
 70
2
  9
$LTSCALE
 40
1
  9
$OSMODE
 70
0
  9
$ATTMODE
 70
1
  9
$TEXTSIZE
 40
3.5
  9
$TRACEWID
 40
0.5
  9
$TEXTSTYLE
  7
STANDARD
  9
$CLAYER
  8
0
  9
$CELTYPE
  6
BYLAYER
  9
$CECOLOR
 62
256
  9
$DIMSCALE
 40
1
  9
$DIMASZ
 40
0.18
  9
$DIMEXO
 40
0.0625
  9
$DIMDLI
 40
0.38
  9
$DIMRND
 40
0
  9
$DIMDLE
 40
0
  9
$DIMEXE
 40
0.18
  9
$DIMTP
 40
0
  9
$DIMTM
 40
0
  9
$DIMTXT
 40
0.18
  9
$DIMCEN
 40
0.09
  9
$DIMTSZ
 40
0
  9
$DIMTOL
 70
0
  9
$DIMLIM
 70
0
  9
$DIMTIH
 70
1
  9
$DIMTOH
 70
1
  9
$DIMSE1
 70
0
  9
$DIMSE2
 70
0
  9
$DIMTAD
 70
0
  9
$DIMZIN
 70
0
  9
$DIMBLK
  1

  9
$DIMASO
 70
1
  9
$DIMSHO
 70
1
  9
$DIMPOST
  1

  9
$DIMAPOST
  1

  9
$DIMALT
 70
0
  9
$DIMALTD
 70
2
  9
$DIMALTF
 40
25.4
  9
$DIMLFAC
 40
1
  9
$DIMTOFL
 70
0
  9
$DIMTVP
 40
0
  9
$DIMTIX
 70
0
  9
$DIMSOXD
 70
0
  9
$DIMSAH
 70
0
  9
$DIMBLK1
  1

  9
$DIMBLK2
  1

  9
$DIMSTYLE
  2
*UNNAMED
  9
$DIMCLRD
 70
0
  9
$DIMCLRE
 70
0
  9
$DIMCLRT
 70
0
  9
$DIMTFAC
 40
1
  9
$DIMGAP
 40
0.09
  9
$LUNITS
 70
2
  9
$LUPREC
 70
4
  9
$AXISMODE
 70
0
  9
$AXISUNIT
 10
0
 20
0
  9
$SKETCHINC
 40
0.1
  9
$FILLETRAD
 40
2
  9
$AUNITS
 70
0
  9
$AUPREC
 70
0
  9
$MENU
  1
ACAD
  9
$ELEVATION
 40
0
  9
$THICKNESS
 40
0
  9
$VIEWDIR
 10
0
 20
0
 30
1
  9
$LIMCHECK
 70
0
  9
$BLIPMODE
 70
1
  9
$CHAMFERA
 40
0
  9
$CHAMFERB
 40
0
  9
$FASTZOOM
 70
1
  9
$SKPOLY
 70
0
  9
$ANGBASE
 50
0
  9
$ANGDIR
 70
0
  9
$PDMODE
 70
0
  9
$PDSIZE
 40
0
  9
$PLINEWID
 40
0
  9
$COORDS
 70
2
  0
ENDSEC
  0
SECTION
  2
TABLES
  0
TABLE
  2
DIMSTYLE
 70
0
  0
ENDTAB
  0
TABLE
  2
LTYPE
 70
9
  0
LTYPE
  2
CONTINUOUS
 70
64
  3
Solid line
 72
65
 73
0
 40
0
  0
LTYPE
  2
BORDER
 70
64
  3
__ __ . __ __ .
 72
65
 73
6
 40
34.5865095124074
 49
9.881859860687829
 49
-4.940929930343915
 49
9.881859860687829
 49
-4.940929930343915
 49
0
 49
-4.940929930343915
  0
LTYPE
  2
CENTER
 70
64
  3
____ _ ____ _
 72
65
 73
4
 40
39.52743944275132
 49
24.70464965171957
 49
-4.940929930343915
 49
4.940929930343915
 49
-4.940929930343915
  0
LTYPE
  2
DASHDOT
 70
64
  3
__ . __ . __ .
 72
65
 73
4
 40
19.76371972137566
 49
9.881859860687829
 49
-4.940929930343915
 49
0
 49
-4.940929930343915
  0
LTYPE
  2
DASHED
 70
64
  3
__ __ __ __ __
 72
65
 73
2
 40
14.82278979103174
 49
9.881859860687829
 49
-4.940929930343915
  0
LTYPE
  2
DIVIDE
 70
64
  3
__ . . __ . . 
 72
65
 73
6
 40
24.70464965171957
 49
9.881859860687829
 49
-4.940929930343915
 49
0
 49
-4.940929930343915
 49
0
 49
-4.940929930343915
  0
LTYPE
  2
DOT
 70
64
  3
..............
 72
65
 73
4
 40
9.881859860687829
 49
0
 49
-4.940929930343915
 49
0
 49
-4.940929930343915
  0
LTYPE
  2
HIDDEN
 70
64
  3
_ _ _ _ _ _ _
 72
65
 73
2
 40
7.411394895515872
 49
4.940929930343915
 49
-2.470464965171957
  0
LTYPE
  2
PHANTOM
 70
64
  3
_____ _ _ _____ _ _ 
 72
65
 73
6
 40
49.40929930343914
 49
24.70464965171957
 49
-4.940929930343915
 49
4.940929930343915
 49
-4.940929930343915
 49
4.940929930343915
 49
-4.940929930343915
  0
ENDTAB
  0
TABLE
  2
LAYER
 70
3
  0
LAYER
  2
1
 70
0
 62
7
  6
CONTINUOUS
  0
LAYER
  2
0
 70
0
 62
7
  6
CONTINUOUS
  0
ENDTAB
  0
TABLE
  2
STYLE
 70
4
  0
STYLE
  2
STANDARD
 70
0
 40
0
 41
1
 50
0
 71
0
 42
3.5
  3
txt
  4

  0
STYLE
  2
SIMPLEX
 70
0
 40
0
 41
1
 50
0
 71
0
 42
3.5
  3
simplex
  4

  0
STYLE
  2
COMPLEX
 70
0
 40
0
 41
1
 50
0
 71
0
 42
3.5
  3
complex
  4

  0
STYLE
  2
ITALIC
 70
0
 40
0
 41
1
 50
0
 71
0
 42
3.5
  3
italic
  4

  0
ENDTAB
  0
TABLE
  2
VIEW
 70
0
  0
ENDTAB
  0
ENDSEC
  0
SECTION
  2
BLOCKS
  0
ENDSEC
  0
SECTION
  2
ENTITIES
  0
LINE
  8
1
 62
3
  6
DASHDOT
 10
-1201.021349412275
 20
54.17136941226217
 30
0
 11
-1201.021349412275
 21
114.1713694122622
 31
0
  0
LINE
  8
1
 62
3
  6
DASHDOT
 10
-1231.021349412275
 20
84.17136941226218
 30
0
 11
-1171.021349412275
 21
84.17136941226218
 31
0
  0
LINE
  8
1
 62
3
  6
DASHDOT
 10
-956.854228049245
 20
84.17136941226217
 30
0
 11
-951.0942625127409
 21
84.17136941226217
 31
0
  0
LINE
  8
1
 62
3
  6
DASHDOT
 10
-831.854228049245
 20
84.17136941226217
 30
0
 11
-826.094262512741
 21
84.17136941226217
 31
0
  0
LINE
  8
1
 62
3
  6
DASHDOT
 10
-717
 20
84.17136941226217
 30
0
 11
-657
 21
84.17136941226217
 31
0
  0
LINE
  8
1
 62
3
  6
DASHDOT
 10
-687
 20
114.1713694122622
 30
0
 11
-687
 21
54.17136941226217
 31
0
  0
LINE
  8
1
 62
7
 10
-907.2542280492451
 20
240.8117115303343
 30
0
 11
-907.2542280492451
 21
245.8117115303343
 31
0
  0
LINE
  8
1
 62
7
 10
-907.054228049245
 20
240.8117115303343
 30
0
 11
-907.054228049245
 21
245.8117115303343
 31
0
  0
LINE
  8
1
 62
7
 10
-906.854228049245
 20
240.8117115303343
 30
0
 11
-906.854228049245
 21
245.8117115303343
 31
0
  0
LINE
  8
1
 62
7
 10
-906.6542280492449
 20
240.8117115303343
 30
0
 11
-906.6542280492449
 21
245.8117115303343
 31
0
  0
LINE
  8
1
 62
7
 10
-906.4542280492451
 20
240.8117115303343
 30
0
 11
-906.4542280492451
 21
245.8117115303343
 31
0
  0
LINE
  8
1
 62
7
 10
-908.354228049245
 20
240.8117115303343
 30
0
 11
-905.354228049245
 21
240.8117115303343
 31
0
  0
LINE
  8
1
 62
7
 10
-908.354228049245
 20
220.9432482213353
 30
0
 11
-908.354228049245
 21
202.6713694122622
 31
0
  0
LINE
  8
1
 62
7
 10
-908.354228049245
 20
240.8117115303343
 30
0
 11
-908.354228049245
 21
223.3939833050402
 31
0
  0
LINE
  8
1
 62
7
 10
-905.354228049245
 20
220.9432482213353
 30
0
 11
-905.354228049245
 21
202.6333886420559
 31
0
  0
LINE
  8
1
 62
7
 10
-905.354228049245
 20
240.8117115303343
 30
0
 11
-905.354228049245
 21
223.3939833050402
 31
0
  0
LINE
  8
1
 62
7
 10
-1202.921349412275
 20
240.8117115303343
 30
0
 11
-1202.921349412275
 21
245.8117115303343
 31
0
  0
LINE
  8
1
 62
7
 10
-1202.721349412275
 20
240.8117115303343
 30
0
 11
-1202.721349412275
 21
245.8117115303343
 31
0
  0
LINE
  8
1
 62
7
 10
-1202.521349412275
 20
240.8117115303343
 30
0
 11
-1202.521349412275
 21
245.8117115303343
 31
0
  0
LINE
  8
1
 62
7
 10
-1202.321349412275
 20
240.8117115303343
 30
0
 11
-1202.321349412275
 21
245.8117115303343
 31
0
  0
LINE
  8
1
 62
7
 10
-1202.121349412275
 20
240.8117115303343
 30
0
 11
-1202.121349412275
 21
245.8117115303343
 31
0
  0
LINE
  8
1
 62
7
 10
-1199.921349412275
 20
240.8117115303343
 30
0
 11
-1199.921349412275
 21
245.8117115303343
 31
0
  0
LINE
  8
1
 62
7
 10
-1199.721349412275
 20
240.8117115303343
 30
0
 11
-1199.721349412275
 21
245.8117115303343
 31
0
  0
LINE
  8
1
 62
7
 10
-1199.521349412275
 20
240.8117115303343
 30
0
 11
-1199.521349412275
 21
245.8117115303343
 31
0
  0
LINE
  8
1
 62
7
 10
-1199.321349412275
 20
240.8117115303343
 30
0
 11
-1199.321349412275
 21
245.8117115303343
 31
0
  0
LINE
  8
1
 62
7
 10
-1199.121349412275
 20
240.8117115303343
 30
0
 11
-1199.121349412275
 21
245.8117115303343
 31
0
  0
LINE
  8
1
 62
7
 10
-1201.021349412275
 20
240.8117115303343
 30
0
 11
-1198.021349412275
 21
240.8117115303343
 31
0
  0
LINE
  8
1
 62
7
 10
-1201.021349412275
 20
220.9432482213353
 30
0
 11
-1201.021349412275
 21
202.6713694122622
 31
0
  0
LINE
  8
1
 62
7
 10
-1201.021349412275
 20
240.8117115303343
 30
0
 11
-1201.021349412275
 21
224.6660213181482
 31
0
  0
LINE
  8
1
 62
7
 10
-1204.021349412275
 20
240.8117115303343
 30
0
 11
-1204.021349412275
 21
224.6660213181482
 31
0
  0
LINE
  8
1
 62
7
 10
-1204.021349412275
 20
202.6333886420559
 30
0
 11
-1204.021349412275
 21
220.9432482213353
 31
0
  0
LINE
  8
1
 62
7
 10
-1198.021349412275
 20
220.9432482213353
 30
0
 11
-1198.021349412275
 21
202.6333886420559
 31
0
  0
LINE
  8
1
 62
7
 10
-1198.021349412275
 20
240.8117115303343
 30
0
 11
-1198.021349412275
 21
224.6660213181482
 31
0
  0
LINE
  8
1
 62
7
 10
-1204.021349412275
 20
240.8117115303343
 30
0
 11
-1201.021349412275
 21
240.8117115303343
 31
0
  0
LINE
  8
1
 62
3
  6
DASHDOT
 10
-1127.091590623445
 20
126.8547355501174
 30
0
 11
-1110.567251768929
 21
136.395067035953
 31
0
  0
LINE
  8
1
 62
3
  6
DASHDOT
 10
-1110.567251768929
 20
31.94767178857132
 30
0
 11
-1127.091590623445
 21
41.48800327440694
 31
0
  0
LINE
  8
1
 62
3
  6
DASHDOT
 10
-1291.475447055622
 20
136.395067035953
 30
0
 11
-1274.951108201105
 21
126.8547355501174
 31
0
  0
LINE
  8
1
 62
3
  6
DASHDOT
 10
-1274.951108201105
 20
41.48800327440694
 30
0
 11
-1291.475447055622
 21
31.94767178857132
 31
0
  0
LINE
  8
1
 62
7
 10
-848.854228049245
 20
191.6713694122622
 30
0
 11
-848.854228049245
 21
138.1713694122622
 31
0
  0
LINE
  8
1
 62
7
 10
-851.4542280492449
 20
194.1713694122622
 30
0
 11
-848.854228049245
 21
194.1713694122622
 31
0
  0
LINE
  8
1
 62
7
 10
-851.4542280492449
 20
191.6713694122622
 30
0
 11
-848.854228049245
 21
191.6713694122622
 31
0
  0
LINE
  8
1
 62
7
 10
-851.4542280492449
 20
201.6713694122622
 30
0
 11
-851.4542280492449
 21
191.6713694122622
 31
0
  0
LINE
  8
1
 62
7
 10
-848.854228049245
 20
202.6713694122622
 30
0
 11
-848.854228049245
 21
194.1713694122622
 31
0
  0
LINE
  8
1
 62
7
 10
-927.854228049245
 20
200.6713694122622
 30
0
 11
-925.854228049245
 21
202.6713694122622
 31
0
  0
LINE
  8
1
 62
7
 10
-890.854228049245
 20
192.0713694122622
 30
0
 11
-890.854228049245
 21
162.6713694122622
 31
0
  0
LINE
  8
1
 62
7
 10
-888.854228049245
 20
162.6713694122622
 30
0
 11
-888.854228049245
 21
149.0713694122622
 31
0
  0
LINE
  8
1
 62
7
 10
-919.854228049245
 20
148.1713694122622
 30
0
 11
-919.854228049245
 21
84.17136941226217
 31
0
  0
LINE
  8
1
 62
7
 10
-919.854228049245
 20
148.6713694122622
 30
0
 11
-919.854228049245
 21
148.1713694122622
 31
0
  0
LINE
  8
1
 62
7
 10
-907.854228049245
 20
149.0713694122622
 30
0
 11
-907.854228049245
 21
148.6713694122622
 31
0
  0
LINE
  8
1
 62
7
 10
-907.854228049245
 20
148.6713694122622
 30
0
 11
-919.854228049245
 21
148.6713694122622
 31
0
  0
LINE
  8
1
 62
7
 10
-888.854228049245
 20
149.0713694122622
 30
0
 11
-907.854228049245
 21
149.0713694122622
 31
0
  0
LINE
  8
1
 62
7
 10
-927.854228049245
 20
150.1713694122622
 30
0
 11
-925.854228049245
 21
148.1713694122622
 31
0
  0
LINE
  8
1
 62
7
 10
-873.354228049245
 20
194.1713694122622
 30
0
 11
-873.354228049245
 21
192.0713694122622
 31
0
  0
LINE
  8
1
 62
7
 10
-873.354228049245
 20
194.1713694122622
 30
0
 11
-851.4542280492449
 21
194.1713694122622
 31
0
  0
LINE
  8
1
 62
7
 10
-927.854228049245
 20
200.6713694122622
 30
0
 11
-927.854228049245
 21
150.1713694122622
 31
0
  0
LINE
  8
1
 62
7
 10
-925.854228049245
 20
202.6713694122622
 30
0
 11
-848.854228049245
 21
202.6713694122622
 31
0
  0
LINE
  8
1
 62
7
 10
-909.854228049245
 20
127.4213694122622
 30
0
 11
-909.854228049245
 21
135.4213694122622
 31
0
  0
LINE
  8
1
 62
7
 10
-913.854228049245
 20
129.1713694122622
 30
0
 11
-913.854228049245
 21
125.1713694122622
 31
0
  0
LINE
  8
1
 62
7
 10
-909.854228049245
 20
129.1713694122622
 30
0
 11
-913.854228049245
 21
129.1713694122622
 31
0
  0
LINE
  8
1
 62
7
 10
-906.854228049245
 20
127.4213694122622
 30
0
 11
-909.854228049245
 21
127.4213694122622
 31
0
  0
LINE
  8
1
 62
7
 10
-906.854228049245
 20
135.4213694122622
 30
0
 11
-906.854228049245
 21
127.4213694122622
 31
0
  0
LINE
  8
1
 62
7
 10
-909.854228049245
 20
135.4213694122622
 30
0
 11
-906.854228049245
 21
135.4213694122622
 31
0
  0
LINE
  8
1
 62
7
 10
-913.854228049245
 20
118.712389074759
 30
0
 11
-912.854228049245
 21
117.712389074759
 31
0
  0
LINE
  8
1
 62
7
 10
-1211.021349412275
 20
124.1713694122622
 30
0
 11
-1211.021349412275
 21
117.712389074759
 31
0
  0
LINE
  8
1
 62
7
 10
-1191.021349412275
 20
124.1713694122622
 30
0
 11
-1191.021349412275
 21
117.712389074759
 31
0
  0
LINE
  8
1
 62
7
 10
-1211.021349412275
 20
124.1713694122622
 30
0
 11
-1191.021349412275
 21
124.1713694122622
 31
0
  0
LINE
  8
1
 62
7
 10
-832.854228049245
 20
119.1713694122622
 30
0
 11
-832.854228049245
 21
124.1713694122622
 31
0
  0
LINE
  8
1
 62
7
 10
-832.854228049245
 20
124.1713694122622
 30
0
 11
-912.854228049245
 21
124.1713694122622
 31
0
  0
LINE
  8
1
 62
7
 10
-831.854228049245
 20
125.1713694122622
 30
0
 11
-832.854228049245
 21
124.1713694122622
 31
0
  0
LINE
  8
1
 62
7
 10
-871.854228049245
 20
138.1713694122622
 30
0
 11
-863.854228049245
 21
138.1713694122622
 31
0
  0
LINE
  8
1
 62
7
 10
-863.854228049245
 20
138.1713694122622
 30
0
 11
-859.854228049245
 21
138.1713694122622
 31
0
  0
LINE
  8
1
 62
7
 10
-904.854228049245
 20
131.6713694122622
 30
0
 11
-903.854228049245
 21
131.6713694122622
 31
0
  0
LINE
  8
1
 62
7
 10
-904.854228049245
 20
148.5713694122622
 30
0
 11
-903.854228049245
 21
148.5713694122622
 31
0
  0
LINE
  8
1
 62
3
 10
-848.854228049245
 20
138.1713694122622
 30
0
 11
-871.854228049245
 21
201.6713694122622
 31
0
  0
LINE
  8
1
 62
3
 10
-871.854228049245
 20
138.1713694122622
 30
0
 11
-851.4542280492449
 21
201.6713694122622
 31
0
  0
LINE
  8
1
 62
7
 10
-871.854228049245
 20
191.0713694122622
 30
0
 11
-871.854228049245
 21
201.6713694122622
 31
0
  0
LINE
  8
1
 62
7
 10
-871.854228049245
 20
201.6713694122622
 30
0
 11
-851.4542280492449
 21
201.6713694122622
 31
0
  0
LINE
  8
1
 62
7
 10
-906.854228049245
 20
132.6713694122622
 30
0
 11
-905.854228049245
 21
131.6713694122622
 31
0
  0
LINE
  8
1
 62
7
 10
-888.354228049245
 20
191.5713694122622
 30
0
 11
-888.854228049245
 21
191.0713694122622
 31
0
  0
LINE
  8
1
 62
7
 10
-871.854228049245
 20
191.0713694122622
 30
0
 11
-872.354228049245
 21
191.5713694122622
 31
0
  0
LINE
  8
1
 62
7
 10
-904.854228049245
 20
148.5713694122622
 30
0
 11
-905.854228049245
 21
147.5713694122622
 31
0
  0
LINE
  8
1
 62
7
 10
-905.854228049245
 20
131.6713694122622
 30
0
 11
-904.854228049245
 21
131.6713694122622
 31
0
  0
LINE
  8
1
 62
7
 10
-906.854228049245
 20
132.6713694122622
 30
0
 11
-906.854228049245
 21
137.6713694122622
 31
0
  0
LINE
  8
1
 62
7
 10
-906.854228049245
 20
137.6713694122622
 30
0
 11
-905.854228049245
 21
137.6713694122622
 31
0
  0
LINE
  8
1
 62
7
 10
-905.854228049245
 20
137.6713694122622
 30
0
 11
-905.854228049245
 21
147.5713694122622
 31
0
  0
LINE
  8
1
 62
7
 10
-903.854228049245
 20
148.5713694122622
 30
0
 11
-886.854228049245
 21
148.5713694122622
 31
0
  0
LINE
  8
1
 62
7
 10
-886.854228049245
 20
148.5713694122622
 30
0
 11
-886.854228049245
 21
180.1713694122622
 31
0
  0
LINE
  8
1
 62
7
 10
-888.854228049245
 20
180.1713694122622
 30
0
 11
-888.854228049245
 21
191.0713694122622
 31
0
  0
LINE
  8
1
 62
7
 10
-888.354228049245
 20
191.5713694122622
 30
0
 11
-872.354228049245
 21
191.5713694122622
 31
0
  0
LINE
  8
1
 62
7
 10
-871.854228049245
 20
191.0713694122622
 30
0
 11
-871.854228049245
 21
143.0713694122622
 31
0
  0
LINE
  8
1
 62
7
 10
-848.854228049245
 20
191.6713694122622
 30
0
 11
-848.854228049245
 21
190.6713694122622
 31
0
  0
LINE
  8
1
 62
7
 10
-833.854228049245
 20
188.6713694122622
 30
0
 11
-836.854228049245
 21
191.6713694122622
 31
0
  0
LINE
  8
1
 62
7
 10
-833.854228049245
 20
148.4367653072812
 30
0
 11
-833.854228049245
 21
151.1713694122622
 31
0
  0
LINE
  8
1
 62
7
 10
-848.854228049245
 20
144.1713694122622
 30
0
 11
-838.7542280492451
 21
144.1713694122622
 31
0
  0
LINE
  8
1
 62
7
 10
-838.7542280492451
 20
139.0713694122622
 30
0
 11
-848.854228049245
 21
139.0713694122622
 31
0
  0
LINE
  8
1
 62
7
 10
-848.854228049245
 20
191.6713694122622
 30
0
 11
-836.854228049245
 21
191.6713694122622
 31
0
  0
LINE
  8
1
 62
7
 10
-833.854228049245
 20
188.6713694122622
 30
0
 11
-833.854228049245
 21
151.1713694122622
 31
0
  0
LINE
  8
1
 62
7
 10
-833.854228049245
 20
151.1713694122622
 30
0
 11
-838.7542280492451
 21
151.1713694122622
 31
0
  0
LINE
  8
1
 62
7
 10
-838.7542280492451
 20
151.1713694122622
 30
0
 11
-838.7542280492451
 21
137.1713694122622
 31
0
  0
LINE
  8
1
 62
7
 10
-834.7542280492451
 20
137.1713694122622
 30
0
 11
-834.7542280492451
 21
146.0713694122622
 31
0
  0
LINE
  8
1
 62
7
 10
-834.7542280492451
 20
146.0713694122622
 30
0
 11
-838.7542280492451
 21
146.0713694122622
 31
0
  0
LINE
  8
1
 62
7
  6
DASHDOT
 10
-871.354228049245
 20
143.5713694122622
 30
0
 11
-871.854228049245
 21
143.0713694122622
 31
0
  0
LINE
  8
1
 62
3
  6
DASHDOT
 10
-873.883340475281
 20
141.1713694122622
 30
0
 11
-836.4234588184759
 21
141.1713694122622
 31
0
  0
LINE
  8
1
 62
7
 10
-904.854228049245
 20
131.6713694122622
 30
0
 11
-905.854228049245
 21
130.6713694122622
 31
0
  0
LINE
  8
1
 62
7
 10
-831.854228049245
 20
138.1713694122622
 30
0
 11
-832.854228049245
 21
139.1713694122622
 31
0
  0
LINE
  8
1
 62
7
 10
-859.854228049245
 20
138.1713694122622
 30
0
 11
-838.954228049245
 21
138.1713694122622
 31
0
  0
LINE
  8
1
 62
7
 10
-834.7542280492451
 20
138.1713694122622
 30
0
 11
-831.854228049245
 21
138.1713694122622
 31
0
  0
LINE
  8
1
 62
7
 10
-831.854228049245
 20
118.712389074759
 30
0
 11
-832.854228049245
 21
117.712389074759
 31
0
  0
LINE
  8
1
 62
7
 10
-832.854228049245
 20
119.1713694122622
 30
0
 11
-832.854228049245
 21
84.17136941226217
 31
0
  0
LINE
  8
1
 62
7
 10
-906.854228049245
 20
129.1713694122622
 30
0
 11
-905.854228049245
 21
129.1713694122622
 31
0
  0
LINE
  8
1
 62
7
 10
-905.854228049245
 20
129.1713694122622
 30
0
 11
-905.854228049245
 21
130.6713694122622
 31
0
  0
LINE
  8
1
 62
7
 10
-903.854228049245
 20
131.6713694122622
 30
0
 11
-871.854228049245
 21
131.6713694122622
 31
0
  0
LINE
  8
1
 62
7
 10
-871.854228049245
 20
131.6713694122622
 30
0
 11
-871.854228049245
 21
143.0713694122622
 31
0
  0
LINE
  8
1
 62
7
 10
-871.354228049245
 20
143.5713694122622
 30
0
 11
-838.954228049245
 21
143.5713694122622
 31
0
  0
LINE
  8
1
 62
7
 10
-838.954228049245
 20
143.5713694122622
 30
0
 11
-838.954228049245
 21
137.1713694122622
 31
0
  0
LINE
  8
1
 62
7
 10
-838.954228049245
 20
137.1713694122622
 30
0
 11
-834.7542280492451
 21
137.1713694122622
 31
0
  0
LINE
  8
1
 62
7
 10
-834.7542280492451
 20
137.1713694122622
 30
0
 11
-834.7542280492451
 21
139.1713694122622
 31
0
  0
LINE
  8
1
 62
7
 10
-834.7542280492451
 20
139.1713694122622
 30
0
 11
-832.854228049245
 21
139.1713694122622
 31
0
  0
LINE
  8
1
 62
7
 10
-831.854228049245
 20
138.1713694122622
 30
0
 11
-831.854228049245
 21
125.1713694122622
 31
0
  0
LINE
  8
1
 62
7
 10
-873.354228049245
 20
194.1713694122622
 30
0
 11
-873.354228049245
 21
202.6713694122622
 31
0
  0
LINE
  8
1
 62
7
 10
-912.854228049245
 20
124.1713694122622
 30
0
 11
-913.854228049245
 21
125.1713694122622
 31
0
  0
LINE
  8
1
 62
7
 10
-912.854228049245
 20
117.712389074759
 30
0
 11
-832.854228049245
 21
117.712389074759
 31
0
  0
LINE
  8
1
 62
7
 10
-925.854228049245
 20
148.1713694122622
 30
0
 11
-919.854228049245
 21
148.1713694122622
 31
0
  0
LINE
  8
1
 62
7
 10
-925.854228049245
 20
148.1713694122622
 30
0
 11
-925.854228049245
 21
84.17136941226217
 31
0
  0
LINE
  8
1
 62
7
 10
-912.854228049245
 20
124.1713694122622
 30
0
 11
-912.854228049245
 21
84.17136941226217
 31
0
  0
LINE
  8
1
 62
7
 10
-913.854228049245
 20
125.1713694122622
 30
0
 11
-913.854228049245
 21
120.1713694122622
 31
0
  0
LINE
  8
1
 62
7
 10
-927.854228049245
 20
150.1713694122622
 30
0
 11
-927.854228049245
 21
84.17136941226217
 31
0
  0
LINE
  8
1
 62
7
 10
-831.854228049245
 20
125.1713694122622
 30
0
 11
-831.854228049245
 21
120.1713694122622
 31
0
  0
LINE
  8
1
 62
7
 10
-831.854228049245
 20
120.1713694122622
 30
0
 11
-831.854228049245
 21
84.17136941226217
 31
0
  0
LINE
  8
1
 62
7
 10
-913.854228049245
 20
120.1713694122622
 30
0
 11
-913.854228049245
 21
84.17136941226217
 31
0
  0
LINE
  8
1
 62
7
 10
-886.854228049245
 20
180.1713694122622
 30
0
 11
-888.854228049245
 21
180.1713694122622
 31
0
  0
LINE
  8
1
 62
3
  6
DASHDOT
 10
-934.0942625127409
 20
84.17136941226217
 30
0
 11
-927.854228049245
 21
84.17136941226217
 31
0
  0
LINE
  8
1
 62
7
 10
-1032.254228049245
 20
240.8117115303343
 30
0
 11
-1032.254228049245
 21
245.8117115303343
 31
0
  0
LINE
  8
1
 62
7
 10
-1032.054228049245
 20
240.8117115303343
 30
0
 11
-1032.054228049245
 21
245.8117115303343
 31
0
  0
LINE
  8
1
 62
7
 10
-1031.854228049245
 20
240.8117115303343
 30
0
 11
-1031.854228049245
 21
245.8117115303343
 31
0
  0
LINE
  8
1
 62
7
 10
-1031.654228049245
 20
240.8117115303343
 30
0
 11
-1031.654228049245
 21
245.8117115303343
 31
0
  0
LINE
  8
1
 62
7
 10
-1031.454228049245
 20
240.8117115303343
 30
0
 11
-1031.454228049245
 21
245.8117115303343
 31
0
  0
LINE
  8
1
 62
7
 10
-1033.354228049245
 20
240.8117115303343
 30
0
 11
-1030.354228049245
 21
240.8117115303343
 31
0
  0
LINE
  8
1
 62
7
 10
-1033.354228049245
 20
220.9432482213353
 30
0
 11
-1033.354228049245
 21
202.6713694122622
 31
0
  0
LINE
  8
1
 62
7
 10
-1033.354228049245
 20
240.8117115303343
 30
0
 11
-1033.354228049245
 21
223.3939833050402
 31
0
  0
LINE
  8
1
 62
7
 10
-1030.354228049245
 20
220.9432482213353
 30
0
 11
-1030.354228049245
 21
202.6333886420559
 31
0
  0
LINE
  8
1
 62
7
 10
-1030.354228049245
 20
240.8117115303343
 30
0
 11
-1030.354228049245
 21
223.3939833050402
 31
0
  0
LINE
  8
1
 62
7
 10
-1050.854228049245
 20
-34.32863058773783
 30
0
 11
-1052.854228049245
 21
-32.32863058773783
 31
0
  0
LINE
  8
1
 62
7
 10
-998.354228049245
 20
-34.32863058773783
 30
0
 11
-998.354228049245
 21
15.39983699623885
 31
0
  0
LINE
  8
1
 62
7
 10
-1050.854228049245
 20
-34.32863058773783
 30
0
 11
-998.354228049245
 21
-34.32863058773783
 31
0
  0
LINE
  8
1
 62
7
 10
-996.854228049245
 20
-23.32863058773783
 30
0
 11
-998.354228049245
 21
-23.32863058773783
 31
0
  0
LINE
  8
1
 62
7
 10
-996.854228049245
 20
-33.32863058773783
 30
0
 11
-996.854228049245
 21
15.39983699623885
 31
0
  0
LINE
  8
1
 62
7
 10
-973.854228049245
 20
84.17136941226217
 30
0
 11
-973.854228049245
 21
-23.32863058773783
 31
0
  0
LINE
  8
1
 62
7
 10
-958.854228049245
 20
84.17136941226217
 30
0
 11
-958.854228049245
 21
29.17136941226217
 31
0
  0
LINE
  8
1
 62
7
 10
-958.854228049245
 20
29.17136941226217
 30
0
 11
-957.854228049245
 21
29.17136941226217
 31
0
  0
LINE
  8
1
 62
7
 10
-961.854228049245
 20
84.17136941226217
 30
0
 11
-961.854228049245
 21
-23.32863058773783
 31
0
  0
LINE
  8
1
 62
7
 10
-957.854228049245
 20
84.17136941226217
 30
0
 11
-957.854228049245
 21
29.17136941226217
 31
0
  0
LINE
  8
1
 62
7
 10
-961.854228049245
 20
-23.32863058773783
 30
0
 11
-958.854228049245
 21
-20.32863058773783
 31
0
  0
LINE
  8
1
 62
7
 10
-958.854228049245
 20
29.17136941226217
 30
0
 11
-958.854228049245
 21
-20.32863058773783
 31
0
  0
LINE
  8
1
 62
7
 10
-957.854228049245
 20
29.17136941226217
 30
0
 11
-956.854228049245
 21
30.17136941226217
 31
0
  0
LINE
  8
1
 62
7
 10
-956.854228049245
 20
84.17136941226217
 30
0
 11
-956.854228049245
 21
30.17136941226217
 31
0
  0
LINE
  8
1
 62
7
 10
-998.354228049245
 20
38.47333981302692
 30
0
 11
-996.854228049245
 21
38.47333981302692
 31
0
  0
LINE
  8
1
 62
7
 10
-976.4542280492449
 20
38.47333981302692
 30
0
 11
-973.854228049245
 21
38.47333981302692
 31
0
  0
LINE
  8
1
 62
7
 10
-996.854228049245
 20
35.20566222324221
 30
0
 11
-976.4542280492449
 21
35.20566222324221
 31
0
  0
LINE
  8
1
 62
7
 10
-998.354228049245
 20
34.45239587949653
 30
0
 11
-973.854228049245
 21
34.45239587949653
 31
0
  0
LINE
  8
1
 62
7
 10
-998.354228049245
 20
15.39983699623885
 30
0
 11
-973.854228049245
 21
15.39983699623885
 31
0
  0
LINE
  8
1
 62
7
 10
-996.854228049245
 20
35.20566222324221
 30
0
 11
-996.854228049245
 21
84.17136941226217
 31
0
  0
LINE
  8
1
 62
7
 10
-976.4542280492449
 20
35.20566222324221
 30
0
 11
-976.4542280492449
 21
84.17136941226217
 31
0
  0
LINE
  8
1
 62
7
 10
-976.4542280492449
 20
15.39983699623885
 30
0
 11
-976.4542280492449
 21
-33.32863058773783
 31
0
  0
LINE
  8
1
 62
7
 10
-976.4542280492449
 20
-23.32863058773783
 30
0
 11
-961.854228049245
 21
-23.32863058773783
 31
0
  0
LINE
  8
1
 62
7
 10
-976.4542280492449
 20
-33.32863058773783
 30
0
 11
-996.854228049245
 21
-33.32863058773783
 31
0
  0
LINE
  8
1
 62
7
 10
-998.354228049245
 20
-34.32863058773783
 30
0
 11
-973.854228049245
 21
-34.32863058773783
 31
0
  0
LINE
  8
1
 62
7
 10
-998.354228049245
 20
-25.27724866946585
 30
0
 11
-996.854228049245
 21
-25.27724866946585
 31
0
  0
LINE
  8
1
 62
7
 10
-976.4542280492449
 20
-25.27724866946585
 30
0
 11
-973.854228049245
 21
-25.27724866946585
 31
0
  0
LINE
  8
1
 62
7
 10
-973.854228049245
 20
-25.27724866946585
 30
0
 11
-973.854228049245
 21
-34.32863058773783
 31
0
  0
LINE
  8
1
 62
3
 10
-976.4542280492449
 20
15.39983699623885
 30
0
 11
-996.854228049245
 21
-33.32863058773783
 31
0
  0
LINE
  8
1
 62
3
 10
-976.4542280492449
 20
-33.32863058773783
 30
0
 11
-996.854228049245
 21
15.39983699623885
 31
0
  0
LINE
  8
1
 62
7
 10
-998.354228049245
 20
34.45239587949653
 30
0
 11
-998.354228049245
 21
84.17136941226217
 31
0
  0
LINE
  8
1
 62
7
 10
-1050.854228049245
 20
-34.32863058773783
 30
0
 11
-1050.854228049245
 21
84.17136941226217
 31
0
  0
LINE
  8
1
 62
3
  6
DASHDOT
 10
-1059.094262512741
 20
84.17136941226217
 30
0
 11
-1052.854228049245
 21
84.17136941226217
 31
0
  0
LINE
  8
1
 62
7
 10
-890.854228049245
 20
192.0713694122622
 30
0
 11
-873.354228049245
 21
192.0713694122622
 31
0
  0
LINE
  8
1
 62
7
 10
-890.854228049245
 20
162.6713694122622
 30
0
 11
-888.854228049245
 21
162.6713694122622
 31
0
  0
LINE
  8
1
 62
7
 10
-848.854228049245
 20
30.17136941226212
 30
0
 11
-848.854228049245
 21
-23.32863058773788
 31
0
  0
LINE
  8
1
 62
7
 10
-848.854228049245
 20
-25.82863058773788
 30
0
 11
-851.4542280492449
 21
-25.82863058773788
 31
0
  0
LINE
  8
1
 62
7
 10
-848.854228049245
 20
-23.32863058773788
 30
0
 11
-851.4542280492449
 21
-23.32863058773788
 31
0
  0
LINE
  8
1
 62
7
 10
-851.4542280492449
 20
-23.32863058773788
 30
0
 11
-851.4542280492449
 21
-33.32863058773788
 31
0
  0
LINE
  8
1
 62
7
 10
-848.854228049245
 20
-25.82863058773788
 30
0
 11
-848.854228049245
 21
-34.32863058773788
 31
0
  0
LINE
  8
1
 62
7
 10
-925.854228049245
 20
-34.32863058773788
 30
0
 11
-927.854228049245
 21
-32.32863058773788
 31
0
  0
LINE
  8
1
 62
7
 10
-890.854228049245
 20
5.671369412262123
 30
0
 11
-890.854228049245
 21
-23.72863058773785
 31
0
  0
LINE
  8
1
 62
7
 10
-888.854228049245
 20
19.27136941226215
 30
0
 11
-888.854228049245
 21
5.671369412262123
 31
0
  0
LINE
  8
1
 62
7
 10
-919.854228049245
 20
84.17136941226217
 30
0
 11
-919.854228049245
 21
20.17136941226212
 31
0
  0
LINE
  8
1
 62
7
 10
-919.854228049245
 20
20.17136941226212
 30
0
 11
-919.854228049245
 21
19.67136941226212
 31
0
  0
LINE
  8
1
 62
7
 10
-907.854228049245
 20
19.67136941226212
 30
0
 11
-907.854228049245
 21
19.27136941226215
 31
0
  0
LINE
  8
1
 62
7
 10
-919.854228049245
 20
19.67136941226212
 30
0
 11
-907.854228049245
 21
19.67136941226212
 31
0
  0
LINE
  8
1
 62
7
 10
-907.854228049245
 20
19.27136941226215
 30
0
 11
-888.854228049245
 21
19.27136941226215
 31
0
  0
LINE
  8
1
 62
7
 10
-925.854228049245
 20
20.17136941226212
 30
0
 11
-927.854228049245
 21
18.17136941226212
 31
0
  0
LINE
  8
1
 62
7
 10
-873.354228049245
 20
-23.72863058773785
 30
0
 11
-873.354228049245
 21
-25.82863058773788
 31
0
  0
LINE
  8
1
 62
7
 10
-851.4542280492449
 20
-25.82863058773788
 30
0
 11
-873.354228049245
 21
-25.82863058773788
 31
0
  0
LINE
  8
1
 62
7
 10
-927.854228049245
 20
18.17136941226212
 30
0
 11
-927.854228049245
 21
-32.32863058773788
 31
0
  0
LINE
  8
1
 62
7
 10
-848.854228049245
 20
-34.32863058773788
 30
0
 11
-925.854228049245
 21
-34.32863058773788
 31
0
  0
LINE
  8
1
 62
7
 10
-909.854228049245
 20
32.92136941226212
 30
0
 11
-909.854228049245
 21
40.92136941226214
 31
0
  0
LINE
  8
1
 62
7
 10
-913.854228049245
 20
43.17136941226214
 30
0
 11
-913.854228049245
 21
39.17136941226212
 31
0
  0
LINE
  8
1
 62
7
 10
-913.854228049245
 20
39.17136941226212
 30
0
 11
-909.854228049245
 21
39.17136941226212
 31
0
  0
LINE
  8
1
 62
7
 10
-909.854228049245
 20
40.92136941226214
 30
0
 11
-906.854228049245
 21
40.92136941226214
 31
0
  0
LINE
  8
1
 62
7
 10
-906.854228049245
 20
40.92136941226214
 30
0
 11
-906.854228049245
 21
32.92136941226212
 31
0
  0
LINE
  8
1
 62
7
 10
-906.854228049245
 20
32.92136941226212
 30
0
 11
-909.854228049245
 21
32.92136941226212
 31
0
  0
LINE
  8
1
 62
7
 10
-912.854228049245
 20
49.17136941226214
 30
0
 11
-913.854228049245
 21
48.17136941226214
 31
0
  0
LINE
  8
1
 62
7
 10
-832.854228049245
 20
44.17136941226214
 30
0
 11
-832.854228049245
 21
49.17136941226214
 31
0
  0
LINE
  8
1
 62
7
 10
-912.854228049245
 20
44.17136941226214
 30
0
 11
-832.854228049245
 21
44.17136941226214
 31
0
  0
LINE
  8
1
 62
7
 10
-832.854228049245
 20
44.17136941226214
 30
0
 11
-831.854228049245
 21
43.17136941226214
 31
0
  0
LINE
  8
1
 62
7
 10
-863.854228049245
 20
30.17136941226212
 30
0
 11
-871.854228049245
 21
30.17136941226212
 31
0
  0
LINE
  8
1
 62
7
 10
-859.854228049245
 20
30.17136941226212
 30
0
 11
-863.854228049245
 21
30.17136941226212
 31
0
  0
LINE
  8
1
 62
7
 10
-903.854228049245
 20
36.67136941226212
 30
0
 11
-904.854228049245
 21
36.67136941226212
 31
0
  0
LINE
  8
1
 62
7
 10
-903.854228049245
 20
19.77136941226215
 30
0
 11
-904.854228049245
 21
19.77136941226215
 31
0
  0
LINE
  8
1
 62
3
 10
-871.854228049245
 20
-33.32863058773788
 30
0
 11
-848.854228049245
 21
30.17136941226212
 31
0
  0
LINE
  8
1
 62
3
 10
-851.4542280492449
 20
-33.32863058773788
 30
0
 11
-871.854228049245
 21
30.17136941226212
 31
0
  0
LINE
  8
1
 62
7
 10
-871.854228049245
 20
-33.32863058773788
 30
0
 11
-871.854228049245
 21
-22.72863058773785
 31
0
  0
LINE
  8
1
 62
7
 10
-851.4542280492449
 20
-33.32863058773788
 30
0
 11
-871.854228049245
 21
-33.32863058773788
 31
0
  0
LINE
  8
1
 62
7
 10
-905.854228049245
 20
36.67136941226212
 30
0
 11
-906.854228049245
 21
35.67136941226212
 31
0
  0
LINE
  8
1
 62
7
 10
-888.854228049245
 20
-22.72863058773785
 30
0
 11
-888.354228049245
 21
-23.22863058773785
 31
0
  0
LINE
  8
1
 62
7
 10
-872.354228049245
 20
-23.22863058773785
 30
0
 11
-871.854228049245
 21
-22.72863058773785
 31
0
  0
LINE
  8
1
 62
7
 10
-905.854228049245
 20
20.77136941226215
 30
0
 11
-904.854228049245
 21
19.77136941226215
 31
0
  0
LINE
  8
1
 62
7
 10
-904.854228049245
 20
36.67136941226212
 30
0
 11
-905.854228049245
 21
36.67136941226212
 31
0
  0
LINE
  8
1
 62
7
 10
-906.854228049245
 20
30.67136941226212
 30
0
 11
-906.854228049245
 21
35.67136941226212
 31
0
  0
LINE
  8
1
 62
7
 10
-905.854228049245
 20
30.67136941226212
 30
0
 11
-906.854228049245
 21
30.67136941226212
 31
0
  0
LINE
  8
1
 62
7
 10
-905.854228049245
 20
20.77136941226215
 30
0
 11
-905.854228049245
 21
30.67136941226212
 31
0
  0
LINE
  8
1
 62
7
 10
-886.854228049245
 20
19.77136941226215
 30
0
 11
-903.854228049245
 21
19.77136941226215
 31
0
  0
LINE
  8
1
 62
7
 10
-886.854228049245
 20
-11.82863058773788
 30
0
 11
-886.854228049245
 21
19.77136941226215
 31
0
  0
LINE
  8
1
 62
7
 10
-888.854228049245
 20
-22.72863058773785
 30
0
 11
-888.854228049245
 21
-11.82863058773788
 31
0
  0
LINE
  8
1
 62
7
 10
-872.354228049245
 20
-23.22863058773785
 30
0
 11
-888.354228049245
 21
-23.22863058773785
 31
0
  0
LINE
  8
1
 62
7
 10
-871.854228049245
 20
25.27136941226215
 30
0
 11
-871.854228049245
 21
-22.72863058773785
 31
0
  0
LINE
  8
1
 62
7
 10
-848.854228049245
 20
-22.32863058773788
 30
0
 11
-848.854228049245
 21
-23.32863058773788
 31
0
  0
LINE
  8
1
 62
7
 10
-836.854228049245
 20
-23.32863058773788
 30
0
 11
-833.854228049245
 21
-20.32863058773788
 31
0
  0
LINE
  8
1
 62
7
 10
-833.854228049245
 20
17.17136941226212
 30
0
 11
-833.854228049245
 21
19.90597351724313
 31
0
  0
LINE
  8
1
 62
7
 10
-838.7542280492451
 20
24.17136941226212
 30
0
 11
-848.854228049245
 21
24.17136941226212
 31
0
  0
LINE
  8
1
 62
7
 10
-848.854228049245
 20
29.27136941226215
 30
0
 11
-838.7542280492451
 21
29.27136941226215
 31
0
  0
LINE
  8
1
 62
7
 10
-836.854228049245
 20
-23.32863058773788
 30
0
 11
-848.854228049245
 21
-23.32863058773788
 31
0
  0
LINE
  8
1
 62
7
 10
-833.854228049245
 20
17.17136941226212
 30
0
 11
-833.854228049245
 21
-20.32863058773788
 31
0
  0
LINE
  8
1
 62
7
 10
-838.7542280492451
 20
17.17136941226212
 30
0
 11
-833.854228049245
 21
17.17136941226212
 31
0
  0
LINE
  8
1
 62
7
 10
-838.7542280492451
 20
31.17136941226212
 30
0
 11
-838.7542280492451
 21
17.17136941226212
 31
0
  0
LINE
  8
1
 62
7
 10
-834.7542280492451
 20
22.27136941226215
 30
0
 11
-834.7542280492451
 21
31.17136941226212
 31
0
  0
LINE
  8
1
 62
7
 10
-838.7542280492451
 20
22.27136941226215
 30
0
 11
-834.7542280492451
 21
22.27136941226215
 31
0
  0
LINE
  8
1
 62
7
  6
DASHDOT
 10
-871.854228049245
 20
25.27136941226215
 30
0
 11
-871.354228049245
 21
24.77136941226215
 31
0
  0
LINE
  8
1
 62
3
  6
DASHDOT
 10
-836.4234588184759
 20
27.17136941226212
 30
0
 11
-873.883340475281
 21
27.17136941226212
 31
0
  0
LINE
  8
1
 62
7
 10
-905.854228049245
 20
37.67136941226212
 30
0
 11
-904.854228049245
 21
36.67136941226212
 31
0
  0
LINE
  8
1
 62
7
 10
-832.854228049245
 20
29.17136941226212
 30
0
 11
-831.854228049245
 21
30.17136941226212
 31
0
  0
LINE
  8
1
 62
7
 10
-838.954228049245
 20
30.17136941226212
 30
0
 11
-859.854228049245
 21
30.17136941226212
 31
0
  0
LINE
  8
1
 62
7
 10
-831.854228049245
 20
30.17136941226212
 30
0
 11
-834.7542280492451
 21
30.17136941226212
 31
0
  0
LINE
  8
1
 62
7
 10
-832.854228049245
 20
49.17136941226214
 30
0
 11
-831.854228049245
 21
48.17136941226214
 31
0
  0
LINE
  8
1
 62
7
 10
-832.854228049245
 20
84.17136941226217
 30
0
 11
-832.854228049245
 21
49.17136941226214
 31
0
  0
LINE
  8
1
 62
7
 10
-905.854228049245
 20
39.17136941226212
 30
0
 11
-906.854228049245
 21
39.17136941226212
 31
0
  0
LINE
  8
1
 62
7
 10
-905.854228049245
 20
37.67136941226212
 30
0
 11
-905.854228049245
 21
39.17136941226212
 31
0
  0
LINE
  8
1
 62
7
 10
-871.854228049245
 20
36.67136941226212
 30
0
 11
-903.854228049245
 21
36.67136941226212
 31
0
  0
LINE
  8
1
 62
7
 10
-871.854228049245
 20
25.27136941226215
 30
0
 11
-871.854228049245
 21
36.67136941226212
 31
0
  0
LINE
  8
1
 62
7
 10
-838.954228049245
 20
24.77136941226215
 30
0
 11
-871.354228049245
 21
24.77136941226215
 31
0
  0
LINE
  8
1
 62
7
 10
-838.954228049245
 20
31.17136941226212
 30
0
 11
-838.954228049245
 21
24.77136941226215
 31
0
  0
LINE
  8
1
 62
7
 10
-834.7542280492451
 20
31.17136941226212
 30
0
 11
-838.954228049245
 21
31.17136941226212
 31
0
  0
LINE
  8
1
 62
7
 10
-834.7542280492451
 20
29.17136941226212
 30
0
 11
-834.7542280492451
 21
31.17136941226212
 31
0
  0
LINE
  8
1
 62
7
 10
-832.854228049245
 20
29.17136941226212
 30
0
 11
-834.7542280492451
 21
29.17136941226212
 31
0
  0
LINE
  8
1
 62
7
 10
-831.854228049245
 20
43.17136941226214
 30
0
 11
-831.854228049245
 21
30.17136941226212
 31
0
  0
LINE
  8
1
 62
7
 10
-873.354228049245
 20
-34.32863058773788
 30
0
 11
-873.354228049245
 21
-25.82863058773788
 31
0
  0
LINE
  8
1
 62
7
 10
-913.854228049245
 20
43.17136941226214
 30
0
 11
-912.854228049245
 21
44.17136941226214
 31
0
  0
LINE
  8
1
 62
7
 10
-832.854228049245
 20
49.17136941226214
 30
0
 11
-912.854228049245
 21
49.17136941226214
 31
0
  0
LINE
  8
1
 62
7
 10
-919.854228049245
 20
20.17136941226212
 30
0
 11
-925.854228049245
 21
20.17136941226212
 31
0
  0
LINE
  8
1
 62
7
 10
-925.854228049245
 20
84.17136941226217
 30
0
 11
-925.854228049245
 21
20.17136941226212
 31
0
  0
LINE
  8
1
 62
7
 10
-912.854228049245
 20
84.17136941226217
 30
0
 11
-912.854228049245
 21
44.17136941226214
 31
0
  0
LINE
  8
1
 62
7
 10
-913.854228049245
 20
48.17136941226214
 30
0
 11
-913.854228049245
 21
43.17136941226214
 31
0
  0
LINE
  8
1
 62
7
 10
-927.854228049245
 20
84.17136941226217
 30
0
 11
-927.854228049245
 21
18.17136941226212
 31
0
  0
LINE
  8
1
 62
7
 10
-831.854228049245
 20
48.17136941226214
 30
0
 11
-831.854228049245
 21
43.17136941226214
 31
0
  0
LINE
  8
1
 62
7
 10
-831.854228049245
 20
84.17136941226217
 30
0
 11
-831.854228049245
 21
48.17136941226214
 31
0
  0
LINE
  8
1
 62
7
 10
-913.854228049245
 20
84.17136941226217
 30
0
 11
-913.854228049245
 21
48.17136941226214
 31
0
  0
LINE
  8
1
 62
7
 10
-888.854228049245
 20
-11.82863058773788
 30
0
 11
-886.854228049245
 21
-11.82863058773788
 31
0
  0
LINE
  8
1
 62
7
 10
-873.354228049245
 20
-23.72863058773785
 30
0
 11
-890.854228049245
 21
-23.72863058773785
 31
0
  0
LINE
  8
1
 62
7
 10
-888.854228049245
 20
5.671369412262123
 30
0
 11
-890.854228049245
 21
5.671369412262123
 31
0
  0
LINE
  8
1
 62
7
 10
-1052.854228049245
 20
84.17136941226217
 30
0
 11
-1052.854228049245
 21
-32.32863058773783
 31
0
  0
LINE
  8
1
 62
7
 10
-1052.854228049245
 20
200.6713694122622
 30
0
 11
-1050.854228049245
 21
202.6713694122622
 31
0
  0
LINE
  8
1
 62
7
 10
-998.354228049245
 20
152.9429018282855
 30
0
 11
-998.354228049245
 21
202.6713694122622
 31
0
  0
LINE
  8
1
 62
7
 10
-998.354228049245
 20
202.6713694122622
 30
0
 11
-1050.854228049245
 21
202.6713694122622
 31
0
  0
LINE
  8
1
 62
7
 10
-998.354228049245
 20
191.6713694122622
 30
0
 11
-996.854228049245
 21
191.6713694122622
 31
0
  0
LINE
  8
1
 62
7
 10
-996.854228049245
 20
152.9429018282855
 30
0
 11
-996.854228049245
 21
201.6713694122622
 31
0
  0
LINE
  8
1
 62
7
 10
-973.854228049245
 20
191.6713694122622
 30
0
 11
-973.854228049245
 21
84.17136941226217
 31
0
  0
LINE
  8
1
 62
7
 10
-958.854228049245
 20
139.1713694122622
 30
0
 11
-958.854228049245
 21
84.17136941226217
 31
0
  0
LINE
  8
1
 62
7
 10
-957.854228049245
 20
139.1713694122622
 30
0
 11
-958.854228049245
 21
139.1713694122622
 31
0
  0
LINE
  8
1
 62
7
 10
-961.854228049245
 20
191.6713694122622
 30
0
 11
-961.854228049245
 21
84.17136941226217
 31
0
  0
LINE
  8
1
 62
7
 10
-957.854228049245
 20
139.1713694122622
 30
0
 11
-957.854228049245
 21
84.17136941226217
 31
0
  0
LINE
  8
1
 62
7
 10
-958.854228049245
 20
188.6713694122622
 30
0
 11
-961.854228049245
 21
191.6713694122622
 31
0
  0
LINE
  8
1
 62
7
 10
-958.854228049245
 20
188.6713694122622
 30
0
 11
-958.854228049245
 21
139.1713694122622
 31
0
  0
LINE
  8
1
 62
7
 10
-956.854228049245
 20
138.1713694122622
 30
0
 11
-957.854228049245
 21
139.1713694122622
 31
0
  0
LINE
  8
1
 62
7
 10
-956.854228049245
 20
138.1713694122622
 30
0
 11
-956.854228049245
 21
84.17136941226217
 31
0
  0
LINE
  8
1
 62
7
 10
-996.854228049245
 20
129.8693990114975
 30
0
 11
-998.354228049245
 21
129.8693990114975
 31
0
  0
LINE
  8
1
 62
7
 10
-973.854228049245
 20
129.8693990114975
 30
0
 11
-976.4542280492449
 21
129.8693990114975
 31
0
  0
LINE
  8
1
 62
7
 10
-976.4542280492449
 20
133.1370766012822
 30
0
 11
-996.854228049245
 21
133.1370766012822
 31
0
  0
LINE
  8
1
 62
7
 10
-973.854228049245
 20
133.8903429450278
 30
0
 11
-998.354228049245
 21
133.8903429450278
 31
0
  0
LINE
  8
1
 62
7
 10
-973.854228049245
 20
152.9429018282855
 30
0
 11
-998.354228049245
 21
152.9429018282855
 31
0
  0
LINE
  8
1
 62
7
 10
-996.854228049245
 20
84.17136941226217
 30
0
 11
-996.854228049245
 21
133.1370766012822
 31
0
  0
LINE
  8
1
 62
7
 10
-976.4542280492449
 20
84.17136941226217
 30
0
 11
-976.4542280492449
 21
133.1370766012822
 31
0
  0
LINE
  8
1
 62
7
 10
-976.4542280492449
 20
201.6713694122622
 30
0
 11
-976.4542280492449
 21
152.9429018282855
 31
0
  0
LINE
  8
1
 62
7
 10
-961.854228049245
 20
191.6713694122622
 30
0
 11
-976.4542280492449
 21
191.6713694122622
 31
0
  0
LINE
  8
1
 62
7
 10
-996.854228049245
 20
201.6713694122622
 30
0
 11
-976.4542280492449
 21
201.6713694122622
 31
0
  0
LINE
  8
1
 62
7
 10
-973.854228049245
 20
202.6713694122622
 30
0
 11
-998.354228049245
 21
202.6713694122622
 31
0
  0
LINE
  8
1
 62
7
 10
-996.854228049245
 20
193.6199874939904
 30
0
 11
-998.354228049245
 21
193.6199874939904
 31
0
  0
LINE
  8
1
 62
7
 10
-973.854228049245
 20
193.6199874939904
 30
0
 11
-976.4542280492449
 21
193.6199874939904
 31
0
  0
LINE
  8
1
 62
7
 10
-973.854228049245
 20
202.6713694122622
 30
0
 11
-973.854228049245
 21
193.6199874939904
 31
0
  0
LINE
  8
1
 62
3
 10
-996.854228049245
 20
201.6713694122622
 30
0
 11
-976.4542280492449
 21
152.9429018282855
 31
0
  0
LINE
  8
1
 62
3
 10
-996.854228049245
 20
152.9429018282855
 30
0
 11
-976.4542280492449
 21
201.6713694122622
 31
0
  0
LINE
  8
1
 62
7
 10
-998.354228049245
 20
84.17136941226217
 30
0
 11
-998.354228049245
 21
133.8903429450278
 31
0
  0
LINE
  8
1
 62
7
 10
-1050.854228049245
 20
84.17136941226217
 30
0
 11
-1050.854228049245
 21
202.6713694122622
 31
0
  0
LINE
  8
1
 62
7
 10
-1052.854228049245
 20
200.6713694122622
 30
0
 11
-1052.854228049245
 21
84.17136941226217
 31
0
  0
LINE
  8
1
 62
7
 10
-698
 20
193.1713694122622
 30
0
 11
-676
 21
193.1713694122622
 31
0
  0
LINE
  8
1
 62
7
 10
-676
 20
193.1713694122622
 30
0
 11
-676
 21
202.1597162944861
 31
0
  0
LINE
  8
1
 62
7
 10
-698
 20
202.1597162944861
 30
0
 11
-698
 21
193.1713694122622
 31
0
  0
LINE
  8
1
 62
7
 10
-786.8967690125038
 20
129.1450899706335
 30
0
 11
-775.8967690125038
 21
148.1976488538911
 31
0
  0
LINE
  8
1
 62
7
 10
-775.8967690125038
 20
148.1976488538911
 30
0
 11
-783.6809057505363
 21
152.691822295003
 31
0
  0
LINE
  8
1
 62
7
 10
-794.6809057505363
 20
133.6392634117455
 30
0
 11
-786.8967690125038
 21
129.1450899706335
 31
0
  0
LINE
  8
1
 62
7
 10
-775.896769012504
 20
20.14508997063354
 30
0
 11
-786.8967690125039
 21
39.19764885389122
 31
0
  0
LINE
  8
1
 62
7
 10
-786.8967690125039
 20
39.19764885389122
 30
0
 11
-794.6809057505365
 21
34.7034754127792
 31
0
  0
LINE
  8
1
 62
7
 10
-783.6809057505365
 20
15.65091652952162
 30
0
 11
-775.896769012504
 21
20.14508997063354
 31
0
  0
LINE
  8
1
 62
7
 10
-676.0000000000002
 20
-24.82863058773785
 30
0
 11
-698.0000000000002
 21
-24.82863058773773
 31
0
  0
LINE
  8
1
 62
7
 10
-698.0000000000002
 20
-24.82863058773773
 30
0
 11
-698.0000000000002
 21
-33.81697746996167
 31
0
  0
LINE
  8
1
 62
7
 10
-676.0000000000002
 20
-33.81697746996156
 30
0
 11
-676.0000000000002
 21
-24.82863058773785
 31
0
  0
LINE
  8
1
 62
7
 10
-587.1032309874963
 20
39.19764885389077
 30
0
 11
-598.1032309874964
 21
20.14508997063331
 31
0
  0
LINE
  8
1
 62
7
 10
-598.1032309874964
 20
20.14508997063331
 30
0
 11
-590.3190942494638
 21
15.65091652952128
 31
0
  0
LINE
  8
1
 62
7
 10
-579.3190942494639
 20
34.70347541277897
 30
0
 11
-587.1032309874963
 21
39.19764885389077
 31
0
  0
LINE
  8
1
 62
7
 10
-598.1032309874961
 20
148.1976488538909
 30
0
 11
-587.1032309874963
 21
129.1450899706332
 31
0
  0
LINE
  8
1
 62
7
 10
-587.1032309874963
 20
129.1450899706332
 30
0
 11
-579.3190942494637
 21
133.6392634117452
 31
0
  0
LINE
  8
1
 62
7
 10
-590.3190942494637
 20
152.6918222950028
 30
0
 11
-598.1032309874961
 21
148.1976488538909
 31
0
  0
LINE
  8
1
 62
3
  6
DASHDOT
 10
-598.232396112095
 20
135.4213694122622
 30
0
 11
-582.6439388439751
 21
144.4213694122622
 31
0
  0
LINE
  8
1
 62
3
  6
DASHDOT
 10
-791.3560611560249
 20
144.4213694122622
 30
0
 11
-775.767603887905
 21
135.4213694122622
 31
0
  0
LINE
  8
1
 62
3
  6
DASHDOT
 10
-582.6439388439751
 20
23.92136941226221
 30
0
 11
-598.232396112095
 21
32.92136941226221
 31
0
  0
LINE
  8
1
 62
3
  6
DASHDOT
 10
-775.767603887905
 20
32.92136941226221
 30
0
 11
-791.3560611560249
 21
23.92136941226221
 31
0
  0
LINE
  8
1
 62
7
 10
-697
 20
124.1713694122622
 30
0
 11
-697
 21
117.712389074759
 31
0
  0
LINE
  8
1
 62
7
 10
-697
 20
124.1713694122622
 30
0
 11
-677
 21
124.1713694122622
 31
0
  0
LINE
  8
1
 62
7
 10
-677
 20
124.1713694122622
 30
0
 11
-677
 21
117.712389074759
 31
0
  0
LINE
  8
1
 62
7
 10
-688.8999999999999
 20
240.8117115303343
 30
0
 11
-688.8999999999999
 21
245.8117115303343
 31
0
  0
LINE
  8
1
 62
7
 10
-688.7000000000001
 20
240.8117115303343
 30
0
 11
-688.7000000000001
 21
245.8117115303343
 31
0
  0
LINE
  8
1
 62
7
 10
-688.5
 20
240.8117115303343
 30
0
 11
-688.5
 21
245.8117115303343
 31
0
  0
LINE
  8
1
 62
7
 10
-688.3
 20
240.8117115303343
 30
0
 11
-688.3
 21
245.8117115303343
 31
0
  0
LINE
  8
1
 62
7
 10
-688.0999999999999
 20
240.8117115303343
 30
0
 11
-688.0999999999999
 21
245.8117115303343
 31
0
  0
LINE
  8
1
 62
7
 10
-685.8999999999999
 20
240.8117115303343
 30
0
 11
-685.8999999999999
 21
245.8117115303343
 31
0
  0
LINE
  8
1
 62
7
 10
-685.7000000000001
 20
240.8117115303343
 30
0
 11
-685.7000000000001
 21
245.8117115303343
 31
0
  0
LINE
  8
1
 62
7
 10
-685.5
 20
240.8117115303343
 30
0
 11
-685.5
 21
245.8117115303343
 31
0
  0
LINE
  8
1
 62
7
 10
-685.3
 20
240.8117115303343
 30
0
 11
-685.3
 21
245.8117115303343
 31
0
  0
LINE
  8
1
 62
7
 10
-685.0999999999999
 20
240.8117115303343
 30
0
 11
-685.0999999999999
 21
245.8117115303343
 31
0
  0
LINE
  8
1
 62
7
 10
-687
 20
240.8117115303343
 30
0
 11
-684
 21
240.8117115303343
 31
0
  0
LINE
  8
1
 62
7
 10
-687
 20
220.9432482213353
 30
0
 11
-687
 21
202.6713694122622
 31
0
  0
LINE
  8
1
 62
7
 10
-687
 20
240.8117115303343
 30
0
 11
-687
 21
224.6660213181482
 31
0
  0
LINE
  8
1
 62
7
 10
-690
 20
240.8117115303343
 30
0
 11
-690
 21
224.6660213181482
 31
0
  0
LINE
  8
1
 62
7
 10
-690
 20
202.6333886420559
 30
0
 11
-690
 21
220.9432482213353
 31
0
  0
LINE
  8
1
 62
7
 10
-684
 20
220.9432482213353
 30
0
 11
-684
 21
202.6333886420559
 31
0
  0
LINE
  8
1
 62
7
 10
-684
 20
240.8117115303343
 30
0
 11
-684
 21
224.6660213181482
 31
0
  0
LINE
  8
1
 62
7
 10
-690
 20
240.8117115303343
 30
0
 11
-687
 21
240.8117115303343
 31
0
  0
LINE
  8
1
 62
3
 10
-996.854228049245
 20
133.1370766012822
 30
0
 11
-976.4542280492449
 21
35.20566222324221
 31
0
  0
LINE
  8
1
 62
3
 10
-996.854228049245
 20
35.20566222324221
 30
0
 11
-976.4542280492449
 21
133.1370766012822
 31
0
  0
LINE
  8
1
 62
7
 10
-927.854228049245
 20
183.9713694122622
 30
0
 11
-906.2542280492449
 21
183.9713694122622
 31
0
  0
LINE
  8
1
 62
7
 10
-906.2542280492449
 20
183.9713694122622
 30
0
 11
-906.2542280492449
 21
174.3713694122622
 31
0
  0
LINE
  8
1
 62
7
 10
-906.2542280492449
 20
174.3713694122622
 30
0
 11
-927.854228049245
 21
174.3713694122622
 31
0
  0
LINE
  8
1
 62
7
 10
-906.2542280492449
 20
183.9713694122622
 30
0
 11
-902.7901264341073
 21
179.1713694122622
 31
0
  0
LINE
  8
1
 62
7
 10
-902.7901264341073
 20
179.1713694122622
 30
0
 11
-906.2542280492449
 21
174.3713694122622
 31
0
  0
LINE
  8
1
 62
3
 10
-927.854228049245
 20
185.1713694122622
 30
0
 11
-915.854228049245
 21
185.1713694122622
 31
0
  0
LINE
  8
1
 62
3
 10
-915.854228049245
 20
185.1713694122622
 30
0
 11
-915.854228049245
 21
173.1713694122622
 31
0
  0
LINE
  8
1
 62
3
 10
-915.854228049245
 20
173.1713694122622
 30
0
 11
-927.854228049245
 21
173.1713694122622
 31
0
  0
LINE
  8
1
 62
3
 10
-915.854228049245
 20
185.1713694122622
 30
0
 11
-913.7757670801623
 21
183.9713694122622
 31
0
  0
LINE
  8
1
 62
3
 10
-915.854228049245
 20
173.1713694122622
 30
0
 11
-913.7757670801623
 21
174.3713694122622
 31
0
  0
LINE
  8
1
 62
3
  6
DASHDOT
 10
-929.854228049245
 20
179.1713694122622
 30
0
 11
-900.7901264341073
 21
179.1713694122622
 31
0
  0
LINE
  8
1
 62
7
 10
-906.2542280492449
 20
-15.62863058773786
 30
0
 11
-927.854228049245
 21
-15.62863058773783
 31
0
  0
LINE
  8
1
 62
7
 10
-906.2542280492449
 20
-6.028630587737837
 30
0
 11
-906.2542280492449
 21
-15.62863058773786
 31
0
  0
LINE
  8
1
 62
7
 10
-927.854228049245
 20
-6.028630587737837
 30
0
 11
-906.2542280492449
 21
-6.028630587737837
 31
0
  0
LINE
  8
1
 62
7
 10
-902.7901264341073
 20
-10.82863058773785
 30
0
 11
-906.2542280492449
 21
-15.62863058773786
 31
0
  0
LINE
  8
1
 62
7
 10
-906.2542280492449
 20
-6.028630587737837
 30
0
 11
-902.7901264341073
 21
-10.82863058773785
 31
0
  0
LINE
  8
1
 62
3
 10
-915.854228049245
 20
-16.82863058773785
 30
0
 11
-927.854228049245
 21
-16.82863058773785
 31
0
  0
LINE
  8
1
 62
3
 10
-915.854228049245
 20
-4.828630587737848
 30
0
 11
-915.854228049245
 21
-16.82863058773785
 31
0
  0
LINE
  8
1
 62
3
 10
-927.854228049245
 20
-4.828630587737848
 30
0
 11
-915.854228049245
 21
-4.828630587737848
 31
0
  0
LINE
  8
1
 62
3
 10
-913.7757670801623
 20
-15.62863058773786
 30
0
 11
-915.854228049245
 21
-16.82863058773785
 31
0
  0
LINE
  8
1
 62
3
 10
-913.7757670801623
 20
-6.028630587737837
 30
0
 11
-915.854228049245
 21
-4.828630587737848
 31
0
  0
LINE
  8
1
 62
3
  6
DASHDOT
 10
-900.7901264341073
 20
-10.82863058773785
 30
0
 11
-929.854228049245
 21
-10.82863058773785
 31
0
  0
ARC
  8
1
 62
7
 10
-906.104228049245
 20
223.7064833050402
 30
0
 40
0.8125
 50
202.6198649480404
 51
337.3801350519596
  0
ARC
  8
1
 62
7
 10
-907.604228049245
 20
223.0814833050402
 30
0
 40
0.8125
 50
22.61986494804043
 51
157.3801350519596
  0
ARC
  8
1
 62
7
 10
-907.604228049245
 20
223.7064833050402
 30
0
 40
0.8125
 50
202.6198649480404
 51
337.3801350519596
  0
ARC
  8
1
 62
7
 10
-906.104228049245
 20
221.2557482213353
 30
0
 40
0.8125
 50
202.6198649480404
 51
337.3801350519596
  0
ARC
  8
1
 62
7
 10
-906.104228049245
 20
220.6307482213353
 30
0
 40
0.8125
 50
22.61986494804043
 51
157.3801350519596
  0
ARC
  8
1
 62
7
 10
-907.604228049245
 20
220.6307482213353
 30
0
 40
0.8125
 50
22.61986494804043
 51
157.3801350519596
  0
ARC
  8
1
 62
7
 10
-1202.521349412275
 20
224.0410213181482
 30
0
 40
1.625
 50
22.61986494804043
 51
157.3801350519596
  0
ARC
  8
1
 62
7
 10
-1199.521349412275
 20
225.2910213181482
 30
0
 40
1.625
 50
202.6198649480404
 51
337.3801350519596
  0
ARC
  8
1
 62
7
 10
-1202.521349412275
 20
225.2910213181482
 30
0
 40
1.625
 50
202.6198649480404
 51
337.3801350519596
  0
ARC
  8
1
 62
7
 10
-1199.521349412275
 20
221.5682482213353
 30
0
 40
1.625
 50
202.6198649480404
 51
337.3801350519596
  0
ARC
  8
1
 62
7
 10
-1199.521349412275
 20
220.3182482213353
 30
0
 40
1.625
 50
22.61986494804043
 51
157.3801350519596
  0
ARC
  8
1
 62
7
 10
-1202.521349412275
 20
220.3182482213353
 30
0
 40
1.625
 50
22.61986494804043
 51
157.3801350519596
  0
ARC
  8
1
 62
7
 10
-1201.021349412275
 20
84.17136941226217
 30
0
 40
34.99999999999999
 50
106.6015495990203
 51
73.39845040097976
  0
ARC
  8
1
 62
7
 10
-1031.104228049245
 20
223.7064833050402
 30
0
 40
0.8125
 50
202.6198649480404
 51
337.3801350519596
  0
ARC
  8
1
 62
7
 10
-1032.604228049245
 20
223.0814833050402
 30
0
 40
0.8125
 50
22.61986494804043
 51
157.3801350519596
  0
ARC
  8
1
 62
7
 10
-1032.604228049245
 20
223.7064833050402
 30
0
 40
0.8125
 50
202.6198649480404
 51
337.3801350519596
  0
ARC
  8
1
 62
7
 10
-1031.104228049245
 20
221.2557482213353
 30
0
 40
0.8125
 50
202.6198649480404
 51
337.3801350519596
  0
ARC
  8
1
 62
7
 10
-1031.104228049245
 20
220.6307482213353
 30
0
 40
0.8125
 50
22.61986494804043
 51
157.3801350519596
  0
ARC
  8
1
 62
7
 10
-1032.604228049245
 20
220.6307482213353
 30
0
 40
0.8125
 50
22.61986494804043
 51
157.3801350519596
  0
ARC
  8
1
 62
7
 10
-687
 20
84.17136941226217
 30
0
 40
110
 50
84.26082952273322
 51
95.73917047726677
  0
ARC
  8
1
 62
7
 10
-687
 20
84.17136941226217
 30
0
 40
110.0000000000001
 50
144.2608295227332
 51
155.7391704772667
  0
ARC
  8
1
 62
7
 10
-687
 20
84.17136941226217
 30
0
 40
110
 50
204.2608295227331
 51
215.7391704772666
  0
ARC
  8
1
 62
7
 10
-687
 20
84.17136941226217
 30
0
 40
109.9999999999998
 50
264.2608295227331
 51
275.7391704772666
  0
ARC
  8
1
 62
7
 10
-687
 20
84.17136941226217
 30
0
 40
109.9999999999998
 50
324.2608295227331
 51
335.7391704772667
  0
ARC
  8
1
 62
7
 10
-687
 20
84.17136941226217
 30
0
 40
109.9999999999998
 50
24.26082952273312
 51
35.73917047726671
  0
ARC
  8
1
 62
7
 10
-687
 20
84.17136941226217
 30
0
 40
34.99999999999999
 50
106.6015495990203
 51
73.39845040097976
  0
ARC
  8
1
 62
7
 10
-688.5
 20
224.0410213181482
 30
0
 40
1.625
 50
22.61986494804043
 51
157.3801350519596
  0
ARC
  8
1
 62
7
 10
-685.5
 20
225.2910213181482
 30
0
 40
1.625
 50
202.6198649480404
 51
337.3801350519596
  0
ARC
  8
1
 62
7
 10
-688.5
 20
225.2910213181482
 30
0
 40
1.625
 50
202.6198649480404
 51
337.3801350519596
  0
ARC
  8
1
 62
7
 10
-685.5
 20
221.5682482213353
 30
0
 40
1.625
 50
202.6198649480404
 51
337.3801350519596
  0
ARC
  8
1
 62
7
 10
-685.5
 20
220.3182482213353
 30
0
 40
1.625
 50
22.61986494804043
 51
157.3801350519596
  0
ARC
  8
1
 62
7
 10
-688.5
 20
220.3182482213353
 30
0
 40
1.625
 50
22.61986494804043
 51
157.3801350519596
  0
ARC
  8
1
 62
7
 10
-687
 20
84.17136941226217
 30
0
 40
117.5
 50
35.37172621480059
 51
84.62827378519936
  0
ARC
  8
1
 62
7
 10
-687
 20
84.17136941226217
 30
0
 40
117.5
 50
155.3717262148006
 51
180
  0
ARC
  8
1
 62
7
 10
-687
 20
84.17136941226217
 30
0
 40
117.5
 50
95.37172621480066
 51
144.6282737851992
  0
ARC
  8
1
 62
7
 10
-687
 20
84.17136941226217
 30
0
 40
117.5
 50
180
 51
204.6282737851992
  0
ARC
  8
1
 62
7
 10
-687
 20
84.17136941226217
 30
0
 40
117.5
 50
215.3717262148005
 51
264.6282737851993
  0
ARC
  8
1
 62
7
 10
-687
 20
84.17136941226217
 30
0
 40
117.5
 50
275.3717262148006
 51
324.6282737851992
  0
ARC
  8
1
 62
7
 10
-687
 20
84.17136941226217
 30
0
 40
117.5
 50
335.3717262148006
 51
24.62827378519929
  0
CIRCLE
  8
1
 62
3
 10
-1118.748936052753
 20
131.671369412262
 30
0
 40
6.00000000000005
  0
CIRCLE
  8
1
 62
3
 10
-1118.748936052754
 20
36.6713694122621
 30
0
 40
5.999999999999994
  0
CIRCLE
  8
1
 62
3
 10
-1201.021349412275
 20
-10.82863058773784
 30
0
 40
6
  0
CIRCLE
  8
1
 62
3
 10
-1283.293762771797
 20
36.67136941226218
 30
0
 40
6
  0
CIRCLE
  8
1
 62
3
 10
-1283.293762771797
 20
131.6713694122622
 30
0
 40
6.000000000000061
  0
CIRCLE
  8
1
 62
7
 10
-1118.748936052753
 20
131.671369412262
 30
0
 40
5.000000000000091
  0
CIRCLE
  8
1
 62
7
 10
-1118.748936052754
 20
36.6713694122621
 30
0
 40
4.999999999999998
  0
CIRCLE
  8
1
 62
7
 10
-1201.021349412275
 20
-10.82863058773784
 30
0
 40
5
  0
CIRCLE
  8
1
 62
7
 10
-1283.293762771797
 20
36.67136941226218
 30
0
 40
5.000000000000004
  0
CIRCLE
  8
1
 62
7
 10
-1283.293762771797
 20
131.6713694122622
 30
0
 40
5.000000000000103
  0
CIRCLE
  8
1
 62
7
 10
-1201.021349412275
 20
179.1713694122622
 30
0
 40
5
  0
CIRCLE
  8
1
 62
3
 10
-1201.021349412275
 20
179.1713694122622
 30
0
 40
6
  0
CIRCLE
  8
1
 62
7
 10
-1201.021349412275
 20
84.17136941226217
 30
0
 40
118.5
  0
CIRCLE
  8
1
 62
3
  6
DASHDOT
 10
-1201.021349412275
 20
84.17136941226217
 30
0
 40
95.00000000000004
  0
CIRCLE
  8
1
 62
7
 10
-1201.021349412275
 20
84.17136941226217
 30
0
 40
64.00000000000004
  0
CIRCLE
  8
1
 62
7
 10
-1201.021349412275
 20
84.17136941226217
 30
0
 40
116.5
  0
CIRCLE
  8
1
 62
7
 10
-1201.021349412275
 20
84.17136941226217
 30
0
 40
66
  0
CIRCLE
  8
1
 62
7
 10
-1201.021349412275
 20
84.17136941226217
 30
0
 40
45
  0
CIRCLE
  8
1
 62
7
 10
-687
 20
84.17136941226217
 30
0
 40
118.5
  0
CIRCLE
  8
1
 62
7
 10
-687
 20
84.17136941226217
 30
0
 40
107.5
  0
CIRCLE
  8
1
 62
7
 10
-687
 20
84.17136941226217
 30
0
 40
104.5
  0
CIRCLE
  8
1
 62
7
 10
-687
 20
84.17136941226217
 30
0
 40
55
  0
CIRCLE
  8
1
 62
7
 10
-687
 20
84.17136941226217
 30
0
 40
54
  0
CIRCLE
  8
1
 62
7
 10
-687
 20
84.17136941226217
 30
0
 40
67
  0
TEXT
  8
1
 62
7
 10
-1312.73572094917
 20
226.143419237341
 30
0
 40
10
  1
DC4227
 41
0.9
  7
SIMPLEX
 72
1
 11
-1285.73572094917
 21
226.143419237341
 31
0
  0
TEXT
  8
1
 62
7
 10
-1313.4481874087
 20
243.208403605253
 30
0
 40
10
  1
MDB 80
 41
0.9
  7
SIMPLEX
 72
1
 11
-1286.4481874087
 21
243.208403605253
 31
0
  0
ENDSEC
  0
EOF
