  0
SECTION
  2
HEADER
  9
$ACADVER
  1
AC1009
  9
$INSBASE
 10
0.0
 20
0.0
 30
0.0
  9
$EXTMIN
 10
-1150.63183125818
 20
-171.68955441398359
 30
0.0
  9
$EXTMAX
 10
-559.34549989723416
 20
42.877935016007221
 30
0.0
  9
$LIMMIN
 10
-1150.63183125818
 20
-169.66616347488781
  9
$LIMMAX
 10
-559.34549989723405
 20
42.8779350160072
  9
$ORTHOMODE
 70
     0
  9
$REGENMODE
 70
     1
  9
$FILLMODE
 70
     1
  9
$QTEXTMODE
 70
     0
  9
$MIRRTEXT
 70
     1
  9
$DRAGMODE
 70
     2
  9
$LTSCALE
 40
1.0
  9
$OSMODE
 70
    37
  9
$ATTMODE
 70
     1
  9
$TEXTSIZE
 40
3.5
  9
$TRACEWID
 40
0.5
  9
$TEXTSTYLE
  7
STANDARD
  9
$CLAYER
  8
0
  9
$CELTYPE
  6
BYLAYER
  9
$CECOLOR
 62
   256
  9
$DIMSCALE
 40
1.0
  9
$DIMASZ
 40
0.18
  9
$DIMEXO
 40
0.0625
  9
$DIMDLI
 40
0.38
  9
$DIMRND
 40
0.0
  9
$DIMDLE
 40
0.0
  9
$DIMEXE
 40
0.18
  9
$DIMTP
 40
0.0
  9
$DIMTM
 40
0.0
  9
$DIMTXT
 40
0.18
  9
$DIMCEN
 40
0.09
  9
$DIMTSZ
 40
0.0
  9
$DIMTOL
 70
     0
  9
$DIMLIM
 70
     0
  9
$DIMTIH
 70
     1
  9
$DIMTOH
 70
     1
  9
$DIMSE1
 70
     0
  9
$DIMSE2
 70
     0
  9
$DIMTAD
 70
     0
  9
$DIMZIN
 70
     0
  9
$DIMBLK
  1

  9
$DIMASO
 70
     1
  9
$DIMSHO
 70
     1
  9
$DIMPOST
  1

  9
$DIMAPOST
  1

  9
$DIMALT
 70
     0
  9
$DIMALTD
 70
     2
  9
$DIMALTF
 40
25.399999999999999
  9
$DIMLFAC
 40
1.0
  9
$DIMTOFL
 70
     0
  9
$DIMTVP
 40
0.0
  9
$DIMTIX
 70
     0
  9
$DIMSOXD
 70
     0
  9
$DIMSAH
 70
     0
  9
$DIMBLK1
  1

  9
$DIMBLK2
  1

  9
$DIMSTYLE
  2
STANDARD
  9
$DIMCLRD
 70
     0
  9
$DIMCLRE
 70
     0
  9
$DIMCLRT
 70
     0
  9
$DIMTFAC
 40
1.0
  9
$DIMGAP
 40
0.09
  9
$LUNITS
 70
     2
  9
$LUPREC
 70
     4
  9
$SKETCHINC
 40
0.1
  9
$FILLETRAD
 40
2.0
  9
$AUNITS
 70
     0
  9
$AUPREC
 70
     0
  9
$MENU
  1
ACAD
  9
$ELEVATION
 40
0.0
  9
$PELEVATION
 40
0.0
  9
$THICKNESS
 40
0.0
  9
$LIMCHECK
 70
     0
  9
$BLIPMODE
 70
     0
  9
$CHAMFERA
 40
0.0
  9
$CHAMFERB
 40
0.0
  9
$SKPOLY
 70
     0
  9
$TDCREATE
 40
2452095.0061422451
  9
$TDUPDATE
 40
2452095.0073481482
  9
$TDINDWG
 40
0.0012230324
  9
$TDUSRTIMER
 40
0.0012230324
  9
$USRTIMER
 70
     1
  9
$ANGBASE
 50
0.0
  9
$ANGDIR
 70
     0
  9
$PDMODE
 70
     0
  9
$PDSIZE
 40
0.0
  9
$PLINEWID
 40
0.0
  9
$COORDS
 70
     1
  9
$SPLFRAME
 70
     0
  9
$SPLINETYPE
 70
     6
  9
$SPLINESEGS
 70
     8
  9
$ATTDIA
 70
     0
  9
$ATTREQ
 70
     1
  9
$HANDLING
 70
 10241
  9
$HANDSEED
  5
16E
  9
$SURFTAB1
 70
     6
  9
$SURFTAB2
 70
     6
  9
$SURFTYPE
 70
     6
  9
$SURFU
 70
     6
  9
$SURFV
 70
     6
  9
$UCSNAME
  2

  9
$UCSORG
 10
0.0
 20
0.0
 30
0.0
  9
$UCSXDIR
 10
1.0
 20
0.0
 30
0.0
  9
$UCSYDIR
 10
0.0
 20
1.0
 30
0.0
  9
$PUCSNAME
  2

  9
$PUCSORG
 10
0.0
 20
0.0
 30
0.0
  9
$PUCSXDIR
 10
1.0
 20
0.0
 30
0.0
  9
$PUCSYDIR
 10
0.0
 20
1.0
 30
0.0
  9
$USERI1
 70
     0
  9
$USERI2
 70
     0
  9
$USERI3
 70
     0
  9
$USERI4
 70
     0
  9
$USERI5
 70
     0
  9
$USERR1
 40
0.0
  9
$USERR2
 40
0.0
  9
$USERR3
 40
0.0
  9
$USERR4
 40
0.0
  9
$USERR5
 40
0.0
  9
$WORLDVIEW
 70
     1
  9
$SHADEDGE
 70
     3
  9
$SHADEDIF
 70
    70
  9
$TILEMODE
 70
     1
  9
$MAXACTVP
 70
    64
  9
$PLIMCHECK
 70
     0
  9
$PEXTMIN
 10
1.0000000000000000E+020
 20
1.0000000000000000E+020
 30
1.0000000000000000E+020
  9
$PEXTMAX
 10
-1.0000000000000000E+020
 20
-1.0000000000000000E+020
 30
-1.0000000000000000E+020
  9
$PLIMMIN
 10
0.0
 20
0.0
  9
$PLIMMAX
 10
12.0
 20
9.0
  9
$UNITMODE
 70
     0
  9
$VISRETAIN
 70
     1
  9
$PLINEGEN
 70
     0
  9
$PSLTSCALE
 70
     1
  0
ENDSEC
  0
SECTION
  2
TABLES
  0
TABLE
  2
VPORT
 70
     2
  0
VPORT
  2
*ACTIVE
 70
     0
 10
0.0
 20
0.0
 11
1.0
 21
1.0
 12
-1141.423472228174
 22
29.438877857967881
 13
0.0
 23
0.0
 14
1.0
 24
1.0
 15
0.0
 25
0.0
 16
0.0
 26
0.0
 36
1.0
 17
0.0
 27
0.0
 37
0.0
 40
8.959641920198214
 41
2.425339366515836
 42
50.0
 43
0.0
 44
0.0
 50
0.0
 51
0.0
 71
     0
 72
   100
 73
     1
 74
     1
 75
     0
 76
     0
 77
     0
 78
     0
  0
ENDTAB
  0
TABLE
  2
LTYPE
 70
     9
  0
LTYPE
  2
CONTINUOUS
 70
     0
  3
Solid line
 72
    65
 73
     0
 40
0.0
  0
LTYPE
  2
BORDER
 70
     0
  3
__ __ . __ __ .
 72
    65
 73
     6
 40
27.230291575833029
 49
7.7800833073808651
 49
-3.890041653690433
 49
7.7800833073808651
 49
-3.890041653690433
 49
0.0
 49
-3.890041653690433
  0
LTYPE
  2
CENTER
 70
     0
  3
____ _ ____ _
 72
    65
 73
     4
 40
31.12033322952346
 49
19.450208268452169
 49
-3.890041653690433
 49
3.890041653690433
 49
-3.890041653690433
  0
LTYPE
  2
DASHDOT
 70
     0
  3
__ . __ . __ .
 72
    65
 73
     4
 40
15.56016661476173
 49
7.7800833073808651
 49
-3.890041653690433
 49
0.0
 49
-3.890041653690433
  0
LTYPE
  2
DASHED
 70
     0
  3
__ __ __ __ __
 72
    65
 73
     2
 40
11.67012496107129
 49
7.7800833073808651
 49
-3.890041653690433
  0
LTYPE
  2
DIVIDE
 70
     0
  3
__ . . __ . . 
 72
    65
 73
     6
 40
19.450208268452169
 49
7.7800833073808651
 49
-3.890041653690433
 49
0.0
 49
-3.890041653690433
 49
0.0
 49
-3.890041653690433
  0
LTYPE
  2
DOT
 70
     0
  3
..............
 72
    65
 73
     4
 40
7.7800833073808651
 49
0.0
 49
-3.890041653690433
 49
0.0
 49
-3.890041653690433
  0
LTYPE
  2
HIDDEN
 70
     0
  3
_ _ _ _ _ _ _
 72
    65
 73
     2
 40
5.8350624805356466
 49
3.890041653690433
 49
-1.945020826845216
  0
LTYPE
  2
PHANTOM
 70
     0
  3
_____ _ _ _____ _ _ 
 72
    65
 73
     6
 40
38.900416536904331
 49
19.450208268452169
 49
-3.890041653690433
 49
3.890041653690433
 49
-3.890041653690433
 49
3.890041653690433
 49
-3.890041653690433
  0
ENDTAB
  0
TABLE
  2
LAYER
 70
     2
  0
LAYER
  2
0
 70
     0
 62
     7
  6
CONTINUOUS
  0
LAYER
  2
1
 70
     0
 62
     7
  6
CONTINUOUS
  0
ENDTAB
  0
TABLE
  2
STYLE
 70
     4
  0
STYLE
  2
STANDARD
 70
     0
 40
0.0
 41
1.0
 50
0.0
 71
     0
 42
3.5
  3
txt
  4

  0
STYLE
  2
SIMPLEX
 70
     0
 40
0.0
 41
1.0
 50
0.0
 71
     0
 42
3.5
  3
simplex
  4

  0
STYLE
  2
COMPLEX
 70
     0
 40
0.0
 41
1.0
 50
0.0
 71
     0
 42
3.5
  3
complex
  4

  0
STYLE
  2
ITALIC
 70
     0
 40
0.0
 41
1.0
 50
0.0
 71
     0
 42
3.5
  3
italic
  4

  0
ENDTAB
  0
TABLE
  2
VIEW
 70
     0
  0
ENDTAB
  0
TABLE
  2
UCS
 70
     0
  0
ENDTAB
  0
TABLE
  2
APPID
 70
     1
  0
APPID
  2
ACAD
 70
     0
  0
ENDTAB
  0
TABLE
  2
DIMSTYLE
 70
     1
  0
DIMSTYLE
  2
STANDARD
 70
     0
  3

  4

  5

  6

  7

 40
1.0
 41
0.18
 42
0.0625
 43
0.38
 44
0.18
 45
0.0
 46
0.0
 47
0.0
 48
0.0
140
0.18
141
0.09
142
0.0
143
25.399999999999999
144
1.0
145
0.0
146
1.0
147
0.09
 71
     0
 72
     0
 73
     1
 74
     1
 75
     0
 76
     0
 77
     0
 78
     0
170
     0
171
     2
172
     0
173
     0
174
     0
175
     0
176
     0
177
     0
178
     0
  0
ENDTAB
  0
ENDSEC
  0
SECTION
  2
BLOCKS
  0
BLOCK
  8
0
  2
$MODEL_SPACE
 70
     0
 10
0.0
 20
0.0
 30
0.0
  3
$MODEL_SPACE
  1

  0
ENDBLK
  5
20
  8
0
  0
BLOCK
 67
     1
  8
0
  2
$PAPER_SPACE
 70
     0
 10
0.0
 20
0.0
 30
0.0
  3
$PAPER_SPACE
  1

  0
ENDBLK
  5
1C
 67
     1
  8
0
  0
ENDSEC
  0
SECTION
  2
ENTITIES
  0
LINE
  5
33
  8
1
 62
     7
 10
-809.84549989723405
 20
-142.44827725040901
 30
0.0
 11
-809.84549989723405
 21
-124.19827725040891
 31
0.0
  0
LINE
  5
34
  8
1
 62
     7
 10
-808.24549989723391
 20
-137.69827725040901
 30
0.0
 11
-808.24549989723391
 21
-128.69827725040901
 31
0.0
  0
LINE
  5
35
  8
1
 62
     7
 10
-795.44549989723419
 20
-137.69827725040901
 30
0.0
 11
-795.44549989723419
 21
-128.69827725040901
 31
0.0
  0
LINE
  5
36
  8
1
 62
     7
 10
-793.84549989723405
 20
-140.69827725040901
 30
0.0
 11
-809.84549989723405
 21
-140.69827725040901
 31
0.0
  0
LINE
  5
37
  8
1
 62
     7
 10
-809.84549989723405
 20
-125.69827725040891
 30
0.0
 11
-793.84549989723405
 21
-125.69827725040891
 31
0.0
  0
LINE
  5
38
  8
1
 62
     7
 10
-793.84549989723405
 20
-125.69827725040891
 30
0.0
 11
-793.84549989723405
 21
-140.69827725040901
 31
0.0
  0
LINE
  5
39
  8
1
 62
     7
 10
-799.59549989723405
 20
-137.09539156743901
 30
0.0
 11
-793.84549989723405
 21
-137.09539156743901
 31
0.0
  0
LINE
  5
3A
  8
1
 62
     7
 10
-804.09549989723416
 20
-137.09539156743901
 30
0.0
 11
-809.84549989723405
 21
-137.09539156743901
 31
0.0
  0
LINE
  5
3B
  8
1
 62
     7
 10
-804.09549989723416
 20
-129.301162933379
 30
0.0
 11
-809.84549989723405
 21
-129.301162933379
 31
0.0
  0
LINE
  5
3C
  8
1
 62
     7
 10
-799.59549989723405
 20
-129.301162933379
 30
0.0
 11
-793.84549989723405
 21
-129.301162933379
 31
0.0
  0
LINE
  5
3D
  8
1
 62
     7
 10
-808.24549989723391
 20
-72.698277250409006
 30
0.0
 11
-808.24549989723391
 21
-63.698277250409006
 31
0.0
  0
LINE
  5
3E
  8
1
 62
     7
 10
-795.44549989723419
 20
-72.698277250409006
 30
0.0
 11
-795.44549989723419
 21
-63.698277250409006
 31
0.0
  0
LINE
  5
3F
  8
1
 62
     7
 10
-793.84549989723405
 20
-75.698277250409006
 30
0.0
 11
-809.84549989723405
 21
-75.698277250409006
 31
0.0
  0
LINE
  5
40
  8
1
 62
     7
 10
-809.84549989723405
 20
-60.698277250409021
 30
0.0
 11
-793.84549989723405
 21
-60.698277250409021
 31
0.0
  0
LINE
  5
41
  8
1
 62
     7
 10
-793.84549989723405
 20
-60.698277250409021
 30
0.0
 11
-793.84549989723405
 21
-75.698277250409006
 31
0.0
  0
LINE
  5
42
  8
1
 62
     7
 10
-809.84549989723405
 20
-77.198277250409006
 30
0.0
 11
-809.84549989723405
 21
-58.948277250409006
 31
0.0
  0
LINE
  5
43
  8
1
 62
     7
 10
-799.59549989723405
 20
-72.09539156743898
 30
0.0
 11
-793.84549989723405
 21
-72.095391567438952
 31
0.0
  0
LINE
  5
44
  8
1
 62
     7
 10
-804.09549989723416
 20
-72.09539156743898
 30
0.0
 11
-809.84549989723405
 21
-72.095391567438952
 31
0.0
  0
LINE
  5
45
  8
1
 62
     7
 10
-804.09549989723416
 20
-64.301162933379032
 30
0.0
 11
-809.84549989723405
 21
-64.301162933379061
 31
0.0
  0
LINE
  5
46
  8
1
 62
     7
 10
-799.59549989723405
 20
-64.301162933379032
 30
0.0
 11
-793.84549989723405
 21
-64.301162933379061
 31
0.0
  0
LINE
  5
47
  8
1
  6
DASHDOT
 62
     3
 10
-949.21784323944098
 20
-20.69827725040901
 30
0.0
 11
-944.13855718675006
 21
-20.69827725040901
 31
0.0
  0
LINE
  5
48
  8
1
 62
     7
 10
-639.88336652780879
 20
-36.319317691935048
 30
0.0
 11
-646.44454340856282
 21
-11.832672215514551
 31
0.0
  0
LINE
  5
49
  8
1
 62
     7
 10
-648.98492833170303
 20
-12.51336630413418
 30
0.0
 11
-646.44454340856282
 21
-11.832672215514551
 31
0.0
  0
LINE
  5
4A
  8
1
 62
     7
 10
-648.34324424547617
 20
-12.34142757143378
 30
0.0
 11
-649.63733947098876
 21
-7.5117984399884383
 31
0.0
  0
LINE
  5
4B
  8
1
 62
     7
 10
-647.98413998562273
 20
-12.245205875007491
 30
0.0
 11
-649.27823521113521
 21
-7.4155767435621431
 31
0.0
  0
LINE
  5
4C
  8
1
 62
     7
 10
-647.16167539047603
 20
-12.02482715093474
 30
0.0
 11
-648.45577061598863
 21
-7.1951980194893936
 31
0.0
  0
LINE
  5
4D
  8
1
 62
     7
 10
-647.39335555812283
 20
-12.08690566475798
 30
0.0
 11
-648.68745078363509
 21
-7.2572765333126368
 31
0.0
  0
LINE
  5
4E
  8
1
 62
     7
 10
-647.71473587013293
 20
-12.173019259824359
 30
0.0
 11
-649.00883109564552
 21
-7.3433901283790206
 31
0.0
  0
LINE
  5
4F
  8
1
 62
     7
 10
-651.50599473831733
 20
-13.188884011851711
 30
0.0
 11
-648.96560981517712
 21
-12.508189923232081
 31
0.0
  0
LINE
  5
50
  8
1
 62
     7
 10
-650.86431065209058
 20
-13.01694527915131
 30
0.0
 11
-652.15840587760306
 21
-8.1873161477059728
 31
0.0
  0
LINE
  5
51
  8
1
 62
     7
 10
-650.50520639223714
 20
-12.92072358272501
 30
0.0
 11
-651.79930161774973
 21
-8.0910944512796732
 31
0.0
  0
LINE
  5
52
  8
1
 62
     7
 10
-649.68274179709033
 20
-12.70034485865227
 30
0.0
 11
-650.97683702260304
 21
-7.8707157272069272
 31
0.0
  0
LINE
  5
53
  8
1
 62
     7
 10
-649.91442196473713
 20
-12.76242337247551
 30
0.0
 11
-651.20851719024984
 21
-7.9327942410301677
 31
0.0
  0
LINE
  5
54
  8
1
 62
     7
 10
-650.23580227674734
 20
-12.848536967541889
 30
0.0
 11
-651.52989750225993
 21
-8.0189078360965524
 31
0.0
  0
LINE
  5
55
  8
1
 62
     7
 10
-648.96560981517712
 20
-12.508189923232081
 30
0.0
 11
-642.41789741966238
 21
-36.94458525664146
 31
0.0
  0
LINE
  5
56
  8
1
 62
     7
 10
-651.50599473831733
 20
-13.188884011851711
 30
0.0
 11
-644.94481785756341
 21
-37.675529488272247
 31
0.0
  0
LINE
  5
57
  8
1
 62
     7
 10
-631.34549989723405
 20
-78.198277250409006
 30
0.0
 11
-631.34549989723405
 21
-81.619493222070091
 31
0.0
  0
LINE
  5
58
  8
1
 62
     7
 10
-619.34549989723416
 20
-78.198277250409006
 30
0.0
 11
-619.34549989723416
 21
-81.619493222070091
 31
0.0
  0
LINE
  5
59
  8
1
 62
     7
 10
-631.34549989723405
 20
-78.198277250409006
 30
0.0
 11
-619.34549989723416
 21
-78.198277250409006
 31
0.0
  0
LINE
  5
5A
  8
1
  6
DASHDOT
 62
     3
 10
-575.19600886856654
 20
-71.744455105285098
 30
0.0
 11
-565.61755838152067
 21
-66.214334138169761
 31
0.0
  0
LINE
  5
5B
  8
1
 62
     7
 10
-633.34549989723405
 20
-14.69827725040901
 30
0.0
 11
-633.34549989723405
 21
-35.184919833772199
 31
0.0
  0
LINE
  5
5C
  8
1
 62
     7
 10
-617.34549989723405
 20
-14.69827725040901
 30
0.0
 11
-617.34549989723405
 21
-35.184919833772199
 31
0.0
  0
LINE
  5
5D
  8
1
 62
     7
 10
-631.34549989723405
 20
-12.69827725040901
 30
0.0
 11
-619.34549989723416
 21
-12.69827725040901
 31
0.0
  0
LINE
  5
5E
  8
1
 62
     7
 10
-818.34549989723416
 20
-72.869068617315506
 30
0.0
 11
-818.34549989723416
 21
-57.698277250409006
 31
0.0
  0
LINE
  5
5F
  8
1
 62
     7
 10
-575.51795026638331
 20
-65.002124827702417
 30
0.0
 11
-569.5179502663832
 21
-75.394429673115695
 31
0.0
  0
LINE
  5
60
  8
1
 62
     7
 10
-565.42450201420331
 20
-73.031076222805723
 30
0.0
 11
-569.5179502663832
 21
-75.394429673115695
 31
0.0
  0
LINE
  5
61
  8
1
 62
     7
 10
-571.4245020142032
 20
-62.63877137739243
 30
0.0
 11
-575.51795026638331
 21
-65.002124827702417
 31
0.0
  0
LINE
  5
62
  8
1
 62
     7
 10
-569.5179502663832
 20
-126.0021248277024
 30
0.0
 11
-575.51795026638331
 21
-136.39442967311561
 31
0.0
  0
LINE
  5
63
  8
1
 62
     7
 10
-571.4245020142032
 20
-138.75778312342561
 30
0.0
 11
-575.51795026638331
 21
-136.39442967311561
 31
0.0
  0
LINE
  5
64
  8
1
 62
     7
 10
-565.42450201420331
 20
-128.36547827801229
 30
0.0
 11
-569.5179502663832
 21
-126.0021248277024
 31
0.0
  0
LINE
  5
65
  8
1
 62
     7
 10
-619.34549989723416
 20
-161.69827725040901
 30
0.0
 11
-631.34549989723405
 21
-161.69827725040901
 31
0.0
  0
LINE
  5
66
  8
1
 62
     7
 10
-631.34549989723405
 20
-166.42498415102881
 30
0.0
 11
-631.34549989723405
 21
-161.69827725040901
 31
0.0
  0
LINE
  5
67
  8
1
 62
     7
 10
-619.34549989723416
 20
-166.42498415102881
 30
0.0
 11
-619.34549989723416
 21
-161.69827725040901
 31
0.0
  0
LINE
  5
68
  8
1
 62
     7
 10
-675.17304952808456
 20
-136.39442967311561
 30
0.0
 11
-681.17304952808468
 21
-126.0021248277024
 31
0.0
  0
LINE
  5
69
  8
1
 62
     7
 10
-685.2664977802649
 20
-128.36547827801229
 30
0.0
 11
-681.17304952808468
 21
-126.0021248277024
 31
0.0
  0
LINE
  5
6A
  8
1
 62
     7
 10
-679.26649778026479
 20
-138.75778312342561
 30
0.0
 11
-675.17304952808456
 21
-136.39442967311561
 31
0.0
  0
LINE
  5
6B
  8
1
 62
     7
 10
-681.17304952808468
 20
-75.394429673115624
 30
0.0
 11
-675.17304952808456
 21
-65.00212482770236
 31
0.0
  0
LINE
  5
6C
  8
1
 62
     7
 10
-679.26649778026479
 20
-62.638771377392388
 30
0.0
 11
-675.17304952808456
 21
-65.00212482770236
 31
0.0
  0
LINE
  5
6D
  8
1
 62
     7
 10
-685.2664977802649
 20
-73.031076222805666
 30
0.0
 11
-681.17304952808468
 21
-75.394429673115624
 31
0.0
  0
LINE
  5
6E
  8
1
 62
     7
 10
-631.34549989723405
 20
-39.698277250408999
 30
0.0
 11
-619.34549989723416
 21
-39.698277250408999
 31
0.0
  0
LINE
  5
6F
  8
1
 62
     7
 10
-619.34549989723416
 20
-34.971570349789069
 30
0.0
 11
-619.34549989723416
 21
-39.698277250408999
 31
0.0
  0
LINE
  5
70
  8
1
 62
     7
 10
-631.34549989723405
 20
-34.971570349789069
 30
0.0
 11
-631.34549989723405
 21
-39.698277250408999
 31
0.0
  0
LINE
  5
71
  8
1
 62
     7
 10
-768.34549989723405
 20
-80.698277250409006
 30
0.0
 11
-755.34549989723405
 21
-80.698277250409006
 31
0.0
  0
LINE
  5
72
  8
1
 62
     7
 10
-755.34549989723405
 20
-78.198277250409006
 30
0.0
 11
-818.34549989723416
 21
-78.198277250409006
 31
0.0
  0
LINE
  5
73
  8
1
 62
     7
 10
-818.24549989723414
 20
-23.94827725040901
 30
0.0
 11
-815.24549989723403
 21
-23.94827725040901
 31
0.0
  0
LINE
  5
74
  8
1
 62
     7
 10
-818.24549989723414
 20
-17.44827725040901
 30
0.0
 11
-815.24549989723403
 21
-17.44827725040901
 31
0.0
  0
LINE
  5
75
  8
1
  6
DASHDOT
 62
     3
 10
-819.21784323944098
 20
-20.69827725040901
 30
0.0
 11
-814.13855718674995
 21
-20.69827725040901
 31
0.0
  0
LINE
  5
76
  8
1
 62
     7
 10
-815.24549989723403
 20
-12.69827725040901
 30
0.0
 11
-818.24549989723414
 21
-12.69827725040901
 31
0.0
  0
LINE
  5
77
  8
1
 62
     7
 10
-818.24549989723414
 20
-12.69827725040901
 30
0.0
 11
-818.24549989723414
 21
-57.698277250409006
 31
0.0
  0
LINE
  5
78
  8
1
 62
     7
 10
-815.24549989723403
 20
-57.698277250409006
 30
0.0
 11
-818.34549989723416
 21
-57.698277250409006
 31
0.0
  0
LINE
  5
79
  8
1
 62
     7
 10
-808.66049989723399
 20
-9.3998599842219406
 30
0.0
 11
-806.03049989723411
 21
-9.3998599842219406
 31
0.0
  0
LINE
  5
7A
  8
1
 62
     7
 10
-806.69482014705295
 20
-4.3998599842219406
 30
0.0
 11
-806.69482014705295
 21
-9.3998599842219406
 31
0.0
  0
LINE
  5
7B
  8
1
 62
     7
 10
-807.06659223356303
 20
-4.3998599842219406
 30
0.0
 11
-807.06659223356303
 21
-9.3998599842219406
 31
0.0
  0
LINE
  5
7C
  8
1
 62
     7
 10
-807.91807023814897
 20
-4.3998599842219406
 30
0.0
 11
-807.91807023814897
 21
-9.3998599842219406
 31
0.0
  0
LINE
  5
7D
  8
1
 62
     7
 10
-807.67821727911087
 20
-4.3998599842219406
 30
0.0
 11
-807.67821727911087
 21
-9.3998599842219406
 31
0.0
  0
LINE
  5
7E
  8
1
 62
     7
 10
-807.34549989723405
 20
-4.3998599842219406
 30
0.0
 11
-807.34549989723405
 21
-9.3998599842219406
 31
0.0
  0
LINE
  5
7F
  8
1
 62
     7
 10
-808.66049989723399
 20
-9.3998599842219406
 30
0.0
 11
-808.66049989723399
 21
-35.698277250408999
 31
0.0
  0
LINE
  5
80
  8
1
 62
     7
 10
-806.03049989723411
 20
-35.698277250408999
 30
0.0
 11
-806.03049989723411
 21
-9.3998599842219406
 31
0.0
  0
LINE
  5
81
  8
1
 62
     7
 10
-907.34549989723405
 20
-160.398277250409
 30
0.0
 11
-909.34549989723405
 21
-160.398277250409
 31
0.0
  0
LINE
  5
82
  8
1
 62
     7
 10
-886.14549989723389
 20
-132.69827725040909
 30
0.0
 11
-885.34549989723416
 21
-132.69827725040901
 31
0.0
  0
LINE
  5
83
  8
1
 62
     7
 10
-893.14549989723389
 20
-166.69827725040889
 30
0.0
 11
-907.34549989723405
 21
-166.69827725040889
 31
0.0
  0
LINE
  5
84
  8
1
 62
     7
 10
-888.14549989723389
 20
-160.69827725040901
 30
0.0
 11
-886.14549989723389
 21
-144.40958439445981
 31
0.0
  0
LINE
  5
85
  8
1
 62
     7
 10
-893.14549989723389
 20
-160.69827725040901
 30
0.0
 11
-888.14549989723389
 21
-160.69827725040901
 31
0.0
  0
LINE
  5
86
  8
1
 62
     7
 10
-948.34549989723405
 20
-163.69827725040901
 30
0.0
 11
-946.34549989723394
 21
-165.69827725040901
 31
0.0
  0
LINE
  5
87
  8
1
 62
     7
 10
-913.34549989723394
 20
-165.69827725040901
 30
0.0
 11
-909.34549989723405
 21
-161.69827725040901
 31
0.0
  0
LINE
  5
88
  8
1
 62
     7
 10
-913.34549989723394
 20
-165.69827725040901
 30
0.0
 11
-946.34549989723394
 21
-165.69827725040901
 31
0.0
  0
LINE
  5
89
  8
1
 62
     7
 10
-909.34549989723405
 20
-161.69827725040901
 30
0.0
 11
-909.34549989723405
 21
-39.698277250408999
 31
0.0
  0
LINE
  5
8A
  8
1
 62
     7
 10
-811.84549989723405
 20
-72.298277250409001
 30
0.0
 11
-811.84549989723405
 21
-77.198277250409006
 31
0.0
  0
LINE
  5
8B
  8
1
 62
     7
 10
-809.84549989723405
 20
-72.298277250409001
 30
0.0
 11
-811.84549989723405
 21
-72.298277250409001
 31
0.0
  0
LINE
  5
8C
  8
1
 62
     7
 10
-809.84549989723405
 20
-65.948277250409006
 30
0.0
 11
-812.34549989723405
 21
-65.948277250409006
 31
0.0
  0
LINE
  5
8D
  8
1
 62
     7
 10
-759.34549989723405
 20
-68.148277250409009
 30
0.0
 11
-757.84549989723405
 21
-68.148277250409009
 31
0.0
  0
LINE
  5
8E
  8
1
 62
     7
 10
-786.84549989723416
 20
-54.698277250409006
 30
0.0
 11
-786.84549989723416
 21
-40.698277250409006
 31
0.0
  0
LINE
  5
8F
  8
1
 62
     7
 10
-777.34549989723405
 20
-34.698277250409006
 30
0.0
 11
-763.14549989723389
 21
-34.698277250409006
 31
0.0
  0
LINE
  5
90
  8
1
 62
     7
 10
-763.14549989723389
 20
-34.698277250409006
 30
0.0
 11
-763.14549989723389
 21
-73.198277250409006
 31
0.0
  0
LINE
  5
91
  8
1
 62
     7
 10
-763.14549989723389
 20
-68.198277250409006
 30
0.0
 11
-759.34549989723405
 21
-68.198277250409006
 31
0.0
  0
LINE
  5
92
  8
1
 62
     7
 10
-763.14549989723389
 20
-72.448277250409006
 30
0.0
 11
-759.34549989723405
 21
-72.448277250409006
 31
0.0
  0
LINE
  5
93
  8
1
 62
     7
 10
-759.34549989723405
 20
-72.448277250409006
 30
0.0
 11
-759.34549989723405
 21
-65.698277250409006
 31
0.0
  0
LINE
  5
94
  8
1
 62
     7
 10
-759.34549989723405
 20
-65.698277250409006
 30
0.0
 11
-756.14549989723378
 21
-65.698277250409006
 31
0.0
  0
LINE
  5
95
  8
1
 62
     7
 10
-756.14549989723378
 20
-67.541586602926984
 30
0.0
 11
-756.14549989723378
 21
-56.986970106358179
 31
0.0
  0
LINE
  5
96
  8
1
 62
     7
 10
-756.14549989723378
 20
-56.986970106358179
 30
0.0
 11
-758.14549989723389
 21
-40.698277250409006
 31
0.0
  0
LINE
  5
97
  8
1
 62
     7
 10
-758.14549989723389
 20
-40.698277250409006
 30
0.0
 11
-763.14549989723389
 21
-40.698277250409006
 31
0.0
  0
LINE
  5
98
  8
1
 62
     7
 10
-779.34549989723405
 20
-39.698277250408999
 30
0.0
 11
-783.34549989723405
 21
-35.698277250408999
 31
0.0
  0
LINE
  5
99
  8
1
 62
     7
 10
-786.34549989723416
 20
-54.698277250409006
 30
0.0
 11
-785.34549989723405
 21
-55.698277250409021
 31
0.0
  0
LINE
  5
9A
  8
1
 62
     7
 10
-818.34549989723416
 20
-60.698277250409021
 30
0.0
 11
-812.34549989723405
 21
-60.698277250409021
 31
0.0
  0
LINE
  5
9B
  8
1
 62
     7
 10
-812.34549989723405
 20
-58.948277250409006
 30
0.0
 11
-809.84549989723405
 21
-58.948277250409006
 31
0.0
  0
LINE
  5
9C
  8
1
 62
     7
 10
-793.84549989723405
 20
-63.198277250409021
 30
0.0
 11
-785.34549989723405
 21
-63.198277250409021
 31
0.0
  0
LINE
  5
9D
  8
1
 62
     7
 10
-785.34549989723405
 20
-63.198277250409021
 30
0.0
 11
-785.34549989723405
 21
-55.698277250409021
 31
0.0
  0
LINE
  5
9E
  8
1
 62
     7
 10
-815.24549989723403
 20
-35.698277250408999
 30
0.0
 11
-783.34549989723405
 21
-35.698277250408999
 31
0.0
  0
LINE
  5
9F
  8
1
 62
     7
 10
-779.34549989723405
 20
-40.698277250409006
 30
0.0
 11
-779.34549989723405
 21
-39.698277250408999
 31
0.0
  0
LINE
  5
A0
  8
1
 62
     7
 10
-779.34549989723405
 20
-40.698277250409006
 30
0.0
 11
-786.84549989723416
 21
-40.698277250409006
 31
0.0
  0
LINE
  5
A1
  8
1
 62
     7
 10
-793.84549989723405
 20
-72.698277250409006
 30
0.0
 11
-792.34549989723405
 21
-72.698277250409006
 31
0.0
  0
LINE
  5
A2
  8
1
 62
     7
 10
-792.34549989723405
 20
-72.698277250409006
 30
0.0
 11
-792.34549989723405
 21
-64.748277250408989
 31
0.0
  0
LINE
  5
A3
  8
1
 62
     7
 10
-792.34549989723405
 20
-64.748277250408989
 30
0.0
 11
-784.34549989723405
 21
-64.748277250408989
 31
0.0
  0
LINE
  5
A4
  8
1
 62
     7
 10
-784.34549989723405
 20
-64.748277250408989
 30
0.0
 11
-784.34549989723405
 21
-47.698277250409006
 31
0.0
  0
LINE
  5
A5
  8
1
 62
     7
 10
-784.34549989723405
 20
-47.698277250409006
 30
0.0
 11
-785.84549989723416
 21
-47.698277250409006
 31
0.0
  0
LINE
  5
A6
  8
1
 62
     7
 10
-785.84549989723416
 20
-47.698277250409006
 30
0.0
 11
-785.84549989723416
 21
-42.248277250408982
 31
0.0
  0
LINE
  5
A7
  8
1
 62
     7
 10
-785.84549989723416
 20
-42.248277250408982
 30
0.0
 11
-777.34549989723405
 21
-42.248277250408997
 31
0.0
  0
LINE
  5
A8
  8
1
 62
     7
 10
-777.34549989723405
 20
-74.698277250409006
 30
0.0
 11
-777.34549989723405
 21
-34.698277250409006
 31
0.0
  0
LINE
  5
A9
  8
1
 62
     7
 10
-818.34549989723416
 20
-75.698277250409006
 30
0.0
 11
-818.34549989723416
 21
-125.69827725040891
 31
0.0
  0
LINE
  5
AA
  8
1
 62
     7
 10
-818.34549989723416
 20
-75.698277250409006
 30
0.0
 11
-811.84549989723394
 21
-75.698277250409006
 31
0.0
  0
LINE
  5
AB
  8
1
 62
     7
 10
-811.84549989723405
 20
-77.198277250409006
 30
0.0
 11
-809.84549989723405
 21
-77.198277250409006
 31
0.0
  0
LINE
  5
AC
  8
1
 62
     7
 10
-777.34549989723405
 20
-74.698277250409006
 30
0.0
 11
-793.84549989723405
 21
-74.698277250409006
 31
0.0
  0
LINE
  5
AD
  8
1
 62
     7
 10
-757.84549989723405
 20
-70.448277250409006
 30
0.0
 11
-757.84549989723405
 21
-68.148277250409009
 31
0.0
  0
LINE
  5
AE
  8
1
 62
     7
 10
-757.84549989723405
 20
-68.698277250409006
 30
0.0
 11
-755.34549989723405
 21
-68.698277250408992
 31
0.0
  0
LINE
  5
AF
  8
1
 62
     7
 10
-755.34549989723405
 20
-68.698277250408992
 30
0.0
 11
-755.34549989723405
 21
-132.69827725040909
 31
0.0
  0
LINE
  5
B0
  8
1
 62
     7
 10
-790.34549989723416
 20
-80.698277250409006
 30
0.0
 11
-774.34549989723416
 21
-80.698277250409006
 31
0.0
  0
LINE
  5
B1
  8
1
 62
     7
 10
-774.34549989723416
 20
-80.198277250409006
 30
0.0
 11
-768.34549989723405
 21
-80.198277250409006
 31
0.0
  0
LINE
  5
B2
  8
1
 62
     7
 10
-796.34549989723405
 20
-80.198277250409006
 30
0.0
 11
-790.34549989723416
 21
-80.198277250409006
 31
0.0
  0
LINE
  5
B3
  8
1
 62
     7
 10
-796.34549989723405
 20
-80.698277250409006
 30
0.0
 11
-818.34549989723416
 21
-80.698277250409006
 31
0.0
  0
LINE
  5
B4
  8
1
 62
     7
 10
-790.34549989723416
 20
-80.198277250409006
 30
0.0
 11
-790.34549989723416
 21
-121.19827725040891
 31
0.0
  0
LINE
  5
B5
  8
1
 62
     7
 10
-796.34549989723405
 20
-80.198277250409006
 30
0.0
 11
-796.34549989723405
 21
-121.19827725040891
 31
0.0
  0
LINE
  5
B6
  8
1
 62
     7
 10
-774.34549989723416
 20
-80.198277250409006
 30
0.0
 11
-774.34549989723416
 21
-121.19827725040891
 31
0.0
  0
LINE
  5
B7
  8
1
 62
     7
 10
-768.34549989723405
 20
-80.198277250409006
 30
0.0
 11
-768.34549989723405
 21
-121.19827725040891
 31
0.0
  0
LINE
  5
B8
  8
1
  6
DASHDOT
 62
     3
 10
-617.50999756718795
 20
-100.69827725040891
 30
0.0
 11
-633.18100222728026
 21
-100.69827725040891
 31
0.0
  0
LINE
  5
B9
  8
1
  6
DASHDOT
 62
     3
 10
-625.34549989723405
 20
-92.862774920362924
 30
0.0
 11
-625.34549989723405
 21
-108.533779580455
 31
0.0
  0
LINE
  5
BA
  8
1
  6
DASHDOT
 62
     3
 10
-620.72598322294198
 20
-20.69827725040901
 30
0.0
 11
-629.96501657152612
 21
-20.69827725040901
 31
0.0
  0
LINE
  5
BB
  8
1
  6
DASHDOT
 62
     3
 10
-625.34549989723405
 20
-16.078760576116931
 30
0.0
 11
-625.34549989723405
 21
-25.317793924701078
 31
0.0
  0
LINE
  5
BC
  8
1
  6
DASHDOT
 62
     3
 10
-625.34549989723405
 20
-42.790632960161183
 30
0.0
 11
-625.34549989723405
 21
-31.730391025930459
 31
0.0
  0
LINE
  5
BD
  8
1
  6
DASHDOT
 62
     3
 10
-675.49499092590167
 20
-71.744455105285098
 30
0.0
 11
-685.0734414129472
 21
-66.21433413816969
 31
0.0
  0
LINE
  5
BE
  8
1
  6
DASHDOT
 62
     3
 10
-675.49499092590167
 20
-129.65209939553301
 30
0.0
 11
-685.0734414129472
 21
-135.18222036264831
 31
0.0
  0
LINE
  5
BF
  8
1
  6
DASHDOT
 62
     3
 10
-625.34549989723416
 20
-158.60592154065711
 30
0.0
 11
-625.34549989723416
 21
-169.66616347488781
 31
0.0
  0
LINE
  5
C0
  8
1
  6
DASHDOT
 62
     3
 10
-575.19600886856654
 20
-129.65209939553301
 30
0.0
 11
-565.61755838152067
 21
-135.18222036264851
 31
0.0
  0
LINE
  5
C1
  8
1
 62
     7
 10
-786.84549989723416
 20
-54.698277250409006
 30
0.0
 11
-786.34549989723416
 21
-54.698277250409006
 31
0.0
  0
LINE
  5
C2
  8
1
 62
     7
 10
-759.34549989723405
 20
-70.448277250409006
 30
0.0
 11
-757.84549989723405
 21
-70.448277250409006
 31
0.0
  0
LINE
  5
C3
  8
1
 62
     7
 10
-777.34549989723405
 20
-68.698277250409006
 30
0.0
 11
-759.34549989723405
 21
-68.698277250409006
 31
0.0
  0
LINE
  5
C4
  8
1
 62
     7
 10
-777.34549989723405
 20
-73.198277250409006
 30
0.0
 11
-755.34549989723405
 21
-73.198277250409006
 31
0.0
  0
LINE
  5
C5
  8
1
 62
     7
 10
-815.24549989723403
 20
-57.698277250409006
 30
0.0
 11
-815.24549989723403
 21
-12.69827725040901
 31
0.0
  0
LINE
  5
C6
  8
1
 62
     7
 10
-812.34549989723405
 20
-58.948277250409006
 30
0.0
 11
-812.34549989723405
 21
-69.944176530984507
 31
0.0
  0
LINE
  5
C7
  8
1
 62
     7
 10
-755.34549989723405
 20
-120.69827725040901
 30
0.0
 11
-768.34549989723405
 21
-120.69827725040901
 31
0.0
  0
LINE
  5
C8
  8
1
 62
     7
 10
-811.84549989723405
 20
-124.19827725040891
 30
0.0
 11
-811.84549989723405
 21
-129.0982772504089
 31
0.0
  0
LINE
  5
C9
  8
1
 62
     7
 10
-811.84549989723405
 20
-129.0982772504089
 30
0.0
 11
-809.84549989723405
 21
-129.0982772504089
 31
0.0
  0
LINE
  5
CA
  8
1
 62
     7
 10
-812.34549989723405
 20
-135.44827725040889
 30
0.0
 11
-809.84549989723405
 21
-135.44827725040889
 31
0.0
  0
LINE
  5
CB
  8
1
 62
     7
 10
-757.84549989723405
 20
-133.2482772504089
 30
0.0
 11
-759.34549989723405
 21
-133.2482772504089
 31
0.0
  0
LINE
  5
CC
  8
1
 62
     7
 10
-757.84549989723405
 20
-133.2482772504089
 30
0.0
 11
-757.84549989723405
 21
-130.94827725040901
 31
0.0
  0
LINE
  5
CD
  8
1
 62
     7
 10
-786.84549989723416
 20
-160.69827725040901
 30
0.0
 11
-786.84549989723416
 21
-146.69827725040889
 31
0.0
  0
LINE
  5
CE
  8
1
 62
     7
 10
-763.14549989723389
 20
-166.69827725040889
 30
0.0
 11
-777.34549989723405
 21
-166.69827725040889
 31
0.0
  0
LINE
  5
CF
  8
1
 62
     7
 10
-777.34549989723405
 20
-166.69827725040889
 30
0.0
 11
-777.34549989723405
 21
-126.69827725040891
 31
0.0
  0
LINE
  5
D0
  8
1
 62
     7
 10
-759.34549989723405
 20
-133.19827725040901
 30
0.0
 11
-763.14549989723389
 21
-133.19827725040901
 31
0.0
  0
LINE
  5
D1
  8
1
 62
     7
 10
-759.34549989723405
 20
-128.94827725040901
 30
0.0
 11
-763.14549989723389
 21
-128.94827725040901
 31
0.0
  0
LINE
  5
D2
  8
1
 62
     7
 10
-759.34549989723405
 20
-135.69827725040901
 30
0.0
 11
-759.34549989723405
 21
-128.94827725040901
 31
0.0
  0
LINE
  5
D3
  8
1
 62
     7
 10
-756.14549989723378
 20
-135.69827725040901
 30
0.0
 11
-759.34549989723405
 21
-135.69827725040901
 31
0.0
  0
LINE
  5
D4
  8
1
 62
     7
 10
-756.14549989723378
 20
-144.40958439445981
 30
0.0
 11
-756.14549989723378
 21
-133.85496789789099
 31
0.0
  0
LINE
  5
D5
  8
1
 62
     7
 10
-758.14549989723389
 20
-160.69827725040901
 30
0.0
 11
-756.14549989723378
 21
-144.40958439445981
 31
0.0
  0
LINE
  5
D6
  8
1
 62
     7
 10
-763.14549989723389
 20
-160.69827725040901
 30
0.0
 11
-758.14549989723389
 21
-160.69827725040901
 31
0.0
  0
LINE
  5
D7
  8
1
 62
     7
 10
-783.34549989723405
 20
-165.69827725040901
 30
0.0
 11
-779.34549989723405
 21
-161.69827725040901
 31
0.0
  0
LINE
  5
D8
  8
1
 62
     7
 10
-785.34549989723405
 20
-145.69827725040901
 30
0.0
 11
-786.34549989723416
 21
-146.69827725040889
 31
0.0
  0
LINE
  5
D9
  8
1
 62
     7
 10
-812.34549989723405
 20
-140.69827725040901
 30
0.0
 11
-818.34549989723416
 21
-140.69827725040901
 31
0.0
  0
LINE
  5
DA
  8
1
 62
     7
 10
-809.84549989723405
 20
-142.44827725040901
 30
0.0
 11
-812.34549989723405
 21
-142.44827725040901
 31
0.0
  0
LINE
  5
DB
  8
1
 62
     7
 10
-785.34549989723405
 20
-138.19827725040901
 30
0.0
 11
-793.84549989723405
 21
-138.19827725040901
 31
0.0
  0
LINE
  5
DC
  8
1
 62
     7
 10
-785.34549989723405
 20
-145.69827725040901
 30
0.0
 11
-785.34549989723405
 21
-138.19827725040901
 31
0.0
  0
LINE
  5
DD
  8
1
 62
     7
 10
-783.34549989723405
 20
-165.69827725040901
 30
0.0
 11
-816.34549989723405
 21
-165.69827725040901
 31
0.0
  0
LINE
  5
DE
  8
1
 62
     7
 10
-779.34549989723405
 20
-161.69827725040901
 30
0.0
 11
-779.34549989723405
 21
-160.69827725040901
 31
0.0
  0
LINE
  5
DF
  8
1
 62
     7
 10
-786.84549989723416
 20
-160.69827725040901
 30
0.0
 11
-779.34549989723405
 21
-160.69827725040901
 31
0.0
  0
LINE
  5
E0
  8
1
 62
     7
 10
-792.34549989723405
 20
-128.69827725040901
 30
0.0
 11
-793.84549989723405
 21
-128.69827725040901
 31
0.0
  0
LINE
  5
E1
  8
1
 62
     7
 10
-792.34549989723405
 20
-136.648277250409
 30
0.0
 11
-792.34549989723405
 21
-128.69827725040901
 31
0.0
  0
LINE
  5
E2
  8
1
 62
     7
 10
-784.34549989723405
 20
-136.648277250409
 30
0.0
 11
-792.34549989723405
 21
-136.648277250409
 31
0.0
  0
LINE
  5
E3
  8
1
 62
     7
 10
-784.34549989723405
 20
-153.69827725040901
 30
0.0
 11
-784.34549989723405
 21
-136.648277250409
 31
0.0
  0
LINE
  5
E4
  8
1
 62
     7
 10
-785.84549989723416
 20
-153.69827725040901
 30
0.0
 11
-784.34549989723405
 21
-153.69827725040901
 31
0.0
  0
LINE
  5
E5
  8
1
 62
     7
 10
-785.84549989723416
 20
-159.148277250409
 30
0.0
 11
-785.84549989723416
 21
-153.69827725040901
 31
0.0
  0
LINE
  5
E6
  8
1
 62
     7
 10
-777.34549989723405
 20
-159.148277250409
 30
0.0
 11
-785.84549989723416
 21
-159.148277250409
 31
0.0
  0
LINE
  5
E7
  8
1
 62
     7
 10
-811.84549989723394
 20
-125.69827725040891
 30
0.0
 11
-818.34549989723416
 21
-125.69827725040891
 31
0.0
  0
LINE
  5
E8
  8
1
 62
     7
 10
-809.84549989723405
 20
-124.19827725040891
 30
0.0
 11
-811.84549989723405
 21
-124.19827725040891
 31
0.0
  0
LINE
  5
E9
  8
1
 62
     7
 10
-793.84549989723405
 20
-126.69827725040891
 30
0.0
 11
-777.34549989723405
 21
-126.69827725040891
 31
0.0
  0
LINE
  5
EA
  8
1
 62
     7
 10
-755.34549989723405
 20
-132.69827725040909
 30
0.0
 11
-757.84549989723405
 21
-132.69827725040901
 31
0.0
  0
LINE
  5
EB
  8
1
 62
     7
 10
-774.34549989723416
 20
-120.69827725040901
 30
0.0
 11
-790.34549989723416
 21
-120.69827725040901
 31
0.0
  0
LINE
  5
EC
  8
1
 62
     7
 10
-768.34549989723405
 20
-121.19827725040891
 30
0.0
 11
-774.34549989723416
 21
-121.19827725040891
 31
0.0
  0
LINE
  5
ED
  8
1
 62
     7
 10
-790.34549989723416
 20
-121.19827725040891
 30
0.0
 11
-796.34549989723405
 21
-121.19827725040891
 31
0.0
  0
LINE
  5
EE
  8
1
 62
     7
 10
-818.34549989723416
 20
-120.69827725040901
 30
0.0
 11
-796.34549989723405
 21
-120.69827725040901
 31
0.0
  0
LINE
  5
EF
  8
1
 62
     7
 10
-786.34549989723416
 20
-146.69827725040889
 30
0.0
 11
-786.84549989723416
 21
-146.69827725040889
 31
0.0
  0
LINE
  5
F0
  8
1
 62
     7
 10
-757.84549989723405
 20
-130.94827725040901
 30
0.0
 11
-759.34549989723405
 21
-130.94827725040901
 31
0.0
  0
LINE
  5
F1
  8
1
 62
     7
 10
-759.34549989723405
 20
-132.69827725040901
 30
0.0
 11
-777.34549989723405
 21
-132.69827725040901
 31
0.0
  0
LINE
  5
F2
  8
1
 62
     7
 10
-755.34549989723405
 20
-128.19827725040889
 30
0.0
 11
-777.34549989723405
 21
-128.19827725040889
 31
0.0
  0
LINE
  5
F3
  8
1
 62
     7
 10
-812.34549989723405
 20
-131.45237796983349
 30
0.0
 11
-812.34549989723405
 21
-142.44827725040901
 31
0.0
  0
LINE
  5
F4
  8
1
 62
     3
 10
-755.34549989723405
 20
-100.69827725040891
 30
0.0
 11
-752.34549989723405
 21
-100.69827725040891
 31
0.0
  0
LINE
  5
F5
  8
1
 62
     3
 10
-821.34549989723405
 20
-100.69827725040891
 30
0.0
 11
-818.34549989723416
 21
-100.69827725040891
 31
0.0
  0
LINE
  5
F6
  8
1
 62
     7
 10
-818.34549989723416
 20
-129.752851668255
 30
0.0
 11
-818.34549989723416
 21
-163.69827725040901
 31
0.0
  0
LINE
  5
F7
  8
1
 62
     7
 10
-818.34549989723416
 20
-163.69827725040901
 30
0.0
 11
-816.34549989723405
 21
-165.69827725040901
 31
0.0
  0
LINE
  5
F8
  8
1
 62
     7
 10
-946.34549989723394
 20
-35.698277250408999
 30
0.0
 11
-946.34549989723394
 21
-165.69827725040901
 31
0.0
  0
LINE
  5
F9
  8
1
 62
     7
 10
-913.34549989723394
 20
-35.698277250408999
 30
0.0
 11
-913.34549989723394
 21
-165.69827725040901
 31
0.0
  0
LINE
  5
FA
  8
1
 62
     7
 10
-909.34549989723405
 20
-40.998277250409018
 30
0.0
 11
-907.34549989723405
 21
-40.998277250409018
 31
0.0
  0
LINE
  5
FB
  8
1
 62
     7
 10
-888.14549989723389
 20
-40.698277250409006
 30
0.0
 11
-888.14549989723389
 21
-160.69827725040901
 31
0.0
  0
LINE
  5
FC
  8
1
 62
     7
 10
-907.34549989723405
 20
-34.698277250409006
 30
0.0
 11
-893.14549989723389
 21
-34.698277250409006
 31
0.0
  0
LINE
  5
FD
  8
1
 62
     7
 10
-893.14549989723389
 20
-34.698277250409006
 30
0.0
 11
-893.14549989723389
 21
-166.69827725040889
 31
0.0
  0
LINE
  5
FE
  8
1
 62
     7
 10
-886.14549989723389
 20
-56.986970106358207
 30
0.0
 11
-886.14549989723389
 21
-144.40958439445981
 31
0.0
  0
LINE
  5
FF
  8
1
 62
     7
 10
-886.14549989723389
 20
-56.986970106358207
 30
0.0
 11
-888.14549989723389
 21
-40.698277250409006
 31
0.0
  0
LINE
  5
100
  8
1
 62
     7
 10
-888.14549989723389
 20
-40.698277250409006
 30
0.0
 11
-893.14549989723389
 21
-40.698277250409006
 31
0.0
  0
LINE
  5
101
  8
1
 62
     7
 10
-946.34549989723394
 20
-35.698277250408999
 30
0.0
 11
-948.34549989723405
 21
-37.698277250408999
 31
0.0
  0
LINE
  5
102
  8
1
 62
     7
 10
-909.34549989723405
 20
-39.698277250408999
 30
0.0
 11
-913.34549989723394
 21
-35.698277250408999
 31
0.0
  0
LINE
  5
103
  8
1
 62
     7
 10
-948.34549989723405
 20
-37.698277250408999
 30
0.0
 11
-948.34549989723405
 21
-163.69827725040901
 31
0.0
  0
LINE
  5
104
  8
1
 62
     7
 10
-907.34549989723405
 20
-34.698277250409006
 30
0.0
 11
-907.34549989723405
 21
-166.69827725040889
 31
0.0
  0
LINE
  5
105
  8
1
 62
     7
 10
-885.34549989723416
 20
-68.698277250409006
 30
0.0
 11
-885.34549989723416
 21
-132.69827725040901
 31
0.0
  0
LINE
  5
106
  8
1
 62
     3
 10
-907.34549989723405
 20
-34.698277250409006
 30
0.0
 11
-893.14549989723389
 21
-166.69827725040889
 31
0.0
  0
LINE
  5
107
  8
1
 62
     3
 10
-893.14549989723389
 20
-34.698277250409006
 30
0.0
 11
-907.34549989723405
 21
-166.69827725040889
 31
0.0
  0
LINE
  5
108
  8
1
 62
     3
 10
-951.34549989723405
 20
-100.69827725040891
 30
0.0
 11
-948.34549989723405
 21
-100.69827725040891
 31
0.0
  0
LINE
  5
109
  8
1
 62
     3
 10
-885.34549989723416
 20
-100.69827725040891
 30
0.0
 11
-882.34549989723405
 21
-100.69827725040891
 31
0.0
  0
LINE
  5
10A
  8
1
 62
     7
 10
-938.66049989723388
 20
-9.3998599842219406
 30
0.0
 11
-936.03049989723399
 21
-9.3998599842219406
 31
0.0
  0
LINE
  5
10B
  8
1
 62
     7
 10
-936.69482014705306
 20
-4.3998599842219406
 30
0.0
 11
-936.69482014705306
 21
-9.3998599842219406
 31
0.0
  0
LINE
  5
10C
  8
1
 62
     7
 10
-937.06659223356291
 20
-4.3998599842219406
 30
0.0
 11
-937.06659223356291
 21
-9.3998599842219406
 31
0.0
  0
LINE
  5
10D
  8
1
 62
     7
 10
-937.91807023814931
 20
-4.3998599842219406
 30
0.0
 11
-937.91807023814931
 21
-9.3998599842219406
 31
0.0
  0
LINE
  5
10E
  8
1
 62
     7
 10
-937.67821727911087
 20
-4.3998599842219406
 30
0.0
 11
-937.67821727911087
 21
-9.3998599842219406
 31
0.0
  0
LINE
  5
10F
  8
1
 62
     7
 10
-937.34549989723405
 20
-4.3998599842219406
 30
0.0
 11
-937.34549989723405
 21
-9.3998599842219406
 31
0.0
  0
LINE
  5
110
  8
1
 62
     7
 10
-938.66049989723388
 20
-9.3998599842219406
 30
0.0
 11
-938.66049989723388
 21
-35.698277250408999
 31
0.0
  0
LINE
  5
111
  8
1
 62
     7
 10
-936.03049989723399
 20
-35.698277250408999
 30
0.0
 11
-936.03049989723399
 21
-9.3998599842219406
 31
0.0
  0
LINE
  5
112
  8
1
 62
     7
 10
-945.24549989723403
 20
-12.69827725040901
 30
0.0
 11
-948.24549989723403
 21
-12.69827725040901
 31
0.0
  0
LINE
  5
113
  8
1
 62
     7
 10
-948.24549989723403
 20
-12.69827725040901
 30
0.0
 11
-948.24549989723403
 21
-37.598277250408977
 31
0.0
  0
LINE
  5
114
  8
1
 62
     3
 10
-763.14549989723389
 20
-34.698277250409006
 30
0.0
 11
-777.34549989723405
 21
-73.198277250409006
 31
0.0
  0
LINE
  5
115
  8
1
 62
     7
 10
-763.14549989723389
 20
-128.19827725040889
 30
0.0
 11
-763.14549989723389
 21
-166.69827725040889
 31
0.0
  0
LINE
  5
116
  8
1
 62
     3
 10
-777.34549989723405
 20
-128.19827725040889
 30
0.0
 11
-763.14549989723389
 21
-166.69827725040889
 31
0.0
  0
LINE
  5
117
  8
1
 62
     3
 10
-763.14549989723389
 20
-128.19827725040889
 30
0.0
 11
-777.34549989723405
 21
-166.69827725040889
 31
0.0
  0
LINE
  5
118
  8
1
 62
     7
 10
-913.34549989723394
 20
-35.698277250408999
 30
0.0
 11
-946.34549989723394
 21
-35.698277250408999
 31
0.0
  0
LINE
  5
119
  8
1
 62
     7
 10
-945.24549989723403
 20
-35.698277250408999
 30
0.0
 11
-945.24549989723403
 21
-12.69827725040901
 31
0.0
  0
LINE
  5
11A
  8
1
 62
     7
 10
-1060.746181936905
 20
-37.675529488272282
 30
0.0
 11
-1054.18500505615
 21
-13.18888401185175
 31
0.0
  0
LINE
  5
11B
  8
1
 62
     7
 10
-1056.72538997929
 20
-12.508189923232139
 30
0.0
 11
-1054.18500505615
 21
-13.18888401185175
 31
0.0
  0
LINE
  5
11C
  8
1
 62
     7
 10
-1056.083705893064
 20
-12.68012865593251
 30
0.0
 11
-1054.7896106675501
 21
-7.8504995244871836
 31
0.0
  0
LINE
  5
11D
  8
1
 62
     7
 10
-1055.724601633211
 20
-12.77635035235884
 30
0.0
 11
-1054.4305064076971
 21
-7.9467212209134974
 31
0.0
  0
LINE
  5
11E
  8
1
 62
     7
 10
-1054.902137038064
 20
-12.99672907643164
 30
0.0
 11
-1053.6080418125509
 21
-8.1670999449863029
 31
0.0
  0
LINE
  5
11F
  8
1
 62
     7
 10
-1055.133817205711
 20
-12.93465056260834
 30
0.0
 11
-1053.839721980198
 21
-8.1050214311630135
 31
0.0
  0
LINE
  5
120
  8
1
 62
     7
 10
-1055.455197517721
 20
-12.848536967541939
 30
0.0
 11
-1054.161102292207
 21
-8.0189078360966057
 31
0.0
  0
LINE
  5
121
  8
1
 62
     7
 10
-1059.246456385905
 20
-11.832672215514551
 30
0.0
 11
-1056.7060714627651
 21
-12.51336630413415
 31
0.0
  0
LINE
  5
122
  8
1
 62
     7
 10
-1058.604772299678
 20
-12.004610948214919
 30
0.0
 11
-1057.3106770741661
 21
-7.174981816769594
 31
0.0
  0
LINE
  5
123
  8
1
 62
     7
 10
-1058.245668039825
 20
-12.100832644641249
 30
0.0
 11
-1056.951572814311
 21
-7.2712035131959061
 31
0.0
  0
LINE
  5
124
  8
1
 62
     7
 10
-1057.423203444677
 20
-12.321211368714049
 30
0.0
 11
-1056.129108219166
 21
-7.4915822372687124
 31
0.0
  0
LINE
  5
125
  8
1
 62
     7
 10
-1057.6548836123241
 20
-12.259132854890749
 30
0.0
 11
-1056.3607883868119
 21
-7.4295037234454231
 31
0.0
  0
LINE
  5
126
  8
1
 62
     7
 10
-1057.9762639243349
 20
-12.173019259824351
 30
0.0
 11
-1056.682168698823
 21
-7.3433901283790126
 31
0.0
  0
LINE
  5
127
  8
1
 62
     7
 10
-1056.7060714627651
 20
-12.51336630413415
 30
0.0
 11
-1063.25378385828
 21
-36.949761637543538
 31
0.0
  0
LINE
  5
128
  8
1
 62
     7
 10
-1059.246456385905
 20
-11.832672215514551
 30
0.0
 11
-1065.8076332666601
 21
-36.319317691935012
 31
0.0
  0
LINE
  5
129
  8
1
 62
     7
 10
-1086.345499897234
 20
-78.198277250409006
 30
0.0
 11
-1086.345499897234
 21
-81.619493222070091
 31
0.0
  0
LINE
  5
12A
  8
1
 62
     7
 10
-1074.345499897234
 20
-78.198277250409006
 30
0.0
 11
-1074.345499897234
 21
-81.619493222070091
 31
0.0
  0
LINE
  5
12B
  8
1
 62
     7
 10
-1086.345499897234
 20
-78.198277250409006
 30
0.0
 11
-1074.345499897234
 21
-78.198277250409006
 31
0.0
  0
LINE
  5
12C
  8
1
 62
     7
 10
-1088.3454998972329
 20
-14.69827725040901
 30
0.0
 11
-1088.3454998972329
 21
-49.698277250409006
 31
0.0
  0
LINE
  5
12D
  8
1
 62
     7
 10
-1072.345499897234
 20
-14.69827725040901
 30
0.0
 11
-1072.345499897234
 21
-49.698277250409006
 31
0.0
  0
LINE
  5
12E
  8
1
 62
     7
 10
-1086.345499897234
 20
-12.69827725040901
 30
0.0
 11
-1074.345499897234
 21
-12.69827725040901
 31
0.0
  0
LINE
  5
12F
  8
1
 62
     7
 10
-1020.424502014203
 20
-73.031076222805723
 30
0.0
 11
-1021.053848651246
 21
-73.394429673115695
 31
0.0
  0
LINE
  5
130
  8
1
 62
     7
 10
-1026.4245020142021
 20
-62.63877137739243
 30
0.0
 11
-1027.053848651246
 21
-63.00212482770241
 31
0.0
  0
LINE
  5
131
  8
1
 62
     7
 10
-1026.4245020142021
 20
-138.75778312342561
 30
0.0
 11
-1027.053848651246
 21
-138.3944296731157
 31
0.0
  0
LINE
  5
132
  8
1
 62
     7
 10
-1020.424502014203
 20
-128.36547827801229
 30
0.0
 11
-1021.053848651246
 21
-128.0021248277024
 31
0.0
  0
LINE
  5
133
  8
1
 62
     7
 10
-1086.345499897234
 20
-166.42498415102881
 30
0.0
 11
-1086.345499897234
 21
-165.69827725040901
 31
0.0
  0
LINE
  5
134
  8
1
 62
     7
 10
-1074.345499897234
 20
-166.42498415102881
 30
0.0
 11
-1074.345499897234
 21
-165.69827725040901
 31
0.0
  0
LINE
  5
135
  8
1
 62
     7
 10
-1140.2664977802649
 20
-128.36547827801229
 30
0.0
 11
-1139.637151143223
 21
-128.00212482770229
 31
0.0
  0
LINE
  5
136
  8
1
 62
     7
 10
-1134.2664977802649
 20
-138.75778312342561
 30
0.0
 11
-1133.637151143223
 21
-138.39442967311561
 31
0.0
  0
LINE
  5
137
  8
1
 62
     7
 10
-1134.2664977802649
 20
-62.638771377392388
 30
0.0
 11
-1133.637151143223
 21
-63.002124827702318
 31
0.0
  0
LINE
  5
138
  8
1
 62
     7
 10
-1140.2664977802649
 20
-73.031076222805666
 30
0.0
 11
-1139.637151143223
 21
-73.394429673115582
 31
0.0
  0
LINE
  5
139
  8
1
  6
DASHDOT
 62
     3
 10
-1072.5099975671881
 20
-100.69827725040891
 30
0.0
 11
-1088.1810022272789
 21
-100.69827725040891
 31
0.0
  0
LINE
  5
13A
  8
1
  6
DASHDOT
 62
     3
 10
-1080.3454998972329
 20
-92.862774920362924
 30
0.0
 11
-1080.3454998972329
 21
-108.533779580455
 31
0.0
  0
LINE
  5
13B
  8
1
  6
DASHDOT
 62
     3
 10
-1075.725983222942
 20
-20.69827725040901
 30
0.0
 11
-1084.9650165715259
 21
-20.69827725040901
 31
0.0
  0
LINE
  5
13C
  8
1
  6
DASHDOT
 62
     3
 10
-1080.3454998972329
 20
-16.078760576116931
 30
0.0
 11
-1080.3454998972329
 21
-25.317793924701078
 31
0.0
  0
LINE
  5
13D
  8
1
 62
     7
 10
-885.34549989723416
 20
-68.698277250409006
 30
0.0
 11
-886.14549989723389
 21
-68.698277250409006
 31
0.0
  0
LINE
  5
13E
  8
1
 62
     3
 10
-777.34549989723405
 20
-34.698277250409006
 30
0.0
 11
-763.14549989723389
 21
-73.198277250409006
 31
0.0
  0
ARC
  5
13F
  8
1
 62
     7
 10
-619.34549989723416
 20
-14.69827725040901
 30
0.0
 40
2.0
 50
0.0
 51
90.0
  0
ARC
  5
140
  8
1
 62
     7
 10
-631.34549989723405
 20
-14.69827725040901
 30
0.0
 40
2.0
 50
90.0
 51
180.0
  0
ARC
  5
141
  8
1
 62
     7
 10
-1074.345499897234
 20
-14.69827725040901
 30
0.0
 40
2.0
 50
0.0
 51
90.0
  0
ARC
  5
142
  8
1
 62
     7
 10
-1086.345499897234
 20
-14.69827725040901
 30
0.0
 40
2.0
 50
90.0
 51
180.0
  0
ARC
  5
143
  8
1
 62
     7
 10
-625.34549989723405
 20
-100.69827725040891
 30
0.0
 40
65.999999999999901
 50
335.21590857045408
 51
24.784091429545871
  0
ARC
  5
144
  8
1
 62
     7
 10
-625.34549989723405
 20
-100.69827725040891
 30
0.0
 40
20.0
 50
107.45760312372209
 51
72.54239687627792
  0
ARC
  5
145
  8
1
 62
     7
 10
-625.34549989723405
 20
-100.69827725040891
 30
0.0
 40
65.276335681470357
 50
24.726104042648181
 51
35.273895957351719
  0
ARC
  5
146
  8
1
 62
     7
 10
-625.34549989723405
 20
-100.69827725040891
 30
0.0
 40
65.276335681470314
 50
324.72610404264822
 51
335.27389595735161
  0
ARC
  5
147
  8
1
 62
     7
 10
-625.34549989723405
 20
-100.69827725040891
 30
0.0
 40
65.276335681470357
 50
264.72610404264822
 51
275.27389595735173
  0
ARC
  5
148
  8
1
 62
     7
 10
-625.34549989723405
 20
-100.69827725040891
 30
0.0
 40
65.276335681470343
 50
204.7261040426481
 51
215.27389595735181
  0
ARC
  5
149
  8
1
 62
     7
 10
-625.34549989723405
 20
-100.69827725040891
 30
0.0
 40
65.2763356814704
 50
144.7261040426481
 51
155.27389595735181
  0
ARC
  5
14A
  8
1
 62
     7
 10
-625.34549989723405
 20
-100.69827725040891
 30
0.0
 40
65.276335681470357
 50
84.726104042648245
 51
95.273895957351769
  0
ARC
  5
14B
  8
1
 62
     7
 10
-625.34549989723405
 20
-100.69827725040891
 30
0.0
 40
65.999999999999957
 50
275.21590857045402
 51
324.78409142954581
  0
ARC
  5
14C
  8
1
 62
     7
 10
-625.34549989723405
 20
-100.69827725040891
 30
0.0
 40
66.000000000000014
 50
215.21590857045399
 51
264.78409142954592
  0
ARC
  5
14D
  8
1
 62
     7
 10
-625.34549989723405
 20
-100.69827725040891
 30
0.0
 40
66.000000000000014
 50
155.2159085704541
 51
204.78409142954581
  0
ARC
  5
14E
  8
1
 62
     7
 10
-625.34549989723405
 20
-100.69827725040891
 30
0.0
 40
65.999999999999986
 50
95.215908570454118
 51
144.78409142954581
  0
ARC
  5
14F
  8
1
 62
     7
 10
-625.34549989723405
 20
-100.69827725040891
 30
0.0
 40
66.0
 50
35.21590857045409
 51
84.784091429545867
  0
ARC
  5
150
  8
1
 62
     7
 10
-1080.3454998972329
 20
-100.69827725040891
 30
0.0
 40
66.000000000000199
 50
335.21590857045419
 51
24.78409142954575
  0
ARC
  5
151
  8
1
 62
     7
 10
-1080.3454998972329
 20
-100.69827725040891
 30
0.0
 40
20.0
 50
107.45760312372209
 51
72.54239687627792
  0
ARC
  5
152
  8
1
 62
     7
 10
-1080.3454998972329
 20
-100.69827725040891
 30
0.0
 40
65.999999999999957
 50
275.21590857045402
 51
324.78409142954598
  0
ARC
  5
153
  8
1
 62
     7
 10
-1080.3454998972329
 20
-100.69827725040891
 30
0.0
 40
66.000000000000014
 50
215.21590857045399
 51
264.78409142954592
  0
ARC
  5
154
  8
1
 62
     7
 10
-1080.3454998972329
 20
-100.69827725040891
 30
0.0
 40
66.000000000000014
 50
155.2159085704541
 51
204.78409142954581
  0
ARC
  5
155
  8
1
 62
     7
 10
-1080.3454998972329
 20
-100.69827725040891
 30
0.0
 40
66.0
 50
96.962062691084455
 51
144.78409142954581
  0
ARC
  5
156
  8
1
 62
     7
 10
-1080.3454998972329
 20
-49.698277250409006
 30
0.0
 40
8.0
 50
180.0
 51
0.0
  0
ARC
  5
157
  8
1
 62
     7
 10
-1080.3454998972329
 20
-100.69827725040891
 30
0.0
 40
66.000000000000185
 50
35.215908570453969
 51
83.037937308915545
  0
ARC
  5
158
  8
1
 62
     7
 10
-1080.3454998972329
 20
-100.69827725040891
 30
0.0
 40
65.276335681470485
 50
97.039633833798575
 51
82.960366166201453
  0
ARC
  5
159
  8
1
 62
     7
 10
-1080.3454998972329
 20
-100.69827725040891
 30
0.0
 40
63.0
 50
97.295351084916419
 51
82.704648915083595
  0
CIRCLE
  5
15A
  8
1
 62
     7
 10
-801.84549989723405
 20
-133.19827725040901
 30
0.0
 40
4.5
  0
CIRCLE
  5
15B
  8
1
 62
     7
 10
-801.84549989723405
 20
-68.198277250409006
 30
0.0
 40
4.5
  0
CIRCLE
  5
15C
  8
1
 62
     7
 10
-625.34549989723405
 20
-100.69827725040891
 30
0.0
 40
32.0
  0
CIRCLE
  5
15D
  8
1
 62
     7
 10
-625.34549989723405
 20
-100.69827725040891
 30
0.0
 40
27.5
  0
CIRCLE
  5
15E
  8
1
 62
     7
 10
-625.34549989723405
 20
-100.69827725040891
 30
0.0
 40
35.0
  0
CIRCLE
  5
15F
  8
1
 62
     7
 10
-625.34549989723405
 20
-100.69827725040891
 30
0.0
 40
43.711307144050799
  0
CIRCLE
  5
160
  8
1
 62
     7
 10
-625.34549989723405
 20
-100.69827725040891
 30
0.0
 40
60.0
  0
CIRCLE
  5
161
  8
1
 62
     7
 10
-625.34549989723405
 20
-20.69827725040901
 30
0.0
 40
3.25
  0
CIRCLE
  5
162
  8
1
 62
     7
 10
-1080.3454998972329
 20
-20.69827725040901
 30
0.0
 40
3.25
  0
CIRCLE
  5
163
  8
1
 62
     7
 10
-1080.3454998972329
 20
-100.69827725040891
 30
0.0
 40
40.0
  0
CIRCLE
  5
164
  8
1
 62
     7
 10
-1080.3454998972329
 20
-100.69827725040891
 30
0.0
 40
25.0
  0
TEXT
  5
166
  8
1
 62
     7
 10
-1150.63183125818
 20
35.8779350160072
 30
0.0
 40
7.0
  1
MDC 10
 41
0.9
  7
SIMPLEX
  0
ENDSEC
  0
EOF
