  0
SECTION
  2
HEADER
  9
$ACADVER
  1
AC1009
  9
$INSBASE
 10
0.0
 20
0.0
 30
0.0
  9
$EXTMIN
 10
-1490.157139728037
 20
-576.15569589389213
 30
0.0
  9
$EXTMAX
 10
-135.15713972803789
 20
-64.13704785056683
 30
0.0
  9
$LIMMIN
 10
-1490.157139728037
 20
-576.15569589389213
  9
$LIMMAX
 10
-135.157139728038
 20
-64.13704785056683
  9
$ORTHOMODE
 70
     0
  9
$REGENMODE
 70
     1
  9
$FILLMODE
 70
     1
  9
$QTEXTMODE
 70
     0
  9
$MIRRTEXT
 70
     1
  9
$DRAGMODE
 70
     2
  9
$LTSCALE
 40
1.0
  9
$OSMODE
 70
    37
  9
$ATTMODE
 70
     1
  9
$TEXTSIZE
 40
3.5
  9
$TRACEWID
 40
0.5
  9
$TEXTSTYLE
  7
STANDARD
  9
$CLAYER
  8
0
  9
$CELTYPE
  6
BYLAYER
  9
$CECOLOR
 62
   256
  9
$DIMSCALE
 40
1.0
  9
$DIMASZ
 40
0.18
  9
$DIMEXO
 40
0.0625
  9
$DIMDLI
 40
0.38
  9
$DIMRND
 40
0.0
  9
$DIMDLE
 40
0.0
  9
$DIMEXE
 40
0.18
  9
$DIMTP
 40
0.0
  9
$DIMTM
 40
0.0
  9
$DIMTXT
 40
0.18
  9
$DIMCEN
 40
0.09
  9
$DIMTSZ
 40
0.0
  9
$DIMTOL
 70
     0
  9
$DIMLIM
 70
     0
  9
$DIMTIH
 70
     1
  9
$DIMTOH
 70
     1
  9
$DIMSE1
 70
     0
  9
$DIMSE2
 70
     0
  9
$DIMTAD
 70
     0
  9
$DIMZIN
 70
     0
  9
$DIMBLK
  1

  9
$DIMASO
 70
     1
  9
$DIMSHO
 70
     1
  9
$DIMPOST
  1

  9
$DIMAPOST
  1

  9
$DIMALT
 70
     0
  9
$DIMALTD
 70
     2
  9
$DIMALTF
 40
25.399999999999999
  9
$DIMLFAC
 40
1.0
  9
$DIMTOFL
 70
     0
  9
$DIMTVP
 40
0.0
  9
$DIMTIX
 70
     0
  9
$DIMSOXD
 70
     0
  9
$DIMSAH
 70
     0
  9
$DIMBLK1
  1

  9
$DIMBLK2
  1

  9
$DIMSTYLE
  2
STANDARD
  9
$DIMCLRD
 70
     0
  9
$DIMCLRE
 70
     0
  9
$DIMCLRT
 70
     0
  9
$DIMTFAC
 40
1.0
  9
$DIMGAP
 40
0.09
  9
$LUNITS
 70
     2
  9
$LUPREC
 70
     4
  9
$SKETCHINC
 40
0.1
  9
$FILLETRAD
 40
2.0
  9
$AUNITS
 70
     0
  9
$AUPREC
 70
     0
  9
$MENU
  1
ACAD
  9
$ELEVATION
 40
0.0
  9
$PELEVATION
 40
0.0
  9
$THICKNESS
 40
0.0
  9
$LIMCHECK
 70
     0
  9
$BLIPMODE
 70
     0
  9
$CHAMFERA
 40
0.0
  9
$CHAMFERB
 40
0.0
  9
$SKPOLY
 70
     0
  9
$TDCREATE
 40
2452095.0148342592
  9
$TDUPDATE
 40
2452095.0168679389
  9
$TDINDWG
 40
0.0020527778
  9
$TDUSRTIMER
 40
0.0020527778
  9
$USRTIMER
 70
     1
  9
$ANGBASE
 50
0.0
  9
$ANGDIR
 70
     0
  9
$PDMODE
 70
     0
  9
$PDSIZE
 40
0.0
  9
$PLINEWID
 40
0.0
  9
$COORDS
 70
     1
  9
$SPLFRAME
 70
     0
  9
$SPLINETYPE
 70
     6
  9
$SPLINESEGS
 70
     8
  9
$ATTDIA
 70
     0
  9
$ATTREQ
 70
     1
  9
$HANDLING
 70
 10241
  9
$HANDSEED
  5
1A1
  9
$SURFTAB1
 70
     6
  9
$SURFTAB2
 70
     6
  9
$SURFTYPE
 70
     6
  9
$SURFU
 70
     6
  9
$SURFV
 70
     6
  9
$UCSNAME
  2

  9
$UCSORG
 10
0.0
 20
0.0
 30
0.0
  9
$UCSXDIR
 10
1.0
 20
0.0
 30
0.0
  9
$UCSYDIR
 10
0.0
 20
1.0
 30
0.0
  9
$PUCSNAME
  2

  9
$PUCSORG
 10
0.0
 20
0.0
 30
0.0
  9
$PUCSXDIR
 10
1.0
 20
0.0
 30
0.0
  9
$PUCSYDIR
 10
0.0
 20
1.0
 30
0.0
  9
$USERI1
 70
     0
  9
$USERI2
 70
     0
  9
$USERI3
 70
     0
  9
$USERI4
 70
     0
  9
$USERI5
 70
     0
  9
$USERR1
 40
0.0
  9
$USERR2
 40
0.0
  9
$USERR3
 40
0.0
  9
$USERR4
 40
0.0
  9
$USERR5
 40
0.0
  9
$WORLDVIEW
 70
     1
  9
$SHADEDGE
 70
     3
  9
$SHADEDIF
 70
    70
  9
$TILEMODE
 70
     1
  9
$MAXACTVP
 70
    64
  9
$PLIMCHECK
 70
     0
  9
$PEXTMIN
 10
1.0000000000000000E+020
 20
1.0000000000000000E+020
 30
1.0000000000000000E+020
  9
$PEXTMAX
 10
-1.0000000000000000E+020
 20
-1.0000000000000000E+020
 30
-1.0000000000000000E+020
  9
$PLIMMIN
 10
0.0
 20
0.0
  9
$PLIMMAX
 10
12.0
 20
9.0
  9
$UNITMODE
 70
     0
  9
$VISRETAIN
 70
     1
  9
$PLINEGEN
 70
     0
  9
$PSLTSCALE
 70
     1
  0
ENDSEC
  0
SECTION
  2
TABLES
  0
TABLE
  2
VPORT
 70
     2
  0
VPORT
  2
*ACTIVE
 70
     0
 10
0.0
 20
0.0
 11
1.0
 21
1.0
 12
-1468.9664262003439
 22
-103.19914515571151
 13
0.0
 23
0.0
 14
1.0
 24
1.0
 15
0.0
 25
0.0
 16
0.0
 26
0.0
 36
1.0
 17
0.0
 27
0.0
 37
0.0
 40
9.0000010356905022
 41
2.4144144144144142
 42
50.0
 43
0.0
 44
0.0
 50
0.0
 51
0.0
 71
     0
 72
   100
 73
     1
 74
     1
 75
     0
 76
     0
 77
     0
 78
     0
  0
ENDTAB
  0
TABLE
  2
LTYPE
 70
     9
  0
LTYPE
  2
CONTINUOUS
 70
     0
  3
Solid line
 72
    65
 73
     0
 40
0.0
  0
LTYPE
  2
BORDER
 70
     0
  3
__ __ . __ __ .
 72
    65
 73
     6
 40
62.401315789473678
 49
17.828947368421051
 49
-8.9144736842105257
 49
17.828947368421051
 49
-8.9144736842105257
 49
0.0
 49
-8.9144736842105257
  0
LTYPE
  2
CENTER
 70
     0
  3
____ _ ____ _
 72
    65
 73
     4
 40
71.315789473684205
 49
44.57236842105263
 49
-8.9144736842105257
 49
8.9144736842105257
 49
-8.9144736842105257
  0
LTYPE
  2
DASHDOT
 70
     0
  3
__ . __ . __ .
 72
    65
 73
     4
 40
35.657894736842103
 49
17.828947368421051
 49
-8.9144736842105257
 49
0.0
 49
-8.9144736842105257
  0
LTYPE
  2
DASHED
 70
     0
  3
__ __ __ __ __
 72
    65
 73
     2
 40
26.743421052631572
 49
17.828947368421051
 49
-8.9144736842105257
  0
LTYPE
  2
DIVIDE
 70
     0
  3
__ . . __ . . 
 72
    65
 73
     6
 40
44.57236842105263
 49
17.828947368421051
 49
-8.9144736842105257
 49
0.0
 49
-8.9144736842105257
 49
0.0
 49
-8.9144736842105257
  0
LTYPE
  2
DOT
 70
     0
  3
..............
 72
    65
 73
     4
 40
17.828947368421051
 49
0.0
 49
-8.9144736842105257
 49
0.0
 49
-8.9144736842105257
  0
LTYPE
  2
HIDDEN
 70
     0
  3
_ _ _ _ _ _ _
 72
    65
 73
     2
 40
13.37171052631578
 49
8.9144736842105257
 49
-4.4572368421052619
  0
LTYPE
  2
PHANTOM
 70
     0
  3
_____ _ _ _____ _ _ 
 72
    65
 73
     6
 40
89.144736842105274
 49
44.57236842105263
 49
-8.9144736842105257
 49
8.9144736842105257
 49
-8.9144736842105257
 49
8.9144736842105257
 49
-8.9144736842105257
  0
ENDTAB
  0
TABLE
  2
LAYER
 70
     2
  0
LAYER
  2
0
 70
     0
 62
     7
  6
CONTINUOUS
  0
LAYER
  2
1
 70
     0
 62
     7
  6
CONTINUOUS
  0
ENDTAB
  0
TABLE
  2
STYLE
 70
     4
  0
STYLE
  2
STANDARD
 70
     0
 40
0.0
 41
1.0
 50
0.0
 71
     0
 42
3.5
  3
txt
  4

  0
STYLE
  2
SIMPLEX
 70
     0
 40
0.0
 41
1.0
 50
0.0
 71
     0
 42
3.5
  3
simplex
  4

  0
STYLE
  2
COMPLEX
 70
     0
 40
0.0
 41
1.0
 50
0.0
 71
     0
 42
3.5
  3
complex
  4

  0
STYLE
  2
ITALIC
 70
     0
 40
0.0
 41
1.0
 50
0.0
 71
     0
 42
3.5
  3
italic
  4

  0
ENDTAB
  0
TABLE
  2
VIEW
 70
     0
  0
ENDTAB
  0
TABLE
  2
UCS
 70
     0
  0
ENDTAB
  0
TABLE
  2
APPID
 70
     1
  0
APPID
  2
ACAD
 70
     0
  0
ENDTAB
  0
TABLE
  2
DIMSTYLE
 70
     1
  0
DIMSTYLE
  2
STANDARD
 70
     0
  3

  4

  5

  6

  7

 40
1.0
 41
0.18
 42
0.0625
 43
0.38
 44
0.18
 45
0.0
 46
0.0
 47
0.0
 48
0.0
140
0.18
141
0.09
142
0.0
143
25.399999999999999
144
1.0
145
0.0
146
1.0
147
0.09
 71
     0
 72
     0
 73
     1
 74
     1
 75
     0
 76
     0
 77
     0
 78
     0
170
     0
171
     2
172
     0
173
     0
174
     0
175
     0
176
     0
177
     0
178
     0
  0
ENDTAB
  0
ENDSEC
  0
SECTION
  2
BLOCKS
  0
BLOCK
  8
0
  2
$MODEL_SPACE
 70
     0
 10
0.0
 20
0.0
 30
0.0
  3
$MODEL_SPACE
  1

  0
ENDBLK
  5
20
  8
0
  0
BLOCK
 67
     1
  8
0
  2
$PAPER_SPACE
 70
     0
 10
0.0
 20
0.0
 30
0.0
  3
$PAPER_SPACE
  1

  0
ENDBLK
  5
1C
 67
     1
  8
0
  0
ENDSEC
  0
SECTION
  2
ENTITIES
  0
LINE
  5
33
  8
1
 62
     7
 10
-1357.657139728037
 20
-374.90695486319771
 30
0.0
 11
-1357.657139728037
 21
-381.6779136987214
 31
0.0
  0
LINE
  5
34
  8
1
 62
     7
 10
-1332.6571397280379
 20
-374.90695486319771
 30
0.0
 11
-1332.6571397280379
 21
-381.6779136987214
 31
0.0
  0
LINE
  5
35
  8
1
 62
     7
 10
-1357.657139728037
 20
-374.90695486319771
 30
0.0
 11
-1332.6571397280379
 21
-374.90695486319771
 31
0.0
  0
LINE
  5
36
  8
1
 62
     7
 10
-1345.157139728037
 20
-206.80419862380981
 30
0.0
 11
-1345.157139728037
 21
-224.9069548631978
 31
0.0
  0
LINE
  5
37
  8
1
 62
     7
 10
-1347.787139728038
 20
-206.80419862380981
 30
0.0
 11
-1347.787139728038
 21
-224.9069548631978
 31
0.0
  0
LINE
  5
38
  8
1
 62
     7
 10
-1342.527139728038
 20
-206.80419862380981
 30
0.0
 11
-1342.527139728038
 21
-224.9069548631978
 31
0.0
  0
LINE
  5
39
  8
1
 62
     7
 10
-1345.7530233126629
 20
-201.80419862380981
 30
0.0
 11
-1345.7530233126629
 21
-206.80419862380981
 31
0.0
  0
LINE
  5
3A
  8
1
 62
     7
 10
-1346.172541747977
 20
-201.80419862380981
 30
0.0
 11
-1346.172541747977
 21
-206.80419862380981
 31
0.0
  0
LINE
  5
3B
  8
1
 62
     7
 10
-1347.1440581244899
 20
-201.80419862380981
 30
0.0
 11
-1347.1440581244899
 21
-206.80419862380981
 31
0.0
  0
LINE
  5
3C
  8
1
 62
     7
 10
-1346.8349392774171
 20
-201.80419862380981
 30
0.0
 11
-1346.8349392774171
 21
-206.80419862380981
 31
0.0
  0
LINE
  5
3D
  8
1
 62
     7
 10
-1346.472139728038
 20
-201.80419862380981
 30
0.0
 11
-1346.472139728038
 21
-206.80419862380981
 31
0.0
  0
LINE
  5
3E
  8
1
 62
     7
 10
-1343.1230233126639
 20
-201.80419862380981
 30
0.0
 11
-1343.1230233126639
 21
-206.80419862380981
 31
0.0
  0
LINE
  5
3F
  8
1
 62
     7
 10
-1343.542541747976
 20
-201.80419862380981
 30
0.0
 11
-1343.542541747976
 21
-206.80419862380981
 31
0.0
  0
LINE
  5
40
  8
1
 62
     7
 10
-1344.51405812449
 20
-201.80419862380981
 30
0.0
 11
-1344.51405812449
 21
-206.80419862380981
 31
0.0
  0
LINE
  5
41
  8
1
 62
     7
 10
-1344.204939277417
 20
-201.80419862380981
 30
0.0
 11
-1344.204939277417
 21
-206.80419862380981
 31
0.0
  0
LINE
  5
42
  8
1
 62
     7
 10
-1343.8421397280381
 20
-201.80419862380981
 30
0.0
 11
-1343.8421397280381
 21
-206.80419862380981
 31
0.0
  0
LINE
  5
43
  8
1
 62
     7
 10
-1342.527139728038
 20
-206.80419862380981
 30
0.0
 11
-1347.787139728038
 21
-206.80419862380981
 31
0.0
  0
LINE
  5
44
  8
1
 62
     7
 10
-1363.1571397280379
 20
-303.75225432481858
 30
0.0
 11
-1365.157139728037
 21
-302.59755378643928
 31
0.0
  0
LINE
  5
45
  8
1
 62
     7
 10
-1363.1571397280379
 20
-306.06165540157713
 30
0.0
 11
-1363.1571397280379
 21
-303.75225432481858
 31
0.0
  0
LINE
  5
46
  8
1
 62
     7
 10
-1365.157139728037
 20
-307.21635593995632
 30
0.0
 11
-1363.1571397280379
 21
-306.06165540157713
 31
0.0
  0
LINE
  5
47
  8
1
 62
     7
 10
-1367.157139728037
 20
-306.06165540157713
 30
0.0
 11
-1365.157139728037
 21
-307.21635593995632
 31
0.0
  0
LINE
  5
48
  8
1
 62
     7
 10
-1367.157139728037
 20
-303.75225432481858
 30
0.0
 11
-1367.157139728037
 21
-306.06165540157713
 31
0.0
  0
LINE
  5
49
  8
1
 62
     7
 10
-1365.157139728037
 20
-302.59755378643928
 30
0.0
 11
-1367.157139728037
 21
-303.75225432481858
 31
0.0
  0
LINE
  5
4A
  8
1
 62
     7
 10
-1323.1571397280379
 20
-303.75225432481858
 30
0.0
 11
-1325.157139728037
 21
-302.59755378643928
 31
0.0
  0
LINE
  5
4B
  8
1
 62
     7
 10
-1323.1571397280379
 20
-306.06165540157713
 30
0.0
 11
-1323.1571397280379
 21
-303.75225432481858
 31
0.0
  0
LINE
  5
4C
  8
1
 62
     7
 10
-1325.157139728037
 20
-307.21635593995632
 30
0.0
 11
-1323.1571397280379
 21
-306.06165540157713
 31
0.0
  0
LINE
  5
4D
  8
1
 62
     7
 10
-1327.157139728037
 20
-306.06165540157713
 30
0.0
 11
-1325.157139728037
 21
-307.21635593995632
 31
0.0
  0
LINE
  5
4E
  8
1
 62
     7
 10
-1327.157139728037
 20
-303.75225432481858
 30
0.0
 11
-1327.157139728037
 21
-306.06165540157713
 31
0.0
  0
LINE
  5
4F
  8
1
 62
     7
 10
-1325.157139728037
 20
-302.59755378643928
 30
0.0
 11
-1327.157139728037
 21
-303.75225432481858
 31
0.0
  0
LINE
  5
50
  8
1
 62
     7
 10
-1038.1571397280379
 20
-309.15695486319783
 30
0.0
 11
-1038.1571397280379
 21
-300.65695486319783
 31
0.0
  0
LINE
  5
51
  8
1
 62
     7
 10
-1038.1571397280379
 20
-300.65695486319783
 30
0.0
 11
-1033.4571397280381
 21
-300.65695486319783
 31
0.0
  0
LINE
  5
52
  8
1
 62
     7
 10
-1038.457139728037
 20
-301.17657010546839
 30
0.0
 11
-1038.1571397280379
 21
-300.65695486319783
 31
0.0
  0
LINE
  5
53
  8
1
 62
     7
 10
-1038.457139728037
 20
-308.63733962092721
 30
0.0
 11
-1038.457139728037
 21
-301.17657010546839
 31
0.0
  0
LINE
  5
54
  8
1
 62
     7
 10
-1038.1571397280379
 20
-309.15695486319783
 30
0.0
 11
-1038.457139728037
 21
-308.63733962092721
 31
0.0
  0
LINE
  5
55
  8
1
 62
     7
 10
-1033.4571397280381
 20
-309.15695486319783
 30
0.0
 11
-1038.1571397280379
 21
-309.15695486319783
 31
0.0
  0
LINE
  5
56
  8
1
 62
     7
 10
-1033.4571397280381
 20
-300.3069548631978
 30
0.0
 11
-1032.1571397280379
 21
-300.3069548631978
 31
0.0
  0
LINE
  5
57
  8
1
 62
     7
 10
-1033.4571397280381
 20
-309.50695486319779
 30
0.0
 11
-1033.4571397280381
 21
-300.3069548631978
 31
0.0
  0
LINE
  5
58
  8
1
 62
     7
 10
-1032.1571397280379
 20
-309.50695486319779
 30
0.0
 11
-1033.4571397280381
 21
-309.50695486319779
 31
0.0
  0
LINE
  5
59
  8
1
 62
     7
 10
-1032.1571397280379
 20
-303.60695486319781
 30
0.0
 11
-1033.4571397280381
 21
-304.90695486319783
 31
0.0
  0
LINE
  5
5A
  8
1
 62
     7
 10
-1032.1571397280379
 20
-304.90695486319783
 30
0.0
 11
-1033.4571397280381
 21
-306.20695486319778
 31
0.0
  0
LINE
  5
5B
  8
1
 62
     7
 10
-1032.1571397280379
 20
-316.93461311531689
 30
0.0
 11
-1030.1571397280379
 21
-316.93461311531689
 31
0.0
  0
LINE
  5
5C
  8
1
 62
     7
 10
-1032.1571397280379
 20
-290.94433304121691
 30
0.0
 11
-1030.1571397280379
 21
-290.94433304121691
 31
0.0
  0
LINE
  5
5D
  8
1
 62
     7
 10
-1032.1571397280379
 20
-289.96579474055289
 30
0.0
 11
-1030.1571397280379
 21
-289.96579474055289
 31
0.0
  0
LINE
  5
5E
  8
1
 62
     7
 10
-1032.1571397280379
 20
-289.96579474055289
 30
0.0
 11
-1032.1571397280379
 21
-316.93461311531689
 31
0.0
  0
LINE
  5
5F
  8
1
 62
     7
 10
-1372.6571397280379
 20
-310.93461311531701
 30
0.0
 11
-1372.6571397280379
 21
-295.86887459017908
 31
0.0
  0
LINE
  5
60
  8
1
 62
     7
 10
-1317.6571397280379
 20
-310.93461311531689
 30
0.0
 11
-1317.6571397280379
 21
-295.86887459017908
 31
0.0
  0
LINE
  5
61
  8
1
 62
     7
 10
-1332.6571397280379
 20
-224.9069548631978
 30
0.0
 11
-1357.657139728037
 21
-224.9069548631978
 31
0.0
  0
LINE
  5
62
  8
1
 62
     7
 10
-1357.657139728037
 20
-315.6260701235542
 30
0.0
 11
-1357.657139728037
 21
-224.9069548631978
 31
0.0
  0
LINE
  5
63
  8
1
 62
     7
 10
-1332.6571397280379
 20
-224.9069548631978
 30
0.0
 11
-1332.6571397280379
 21
-315.6260701235542
 31
0.0
  0
LINE
  5
64
  8
1
  6
DASHDOT
 62
     3
 10
-1345.157139728037
 20
-407.14542382499093
 30
0.0
 11
-1345.157139728037
 21
-442.66848590140472
 31
0.0
  0
LINE
  5
65
  8
1
  6
DASHDOT
 62
     3
 10
-1327.3956086898311
 20
-424.90695486319771
 30
0.0
 11
-1362.918670766245
 21
-424.90695486319771
 31
0.0
  0
LINE
  5
66
  8
1
 62
     7
 10
-1047.657139728037
 20
-316.90695486319783
 30
0.0
 11
-1047.657139728037
 21
-532.90695486319783
 31
0.0
  0
LINE
  5
67
  8
1
 62
     7
 10
-1030.1571397280379
 20
-224.9069548631978
 30
0.0
 11
-1030.1571397280379
 21
-568.90695486319783
 31
0.0
  0
LINE
  5
68
  8
1
 62
     7
 10
-1046.657139728037
 20
-533.90695486319783
 30
0.0
 11
-1046.657139728037
 21
-315.90695486319783
 31
0.0
  0
LINE
  5
69
  8
1
 62
     7
 10
-1029.157139728037
 20
-569.90695486319783
 30
0.0
 11
-1029.157139728037
 21
-279.90695486319783
 31
0.0
  0
LINE
  5
6A
  8
1
 62
     7
 10
-946.15713972803803
 20
-279.90695486319783
 30
0.0
 11
-946.15713972803803
 21
-569.90695486319783
 31
0.0
  0
LINE
  5
6B
  8
1
 62
     3
 10
-934.15713972803815
 20
-279.90695486319783
 30
0.0
 11
-903.35713972803808
 21
-569.90695486319783
 31
0.0
  0
LINE
  5
6C
  8
1
 62
     3
 10
-934.15713972803815
 20
-569.90695486319783
 30
0.0
 11
-903.35713972803808
 21
-279.90695486319783
 31
0.0
  0
LINE
  5
6D
  8
1
 62
     7
 10
-886.35713972803808
 20
-352.40695486319771
 30
0.0
 11
-885.15713972803792
 21
-352.40695486319771
 31
0.0
  0
LINE
  5
6E
  8
1
 62
     7
 10
-891.35713972803796
 20
-293.90695486319783
 30
0.0
 11
-891.35713972803796
 21
-555.90695486319783
 31
0.0
  0
LINE
  5
6F
  8
1
 62
     7
 10
-946.15713972803803
 20
-569.90695486319783
 30
0.0
 11
-1029.157139728037
 21
-569.90695486319783
 31
0.0
  0
LINE
  5
70
  8
1
 62
     7
 10
-1047.657139728037
 20
-532.90695486319783
 30
0.0
 11
-1046.657139728037
 21
-533.90695486319783
 31
0.0
  0
LINE
  5
71
  8
1
 62
     7
 10
-903.35713972803808
 20
-569.90695486319783
 30
0.0
 11
-934.15713972803815
 21
-569.90695486319783
 31
0.0
  0
LINE
  5
72
  8
1
 62
     7
 10
-903.35713972803808
 20
-555.90695486319783
 30
0.0
 11
-891.35713972803796
 21
-555.90695486319783
 31
0.0
  0
LINE
  5
73
  8
1
 62
     7
 10
-891.35713972803796
 20
-555.90695486319783
 30
0.0
 11
-886.35713972803808
 21
-550.90695486319783
 31
0.0
  0
LINE
  5
74
  8
1
 62
     7
 10
-903.35713972803808
 20
-569.90695486319783
 30
0.0
 11
-903.35713972803808
 21
-279.90695486319783
 31
0.0
  0
LINE
  5
75
  8
1
 62
     7
 10
-1030.1571397280379
 20
-533.90695486319783
 30
0.0
 11
-1046.657139728037
 21
-533.90695486319783
 31
0.0
  0
LINE
  5
76
  8
1
 62
     7
 10
-946.15713972803803
 20
-569.90695486319783
 30
0.0
 11
-939.15713972803803
 21
-562.90695486319783
 31
0.0
  0
LINE
  5
77
  8
1
 62
     7
 10
-1029.157139728037
 20
-569.90695486319783
 30
0.0
 11
-1030.1571397280379
 21
-568.90695486319783
 31
0.0
  0
LINE
  5
78
  8
1
 62
     7
 10
-934.15713972803815
 20
-555.90695486319783
 30
0.0
 11
-939.15713972803803
 21
-555.90695486319783
 31
0.0
  0
LINE
  5
79
  8
1
 62
     7
 10
-934.15713972803815
 20
-569.90695486319783
 30
0.0
 11
-934.15713972803815
 21
-279.90695486319783
 31
0.0
  0
LINE
  5
7A
  8
1
 62
     7
 10
-885.15713972803792
 20
-497.40695486319783
 30
0.0
 11
-886.35713972803808
 21
-497.40695486319783
 31
0.0
  0
LINE
  5
7B
  8
1
 62
     7
 10
-1055.1571397280379
 20
-484.90695486319783
 30
0.0
 11
-1047.657139728037
 21
-484.90695486319783
 31
0.0
  0
LINE
  5
7C
  8
1
 62
     7
 10
-1050.1571397280379
 20
-224.9069548631978
 30
0.0
 11
-1030.1571397280379
 21
-224.9069548631978
 31
0.0
  0
LINE
  5
7D
  8
1
 62
     7
 10
-1029.157139728037
 20
-279.90695486319783
 30
0.0
 11
-946.15713972803803
 21
-279.90695486319783
 31
0.0
  0
LINE
  5
7E
  8
1
 62
     7
 10
-1046.657139728037
 20
-315.90695486319783
 30
0.0
 11
-1047.657139728037
 21
-316.90695486319783
 31
0.0
  0
LINE
  5
7F
  8
1
  6
DASHDOT
 62
     3
 10
-1055.1571397280379
 20
-424.90695486319771
 30
0.0
 11
-1063.1571397280379
 21
-424.90695486319771
 31
0.0
  0
LINE
  5
80
  8
1
  6
DASHDOT
 62
     3
 10
-885.15713972803792
 20
-424.90695486319771
 30
0.0
 11
-877.15713972803792
 21
-424.90695486319771
 31
0.0
  0
LINE
  5
81
  8
1
 62
     7
 10
-1050.1571397280379
 20
-314.90695486319783
 30
0.0
 11
-1050.1571397280379
 21
-224.9069548631978
 31
0.0
  0
LINE
  5
82
  8
1
 62
     7
 10
-934.15713972803815
 20
-279.90695486319783
 30
0.0
 11
-903.35713972803808
 21
-279.90695486319783
 31
0.0
  0
LINE
  5
83
  8
1
 62
     7
 10
-891.35713972803796
 20
-293.90695486319783
 30
0.0
 11
-903.35713972803808
 21
-293.90695486319783
 31
0.0
  0
LINE
  5
84
  8
1
 62
     7
 10
-886.35713972803808
 20
-298.90695486319783
 30
0.0
 11
-891.35713972803796
 21
-293.90695486319783
 31
0.0
  0
LINE
  5
85
  8
1
 62
     7
 10
-886.35713972803808
 20
-298.90695486319783
 30
0.0
 11
-886.35713972803808
 21
-550.90695486319783
 31
0.0
  0
LINE
  5
86
  8
1
 62
     7
 10
-1046.657139728037
 20
-315.90695486319783
 30
0.0
 11
-1032.1571397280379
 21
-315.90695486319783
 31
0.0
  0
LINE
  5
87
  8
1
 62
     7
 10
-939.15713972803803
 20
-286.90695486319783
 30
0.0
 11
-946.15713972803803
 21
-279.90695486319783
 31
0.0
  0
LINE
  5
88
  8
1
 62
     7
 10
-1030.1571397280379
 20
-280.90695486319783
 30
0.0
 11
-1029.157139728037
 21
-279.90695486319783
 31
0.0
  0
LINE
  5
89
  8
1
 62
     7
 10
-939.15713972803803
 20
-286.90695486319783
 30
0.0
 11
-939.15713972803803
 21
-562.90695486319783
 31
0.0
  0
LINE
  5
8A
  8
1
 62
     7
 10
-939.15713972803803
 20
-293.90695486319783
 30
0.0
 11
-934.15713972803815
 21
-293.90695486319783
 31
0.0
  0
LINE
  5
8B
  8
1
 62
     7
 10
-1055.1571397280379
 20
-484.90695486319783
 30
0.0
 11
-1055.1571397280379
 21
-364.90695486319771
 31
0.0
  0
LINE
  5
8C
  8
1
 62
     7
 10
-885.15713972803792
 20
-352.40695486319771
 30
0.0
 11
-885.15713972803792
 21
-497.40695486319783
 31
0.0
  0
LINE
  5
8D
  8
1
 62
     7
 10
-1047.657139728037
 20
-364.90695486319771
 30
0.0
 11
-1055.1571397280379
 21
-364.90695486319771
 31
0.0
  0
LINE
  5
8E
  8
1
 62
     7
 10
-1032.1571397280379
 20
-314.90695486319783
 30
0.0
 11
-1050.1571397280379
 21
-314.90695486319783
 31
0.0
  0
LINE
  5
8F
  8
1
 62
     7
 10
-1038.4380233126631
 20
-201.80419862380981
 30
0.0
 11
-1038.4380233126631
 21
-206.80419862380981
 31
0.0
  0
LINE
  5
90
  8
1
 62
     7
 10
-1038.8575417479769
 20
-201.80419862380981
 30
0.0
 11
-1038.8575417479769
 21
-206.80419862380981
 31
0.0
  0
LINE
  5
91
  8
1
 62
     7
 10
-1039.8290581244901
 20
-201.80419862380981
 30
0.0
 11
-1039.8290581244901
 21
-206.80419862380981
 31
0.0
  0
LINE
  5
92
  8
1
 62
     7
 10
-1039.5199392774171
 20
-201.80419862380981
 30
0.0
 11
-1039.5199392774171
 21
-206.80419862380981
 31
0.0
  0
LINE
  5
93
  8
1
 62
     7
 10
-1039.1571397280379
 20
-201.80419862380981
 30
0.0
 11
-1039.1571397280379
 21
-206.80419862380981
 31
0.0
  0
LINE
  5
94
  8
1
 62
     7
 10
-1040.472139728038
 20
-206.80419862380981
 30
0.0
 11
-1040.472139728038
 21
-224.9069548631978
 31
0.0
  0
LINE
  5
95
  8
1
 62
     7
 10
-1040.472139728038
 20
-206.80419862380981
 30
0.0
 11
-1037.8421397280381
 21
-206.80419862380981
 31
0.0
  0
LINE
  5
96
  8
1
 62
     7
 10
-1037.8421397280381
 20
-224.9069548631978
 30
0.0
 11
-1037.8421397280381
 21
-206.80419862380981
 31
0.0
  0
LINE
  5
97
  8
1
 62
     7
 10
-715.15713972803781
 20
-533.90695486319783
 30
0.0
 11
-715.15713972803781
 21
-568.90695486319783
 31
0.0
  0
LINE
  5
98
  8
1
 62
     7
 10
-631.15713972803792
 20
-569.90695486319783
 30
0.0
 11
-714.15713972803792
 21
-569.90695486319783
 31
0.0
  0
LINE
  5
99
  8
1
 62
     7
 10
-732.65713972803792
 20
-532.90695486319783
 30
0.0
 11
-731.65713972803781
 21
-533.90695486319783
 31
0.0
  0
LINE
  5
9A
  8
1
 62
     7
 10
-667.95713972803776
 20
-490.90695486319771
 30
0.0
 11
-667.95713972803776
 21
-508.90695486319771
 31
0.0
  0
LINE
  5
9B
  8
1
 62
     7
 10
-690.35713972803796
 20
-490.90695486319771
 30
0.0
 11
-690.35713972803785
 21
-508.90695486319771
 31
0.0
  0
LINE
  5
9C
  8
1
 62
     7
 10
-674.65713972803792
 20
-492.11272622913788
 30
0.0
 11
-665.15713972803781
 21
-492.11272622913788
 31
0.0
  0
LINE
  5
9D
  8
1
 62
     7
 10
-674.65713972803792
 20
-507.70118349725777
 30
0.0
 11
-665.15713972803781
 21
-507.70118349725772
 31
0.0
  0
LINE
  5
9E
  8
1
 62
     7
 10
-718.35713972803796
 20
-508.90695486319771
 30
0.0
 11
-718.35713972803796
 21
-490.90695486319771
 31
0.0
  0
LINE
  5
9F
  8
1
 62
     7
 10
-695.95713972803776
 20
-508.90695486319771
 30
0.0
 11
-695.95713972803776
 21
-490.90695486319771
 31
0.0
  0
LINE
  5
A0
  8
1
 62
     7
 10
-683.65713972803792
 20
-492.11272622913788
 30
0.0
 11
-702.65713972803781
 21
-492.11272622913788
 31
0.0
  0
LINE
  5
A1
  8
1
 62
     7
 10
-721.15713972803792
 20
-492.11272622913788
 30
0.0
 11
-711.65713972803792
 21
-492.11272622913788
 31
0.0
  0
LINE
  5
A2
  8
1
 62
     7
 10
-721.15713972803792
 20
-507.70118349725772
 30
0.0
 11
-711.65713972803792
 21
-507.70118349725777
 31
0.0
  0
LINE
  5
A3
  8
1
 62
     7
 10
-683.65713972803792
 20
-507.70118349725777
 30
0.0
 11
-702.65713972803781
 21
-507.70118349725777
 31
0.0
  0
LINE
  5
A4
  8
1
 62
     7
 10
-693.15713972803792
 20
-514.90695486319771
 30
0.0
 11
-693.15713972803792
 21
-484.90695486319783
 31
0.0
  0
LINE
  5
A5
  8
1
 62
     7
 10
-721.15713972803792
 20
-482.90695486319771
 30
0.0
 11
-721.15713972803792
 21
-519.65695486319783
 31
0.0
  0
LINE
  5
A6
  8
1
 62
     7
 10
-580.15713972803792
 20
-496.90695486319771
 30
0.0
 11
-619.15713972803781
 21
-496.90695486319771
 31
0.0
  0
LINE
  5
A7
  8
1
 62
     3
 10
-619.15713972803781
 20
-569.90695486319783
 30
0.0
 11
-588.35713972803796
 21
-496.90695486319788
 31
0.0
  0
LINE
  5
A8
  8
1
 62
     3
 10
-588.35713972803796
 20
-569.90695486319783
 30
0.0
 11
-619.15713972803781
 21
-496.90695486319771
 31
0.0
  0
LINE
  5
A9
  8
1
 62
     7
 10
-588.35713972803796
 20
-569.90695486319783
 30
0.0
 11
-619.15713972803781
 21
-569.90695486319783
 31
0.0
  0
LINE
  5
AA
  8
1
 62
     7
 10
-573.35713972803796
 20
-510.40695486319783
 30
0.0
 11
-573.35713972803796
 21
-502.90695486319771
 31
0.0
  0
LINE
  5
AB
  8
1
 62
     7
 10
-571.35713972803796
 20
-512.40695486319783
 30
0.0
 11
-573.35713972803796
 21
-510.40695486319783
 31
0.0
  0
LINE
  5
AC
  8
1
 62
     7
 10
-588.35713972803796
 20
-555.90695486319783
 30
0.0
 11
-576.35713972803796
 21
-555.90695486319783
 31
0.0
  0
LINE
  5
AD
  8
1
 62
     7
 10
-576.35713972803796
 20
-555.90695486319783
 30
0.0
 11
-571.35713972803796
 21
-550.90695486319783
 31
0.0
  0
LINE
  5
AE
  8
1
 62
     7
 10
-588.35713972803796
 20
-569.90695486319783
 30
0.0
 11
-588.35713972803796
 21
-496.90695486319788
 31
0.0
  0
LINE
  5
AF
  8
1
 62
     7
 10
-571.35713972803796
 20
-502.90695486319783
 30
0.0
 11
-571.35713972803796
 21
-550.90695486319783
 31
0.0
  0
LINE
  5
B0
  8
1
 62
     7
 10
-578.15713972803792
 20
-510.40695486319783
 30
0.0
 11
-573.35713972803796
 21
-510.40695486319783
 31
0.0
  0
LINE
  5
B1
  8
1
 62
     7
 10
-576.15713972803792
 20
-507.00695486319779
 30
0.0
 11
-580.15713972803792
 21
-507.00695486319779
 31
0.0
  0
LINE
  5
B2
  8
1
 62
     7
 10
-580.15713972803792
 20
-508.40695486319771
 30
0.0
 11
-580.15713972803792
 21
-495.40695486319771
 31
0.0
  0
LINE
  5
B3
  8
1
 62
     7
 10
-641.15713972803792
 20
-559.90695486319783
 30
0.0
 11
-641.15713972803792
 21
-530.90695486319783
 31
0.0
  0
LINE
  5
B4
  8
1
 62
     7
 10
-721.15713972803792
 20
-484.90695486319783
 30
0.0
 11
-664.15713972803792
 21
-484.90695486319783
 31
0.0
  0
LINE
  5
B5
  8
1
 62
     7
 10
-665.15713972803781
 20
-514.90695486319771
 30
0.0
 11
-665.15713972803781
 21
-484.90695486319783
 31
0.0
  0
LINE
  5
B6
  8
1
 62
     7
 10
-721.15713972803792
 20
-514.90695486319771
 30
0.0
 11
-665.15713972803781
 21
-514.90695486319771
 31
0.0
  0
LINE
  5
B7
  8
1
 62
     7
 10
-619.15713972803781
 20
-486.90695486319771
 30
0.0
 11
-665.15713972803781
 21
-486.90695486319771
 31
0.0
  0
LINE
  5
B8
  8
1
 62
     7
 10
-715.15713972803781
 20
-533.90695486319783
 30
0.0
 11
-731.65713972803781
 21
-533.90695486319783
 31
0.0
  0
LINE
  5
B9
  8
1
 62
     7
 10
-640.15713972803781
 20
-530.90695486319783
 30
0.0
 11
-639.15713972803792
 21
-529.90695486319783
 31
0.0
  0
LINE
  5
BA
  8
1
 62
     7
 10
-631.15713972803792
 20
-569.90695486319783
 30
0.0
 11
-624.15713972803792
 21
-562.90695486319783
 31
0.0
  0
LINE
  5
BB
  8
1
 62
     7
 10
-714.15713972803792
 20
-569.90695486319783
 30
0.0
 11
-715.15713972803781
 21
-568.90695486319783
 31
0.0
  0
LINE
  5
BC
  8
1
 62
     7
 10
-624.15713972803792
 20
-559.90695486319783
 30
0.0
 11
-624.15713972803792
 21
-562.90695486319783
 31
0.0
  0
LINE
  5
BD
  8
1
 62
     7
 10
-640.15713972803781
 20
-530.90695486319783
 30
0.0
 11
-641.15713972803792
 21
-530.90695486319783
 31
0.0
  0
LINE
  5
BE
  8
1
 62
     7
 10
-639.15713972803792
 20
-509.90695486319783
 30
0.0
 11
-639.15713972803792
 21
-529.90695486319783
 31
0.0
  0
LINE
  5
BF
  8
1
 62
     7
 10
-665.15713972803781
 20
-509.90695486319783
 30
0.0
 11
-639.15713972803792
 21
-509.90695486319783
 31
0.0
  0
LINE
  5
C0
  8
1
 62
     7
 10
-639.15713972803792
 20
-542.40695486319783
 30
0.0
 11
-637.15713972803792
 21
-542.40695486319783
 31
0.0
  0
LINE
  5
C1
  8
1
 62
     7
 10
-664.15713972803792
 20
-493.90695486319783
 30
0.0
 11
-665.15713972803781
 21
-493.90695486319783
 31
0.0
  0
LINE
  5
C2
  8
1
 62
     7
 10
-664.15713972803792
 20
-509.1069548631977
 30
0.0
 11
-664.15713972803792
 21
-493.90695486319783
 31
0.0
  0
LINE
  5
C3
  8
1
 62
     7
 10
-637.15713972803792
 20
-509.1069548631977
 30
0.0
 11
-664.15713972803792
 21
-509.1069548631977
 31
0.0
  0
LINE
  5
C4
  8
1
 62
     7
 10
-637.15713972803792
 20
-542.40695486319783
 30
0.0
 11
-637.15713972803792
 21
-509.1069548631977
 31
0.0
  0
LINE
  5
C5
  8
1
 62
     7
 10
-639.15713972803792
 20
-559.10695486319776
 30
0.0
 11
-639.15713972803792
 21
-542.40695486319783
 31
0.0
  0
LINE
  5
C6
  8
1
 62
     7
 10
-624.15713972803792
 20
-559.10695486319776
 30
0.0
 11
-639.15713972803792
 21
-559.10695486319776
 31
0.0
  0
LINE
  5
C7
  8
1
 62
     7
 10
-624.15713972803792
 20
-555.90695486319783
 30
0.0
 11
-624.15713972803792
 21
-559.10695486319776
 31
0.0
  0
LINE
  5
C8
  8
1
 62
     7
 10
-619.15713972803781
 20
-555.90695486319783
 30
0.0
 11
-624.15713972803792
 21
-555.90695486319783
 31
0.0
  0
LINE
  5
C9
  8
1
 62
     7
 10
-609.15713972803792
 20
-469.90695486319771
 30
0.0
 11
-661.15713972803781
 21
-469.90695486319771
 31
0.0
  0
LINE
  5
CA
  8
1
 62
     7
 10
-669.15713972803781
 20
-469.90695486319771
 30
0.0
 11
-740.15713972803781
 21
-469.9069548631976
 31
0.0
  0
LINE
  5
CB
  8
1
 62
     7
 10
-661.15713972803781
 20
-470.90695486319771
 30
0.0
 11
-669.15713972803781
 21
-470.90695486319771
 31
0.0
  0
LINE
  5
CC
  8
1
 62
     7
 10
-601.15713972803792
 20
-470.90695486319771
 30
0.0
 11
-609.15713972803792
 21
-470.90695486319771
 31
0.0
  0
LINE
  5
CD
  8
1
 62
     7
 10
-570.15713972803792
 20
-496.90695486319771
 30
0.0
 11
-576.15713972803792
 21
-496.90695486319771
 31
0.0
  0
LINE
  5
CE
  8
1
  6
DASHDOT
 62
     3
 10
-578.41613467264767
 20
-499.90695486319771
 30
0.0
 11
-621.0989015699497
 21
-499.90695486319771
 31
0.0
  0
LINE
  5
CF
  8
1
 62
     7
 10
-601.15713972803792
 20
-469.90695486319771
 30
0.0
 11
-570.15713972803792
 21
-469.9069548631976
 31
0.0
  0
LINE
  5
D0
  8
1
 62
     7
 10
-664.15713972803792
 20
-486.90695486319771
 30
0.0
 11
-664.15713972803792
 21
-484.90695486319783
 31
0.0
  0
LINE
  5
D1
  8
1
 62
     7
 10
-619.15713972803781
 20
-569.90695486319783
 30
0.0
 11
-619.15713972803781
 21
-486.90695486319771
 31
0.0
  0
LINE
  5
D2
  8
1
 62
     7
 10
-580.15713972803792
 20
-502.3069548631978
 30
0.0
 11
-619.15713972803781
 21
-502.3069548631978
 31
0.0
  0
LINE
  5
D3
  8
1
 62
     7
 10
-576.15713972803792
 20
-495.40695486319771
 30
0.0
 11
-580.15713972803792
 21
-495.40695486319771
 31
0.0
  0
LINE
  5
D4
  8
1
 62
     7
 10
-576.15713972803792
 20
-507.00695486319779
 30
0.0
 11
-576.15713972803792
 21
-495.40695486319771
 31
0.0
  0
LINE
  5
D5
  8
1
 62
     7
 10
-570.15713972803792
 20
-497.40695486319783
 30
0.0
 11
-576.15713972803792
 21
-497.40695486319783
 31
0.0
  0
LINE
  5
D6
  8
1
 62
     7
 10
-725.15713972803792
 20
-493.20695486319778
 30
0.0
 11
-721.15713972803792
 21
-493.20695486319778
 31
0.0
  0
LINE
  5
D7
  8
1
 62
     7
 10
-721.15713972803792
 20
-482.90695486319771
 30
0.0
 11
-725.15713972803792
 21
-482.90695486319771
 31
0.0
  0
LINE
  5
D8
  8
1
 62
     7
 10
-725.15713972803792
 20
-482.90695486319771
 30
0.0
 11
-725.15713972803792
 21
-493.20695486319778
 31
0.0
  0
LINE
  5
D9
  8
1
 62
     7
 10
-740.15713972803781
 20
-484.90695486319783
 30
0.0
 11
-725.15713972803792
 21
-484.90695486319783
 31
0.0
  0
LINE
  5
DA
  8
1
 62
     7
 10
-725.15713972803792
 20
-519.65695486319783
 30
0.0
 11
-721.15713972803792
 21
-519.65695486319783
 31
0.0
  0
LINE
  5
DB
  8
1
 62
     7
 10
-721.15713972803792
 20
-506.65695486319771
 30
0.0
 11
-725.15713972803792
 21
-506.65695486319771
 31
0.0
  0
LINE
  5
DC
  8
1
 62
     7
 10
-725.15713972803792
 20
-497.24167078917878
 30
0.0
 11
-725.15713972803792
 21
-519.65695486319783
 31
0.0
  0
LINE
  5
DD
  8
1
 62
     7
 10
-732.65713972803792
 20
-532.90695486319783
 30
0.0
 11
-732.65713972803792
 21
-484.90695486319783
 31
0.0
  0
LINE
  5
DE
  8
1
 62
     7
 10
-732.65713972803792
 20
-514.90695486319771
 30
0.0
 11
-725.15713972803792
 21
-514.90695486319771
 31
0.0
  0
LINE
  5
DF
  8
1
 62
     7
 10
-641.15713972803792
 20
-559.90695486319783
 30
0.0
 11
-624.15713972803792
 21
-559.90695486319783
 31
0.0
  0
LINE
  5
E0
  8
1
 62
     7
 10
-722.84213972803809
 20
-224.9069548631978
 30
0.0
 11
-715.15713972803781
 21
-224.9069548631978
 31
0.0
  0
LINE
  5
E1
  8
1
 62
     7
 10
-714.15713972803792
 20
-279.90695486319783
 30
0.0
 11
-631.15713972803792
 21
-279.90695486319783
 31
0.0
  0
LINE
  5
E2
  8
1
 62
     7
 10
-731.65713972803781
 20
-315.90695486319783
 30
0.0
 11
-732.65713972803792
 21
-316.90695486319783
 31
0.0
  0
LINE
  5
E3
  8
1
 62
     7
 10
-667.95713972803776
 20
-340.90695486319783
 30
0.0
 11
-667.95713972803776
 21
-358.90695486319771
 31
0.0
  0
LINE
  5
E4
  8
1
 62
     7
 10
-690.35713972803785
 20
-340.90695486319783
 30
0.0
 11
-690.35713972803796
 21
-358.90695486319771
 31
0.0
  0
LINE
  5
E5
  8
1
 62
     7
 10
-665.15713972803781
 20
-357.70118349725772
 30
0.0
 11
-674.65713972803792
 21
-357.70118349725777
 31
0.0
  0
LINE
  5
E6
  8
1
 62
     7
 10
-665.15713972803781
 20
-342.11272622913782
 30
0.0
 11
-674.65713972803792
 21
-342.11272622913782
 31
0.0
  0
LINE
  5
E7
  8
1
 62
     7
 10
-718.35713972803796
 20
-358.90695486319771
 30
0.0
 11
-718.35713972803796
 21
-340.90695486319783
 31
0.0
  0
LINE
  5
E8
  8
1
 62
     7
 10
-695.95713972803776
 20
-358.90695486319771
 30
0.0
 11
-695.95713972803776
 21
-340.90695486319783
 31
0.0
  0
LINE
  5
E9
  8
1
 62
     7
 10
-702.65713972803781
 20
-357.70118349725777
 30
0.0
 11
-683.65713972803792
 21
-357.70118349725777
 31
0.0
  0
LINE
  5
EA
  8
1
 62
     7
 10
-711.65713972803792
 20
-357.70118349725777
 30
0.0
 11
-721.15713972803792
 21
-357.70118349725772
 31
0.0
  0
LINE
  5
EB
  8
1
 62
     7
 10
-711.65713972803792
 20
-342.11272622913782
 30
0.0
 11
-721.15713972803792
 21
-342.11272622913782
 31
0.0
  0
LINE
  5
EC
  8
1
 62
     7
 10
-702.65713972803781
 20
-342.11272622913782
 30
0.0
 11
-683.65713972803792
 21
-342.11272622913782
 31
0.0
  0
LINE
  5
ED
  8
1
 62
     7
 10
-693.15713972803792
 20
-364.90695486319771
 30
0.0
 11
-693.15713972803792
 21
-334.90695486319783
 31
0.0
  0
LINE
  5
EE
  8
1
 62
     7
 10
-721.15713972803792
 20
-330.15695486319783
 30
0.0
 11
-721.15713972803792
 21
-366.90695486319771
 31
0.0
  0
LINE
  5
EF
  8
1
 62
     7
 10
-619.15713972803781
 20
-352.90695486319771
 30
0.0
 11
-580.15713972803792
 21
-352.90695486319771
 31
0.0
  0
LINE
  5
F0
  8
1
  6
DASHDOT
 62
     3
 10
-740.15713972803781
 20
-424.90695486319771
 30
0.0
 11
-748.15713972803792
 21
-424.90695486319771
 31
0.0
  0
LINE
  5
F1
  8
1
  6
DASHDOT
 62
     3
 10
-570.15713972803792
 20
-424.90695486319771
 30
0.0
 11
-562.15713972803792
 21
-424.90695486319771
 31
0.0
  0
LINE
  5
F2
  8
1
 62
     7
 10
-280.15713972803792
 20
-279.90695486319783
 30
0.0
 11
-280.15713972803792
 21
-206.80419862380981
 31
0.0
  0
LINE
  5
F3
  8
1
 62
     7
 10
-277.52713972803832
 20
-279.93080820451468
 30
0.0
 11
-277.52713972803809
 21
-206.80419862380981
 31
0.0
  0
LINE
  5
F4
  8
1
 62
     7
 10
-282.78713972803808
 20
-279.93080820451468
 30
0.0
 11
-282.7871397280378
 21
-206.80419862380981
 31
0.0
  0
LINE
  5
F5
  8
1
 62
     7
 10
-280.75302331266391
 20
-201.80419862380981
 30
0.0
 11
-280.75302331266391
 21
-206.80419862380981
 31
0.0
  0
LINE
  5
F6
  8
1
 62
     7
 10
-281.17254174797682
 20
-201.80419862380981
 30
0.0
 11
-281.17254174797682
 21
-206.80419862380981
 31
0.0
  0
LINE
  5
F7
  8
1
 62
     7
 10
-282.1440581244899
 20
-201.80419862380981
 30
0.0
 11
-282.1440581244899
 21
-206.80419862380981
 31
0.0
  0
LINE
  5
F8
  8
1
 62
     7
 10
-281.83493927741682
 20
-201.80419862380981
 30
0.0
 11
-281.83493927741682
 21
-206.80419862380981
 31
0.0
  0
LINE
  5
F9
  8
1
 62
     7
 10
-281.47213972803792
 20
-201.80419862380981
 30
0.0
 11
-281.47213972803792
 21
-206.80419862380981
 31
0.0
  0
LINE
  5
FA
  8
1
 62
     7
 10
-278.12302331266392
 20
-201.80419862380981
 30
0.0
 11
-278.12302331266392
 21
-206.80419862380981
 31
0.0
  0
LINE
  5
FB
  8
1
 62
     7
 10
-278.54254174797688
 20
-201.80419862380981
 30
0.0
 11
-278.54254174797688
 21
-206.80419862380981
 31
0.0
  0
LINE
  5
FC
  8
1
 62
     7
 10
-279.51405812449002
 20
-201.80419862380981
 30
0.0
 11
-279.51405812449002
 21
-206.80419862380981
 31
0.0
  0
LINE
  5
FD
  8
1
 62
     7
 10
-279.204939277417
 20
-201.80419862380981
 30
0.0
 11
-279.204939277417
 21
-206.80419862380981
 31
0.0
  0
LINE
  5
FE
  8
1
 62
     7
 10
-278.84213972803792
 20
-201.80419862380981
 30
0.0
 11
-278.84213972803792
 21
-206.80419862380981
 31
0.0
  0
LINE
  5
FF
  8
1
 62
     7
 10
-277.52713972803809
 20
-206.80419862380981
 30
0.0
 11
-282.7871397280378
 21
-206.80419862380981
 31
0.0
  0
LINE
  5
100
  8
1
  6
DASHDOT
 62
     3
 10
-280.15713972803792
 20
-407.14542382499093
 30
0.0
 11
-280.15713972803792
 21
-442.66848590140472
 31
0.0
  0
LINE
  5
101
  8
1
  6
DASHDOT
 62
     3
 10
-262.39560868983102
 20
-424.90695486319771
 30
0.0
 11
-297.9186707662447
 21
-424.90695486319771
 31
0.0
  0
LINE
  5
102
  8
1
 62
     7
 10
-292.65713972803792
 20
-374.90695486319771
 30
0.0
 11
-292.65713972803792
 21
-381.6779136987214
 31
0.0
  0
LINE
  5
103
  8
1
 62
     7
 10
-267.65713972803792
 20
-374.90695486319771
 30
0.0
 11
-267.65713972803792
 21
-381.6779136987214
 31
0.0
  0
LINE
  5
104
  8
1
 62
     7
 10
-292.65713972803792
 20
-374.90695486319771
 30
0.0
 11
-267.65713972803792
 21
-374.90695486319771
 31
0.0
  0
LINE
  5
105
  8
1
 62
     7
 10
-735.15713972803792
 20
-314.90695486319783
 30
0.0
 11
-735.15713972803792
 21
-224.9069548631978
 31
0.0
  0
LINE
  5
106
  8
1
 62
     7
 10
-735.15713972803792
 20
-224.9069548631978
 30
0.0
 11
-725.47213972803797
 21
-224.9069548631978
 31
0.0
  0
LINE
  5
107
  8
1
 62
     3
 10
-588.35713972803796
 20
-352.90695486319771
 30
0.0
 11
-619.15713972803781
 21
-279.90695486319783
 31
0.0
  0
LINE
  5
108
  8
1
 62
     3
 10
-619.15713972803781
 20
-352.90695486319771
 30
0.0
 11
-588.35713972803796
 21
-279.90695486319783
 31
0.0
  0
LINE
  5
109
  8
1
 62
     7
 10
-619.15713972803781
 20
-279.90695486319783
 30
0.0
 11
-588.35713972803796
 21
-279.90695486319783
 31
0.0
  0
LINE
  5
10A
  8
1
 62
     7
 10
-573.35713972803796
 20
-346.90695486319771
 30
0.0
 11
-573.35713972803796
 21
-339.40695486319783
 31
0.0
  0
LINE
  5
10B
  8
1
 62
     7
 10
-573.35713972803796
 20
-339.40695486319783
 30
0.0
 11
-571.35713972803796
 21
-337.40695486319783
 31
0.0
  0
LINE
  5
10C
  8
1
 62
     7
 10
-576.35713972803796
 20
-293.90695486319783
 30
0.0
 11
-588.35713972803796
 21
-293.90695486319783
 31
0.0
  0
LINE
  5
10D
  8
1
 62
     7
 10
-571.35713972803796
 20
-298.90695486319783
 30
0.0
 11
-576.35713972803796
 21
-293.90695486319783
 31
0.0
  0
LINE
  5
10E
  8
1
 62
     7
 10
-588.35713972803796
 20
-352.90695486319771
 30
0.0
 11
-588.35713972803796
 21
-279.90695486319783
 31
0.0
  0
LINE
  5
10F
  8
1
 62
     7
 10
-571.35713972803796
 20
-298.90695486319783
 30
0.0
 11
-571.35713972803796
 21
-346.90695486319771
 31
0.0
  0
LINE
  5
110
  8
1
 62
     7
 10
-573.35713972803796
 20
-339.40695486319783
 30
0.0
 11
-578.15713972803792
 21
-339.40695486319783
 31
0.0
  0
LINE
  5
111
  8
1
 62
     7
 10
-580.15713972803792
 20
-342.80695486319769
 30
0.0
 11
-576.15713972803792
 21
-342.80695486319769
 31
0.0
  0
LINE
  5
112
  8
1
 62
     7
 10
-580.15713972803792
 20
-354.40695486319771
 30
0.0
 11
-580.15713972803792
 21
-341.40695486319783
 31
0.0
  0
LINE
  5
113
  8
1
 62
     7
 10
-641.15713972803792
 20
-318.90695486319783
 30
0.0
 11
-641.15713972803792
 21
-289.90695486319783
 31
0.0
  0
LINE
  5
114
  8
1
 62
     7
 10
-664.15713972803792
 20
-364.90695486319771
 30
0.0
 11
-721.15713972803792
 21
-364.90695486319771
 31
0.0
  0
LINE
  5
115
  8
1
 62
     7
 10
-665.15713972803781
 20
-364.90695486319771
 30
0.0
 11
-665.15713972803781
 21
-334.90695486319783
 31
0.0
  0
LINE
  5
116
  8
1
 62
     7
 10
-665.15713972803781
 20
-334.90695486319783
 30
0.0
 11
-721.15713972803792
 21
-334.90695486319783
 31
0.0
  0
LINE
  5
117
  8
1
 62
     7
 10
-665.15713972803781
 20
-362.90695486319771
 30
0.0
 11
-619.15713972803781
 21
-362.90695486319771
 31
0.0
  0
LINE
  5
118
  8
1
 62
     7
 10
-731.65713972803781
 20
-315.90695486319783
 30
0.0
 11
-715.15713972803781
 21
-315.90695486319783
 31
0.0
  0
LINE
  5
119
  8
1
 62
     7
 10
-639.15713972803792
 20
-319.90695486319783
 30
0.0
 11
-640.15713972803781
 21
-318.90695486319783
 31
0.0
  0
LINE
  5
11A
  8
1
 62
     7
 10
-624.15713972803792
 20
-286.90695486319783
 30
0.0
 11
-631.15713972803792
 21
-279.90695486319783
 31
0.0
  0
LINE
  5
11B
  8
1
 62
     7
 10
-715.15713972803781
 20
-280.90695486319783
 30
0.0
 11
-714.15713972803792
 21
-279.90695486319783
 31
0.0
  0
LINE
  5
11C
  8
1
 62
     7
 10
-624.15713972803792
 20
-286.90695486319783
 30
0.0
 11
-624.15713972803792
 21
-289.90695486319783
 31
0.0
  0
LINE
  5
11D
  8
1
 62
     7
 10
-641.15713972803792
 20
-318.90695486319783
 30
0.0
 11
-640.15713972803781
 21
-318.90695486319783
 31
0.0
  0
LINE
  5
11E
  8
1
 62
     7
 10
-639.15713972803792
 20
-319.90695486319783
 30
0.0
 11
-639.15713972803792
 21
-339.90695486319783
 31
0.0
  0
LINE
  5
11F
  8
1
 62
     7
 10
-639.15713972803792
 20
-339.90695486319783
 30
0.0
 11
-665.15713972803781
 21
-339.90695486319783
 31
0.0
  0
LINE
  5
120
  8
1
 62
     7
 10
-637.15713972803792
 20
-307.40695486319783
 30
0.0
 11
-639.15713972803792
 21
-307.40695486319783
 31
0.0
  0
LINE
  5
121
  8
1
 62
     7
 10
-665.15713972803781
 20
-355.90695486319771
 30
0.0
 11
-664.15713972803792
 21
-355.90695486319771
 31
0.0
  0
LINE
  5
122
  8
1
 62
     7
 10
-664.15713972803792
 20
-355.90695486319771
 30
0.0
 11
-664.15713972803792
 21
-340.70695486319778
 31
0.0
  0
LINE
  5
123
  8
1
 62
     7
 10
-664.15713972803792
 20
-340.70695486319778
 30
0.0
 11
-637.15713972803792
 21
-340.70695486319778
 31
0.0
  0
LINE
  5
124
  8
1
 62
     7
 10
-637.15713972803792
 20
-340.70695486319778
 30
0.0
 11
-637.15713972803792
 21
-307.40695486319783
 31
0.0
  0
LINE
  5
125
  8
1
 62
     7
 10
-639.15713972803792
 20
-307.40695486319783
 30
0.0
 11
-639.15713972803792
 21
-290.70695486319778
 31
0.0
  0
LINE
  5
126
  8
1
 62
     7
 10
-639.15713972803792
 20
-290.70695486319778
 30
0.0
 11
-624.15713972803792
 21
-290.70695486319778
 31
0.0
  0
LINE
  5
127
  8
1
 62
     7
 10
-624.15713972803792
 20
-290.70695486319778
 30
0.0
 11
-624.15713972803792
 21
-293.90695486319783
 31
0.0
  0
LINE
  5
128
  8
1
 62
     7
 10
-624.15713972803792
 20
-293.90695486319783
 30
0.0
 11
-619.15713972803781
 21
-293.90695486319783
 31
0.0
  0
LINE
  5
129
  8
1
 62
     7
 10
-661.15713972803781
 20
-379.90695486319771
 30
0.0
 11
-609.15713972803792
 21
-379.90695486319771
 31
0.0
  0
LINE
  5
12A
  8
1
 62
     7
 10
-740.15713972803781
 20
-379.90695486319783
 30
0.0
 11
-669.15713972803781
 21
-379.90695486319771
 31
0.0
  0
LINE
  5
12B
  8
1
 62
     7
 10
-669.15713972803781
 20
-378.90695486319771
 30
0.0
 11
-661.15713972803781
 21
-378.90695486319771
 31
0.0
  0
LINE
  5
12C
  8
1
 62
     7
 10
-609.15713972803792
 20
-378.90695486319771
 30
0.0
 11
-601.15713972803792
 21
-378.90695486319771
 31
0.0
  0
LINE
  5
12D
  8
1
 62
     7
 10
-669.15713972803781
 20
-470.90695486319771
 30
0.0
 11
-669.15713972803781
 21
-378.90695486319771
 31
0.0
  0
LINE
  5
12E
  8
1
 62
     7
 10
-661.15713972803781
 20
-470.90695486319771
 30
0.0
 11
-661.15713972803781
 21
-378.90695486319771
 31
0.0
  0
LINE
  5
12F
  8
1
 62
     7
 10
-609.15713972803792
 20
-470.90695486319771
 30
0.0
 11
-609.15713972803792
 21
-378.90695486319771
 31
0.0
  0
LINE
  5
130
  8
1
 62
     7
 10
-601.15713972803792
 20
-470.90695486319771
 30
0.0
 11
-601.15713972803792
 21
-378.90695486319771
 31
0.0
  0
LINE
  5
131
  8
1
 62
     7
 10
-576.15713972803792
 20
-352.90695486319771
 30
0.0
 11
-570.15713972803792
 21
-352.90695486319771
 31
0.0
  0
LINE
  5
132
  8
1
  6
DASHDOT
 62
     3
 10
-621.0989015699497
 20
-349.90695486319771
 30
0.0
 11
-578.41613467264767
 21
-349.90695486319771
 31
0.0
  0
LINE
  5
133
  8
1
 62
     7
 10
-570.15713972803792
 20
-379.90695486319783
 30
0.0
 11
-601.15713972803792
 21
-379.90695486319771
 31
0.0
  0
LINE
  5
134
  8
1
 62
     7
 10
-740.15713972803781
 20
-484.90695486319783
 30
0.0
 11
-740.15713972803781
 21
-364.90695486319771
 31
0.0
  0
LINE
  5
135
  8
1
 62
     7
 10
-664.15713972803792
 20
-364.90695486319771
 30
0.0
 11
-664.15713972803792
 21
-362.90695486319771
 31
0.0
  0
LINE
  5
136
  8
1
 62
     7
 10
-619.15713972803781
 20
-362.90695486319771
 30
0.0
 11
-619.15713972803781
 21
-279.90695486319783
 31
0.0
  0
LINE
  5
137
  8
1
 62
     7
 10
-619.15713972803781
 20
-347.50695486319779
 30
0.0
 11
-580.15713972803792
 21
-347.50695486319779
 31
0.0
  0
LINE
  5
138
  8
1
 62
     7
 10
-580.15713972803792
 20
-354.40695486319771
 30
0.0
 11
-576.15713972803792
 21
-354.40695486319771
 31
0.0
  0
LINE
  5
139
  8
1
 62
     7
 10
-576.15713972803792
 20
-354.40695486319771
 30
0.0
 11
-576.15713972803792
 21
-342.80695486319769
 31
0.0
  0
LINE
  5
13A
  8
1
 62
     7
 10
-576.15713972803792
 20
-352.40695486319771
 30
0.0
 11
-570.15713972803792
 21
-352.40695486319771
 31
0.0
  0
LINE
  5
13B
  8
1
 62
     7
 10
-570.15713972803792
 20
-352.40695486319771
 30
0.0
 11
-570.15713972803792
 21
-497.40695486319783
 31
0.0
  0
LINE
  5
13C
  8
1
 62
     7
 10
-570.15713972803792
 20
-374.90695486319771
 30
0.0
 11
-740.15713972803781
 21
-374.90695486319771
 31
0.0
  0
LINE
  5
13D
  8
1
 62
     7
 10
-731.95713972803787
 20
-314.90695486319783
 30
0.0
 11
-731.95713972803787
 21
-224.9069548631978
 31
0.0
  0
LINE
  5
13E
  8
1
 62
     7
 10
-721.15713972803792
 20
-356.60695486319781
 30
0.0
 11
-725.15713972803792
 21
-356.60695486319781
 31
0.0
  0
LINE
  5
13F
  8
1
 62
     7
 10
-725.15713972803792
 20
-366.90695486319771
 30
0.0
 11
-721.15713972803792
 21
-366.90695486319771
 31
0.0
  0
LINE
  5
140
  8
1
 62
     7
 10
-725.15713972803792
 20
-356.60695486319781
 30
0.0
 11
-725.15713972803792
 21
-366.90695486319771
 31
0.0
  0
LINE
  5
141
  8
1
 62
     7
 10
-725.15713972803792
 20
-364.90695486319771
 30
0.0
 11
-740.15713972803781
 21
-364.90695486319771
 31
0.0
  0
LINE
  5
142
  8
1
 62
     7
 10
-721.15713972803792
 20
-330.15695486319783
 30
0.0
 11
-725.15713972803792
 21
-330.15695486319783
 31
0.0
  0
LINE
  5
143
  8
1
 62
     7
 10
-725.15713972803792
 20
-343.15695486319783
 30
0.0
 11
-721.15713972803792
 21
-343.15695486319783
 31
0.0
  0
LINE
  5
144
  8
1
 62
     7
 10
-725.15713972803792
 20
-330.15695486319783
 30
0.0
 11
-725.15713972803792
 21
-352.57223893721681
 31
0.0
  0
LINE
  5
145
  8
1
 62
     7
 10
-715.15713972803781
 20
-314.90695486319783
 30
0.0
 11
-735.15713972803792
 21
-314.90695486319783
 31
0.0
  0
LINE
  5
146
  8
1
 62
     7
 10
-715.15713972803781
 20
-315.90695486319783
 30
0.0
 11
-715.15713972803781
 21
-224.9069548631978
 31
0.0
  0
LINE
  5
147
  8
1
 62
     7
 10
-732.65713972803792
 20
-364.90695486319771
 30
0.0
 11
-732.65713972803792
 21
-316.90695486319783
 31
0.0
  0
LINE
  5
148
  8
1
 62
     7
 10
-725.15713972803792
 20
-334.90695486319783
 30
0.0
 11
-732.65713972803792
 21
-334.90695486319783
 31
0.0
  0
LINE
  5
149
  8
1
 62
     7
 10
-277.52713972803832
 20
-224.9069548631978
 30
0.0
 11
-267.65713972803792
 21
-224.9069548631978
 31
0.0
  0
LINE
  5
14A
  8
1
 62
     7
 10
-292.65713972803792
 20
-224.9069548631978
 30
0.0
 11
-282.78713972803808
 21
-224.9069548631978
 31
0.0
  0
LINE
  5
14B
  8
1
 62
     7
 10
-270.85713972803831
 20
-224.9069548631978
 30
0.0
 11
-270.85713972803831
 21
-280.20550359196818
 31
0.0
  0
LINE
  5
14C
  8
1
 62
     7
 10
-289.4571397280381
 20
-224.9069548631978
 30
0.0
 11
-289.4571397280381
 21
-280.20550359196818
 31
0.0
  0
LINE
  5
14D
  8
1
 62
     7
 10
-267.65713972803792
 20
-224.9069548631978
 30
0.0
 11
-267.65713972803792
 21
-280.44675273126097
 31
0.0
  0
LINE
  5
14E
  8
1
 62
     7
 10
-292.65713972803792
 20
-224.9069548631978
 30
0.0
 11
-292.65713972803792
 21
-280.44675273126097
 31
0.0
  0
LINE
  5
14F
  8
1
  6
DASHDOT
 62
     3
 10
-149.1718877050433
 20
-349.28258434785067
 30
0.0
 11
-169.33254925458081
 21
-360.92234772051728
 31
0.0
  0
LINE
  5
150
  8
1
 62
     7
 10
-172.9087737265998
 20
-345.66657380643107
 30
0.0
 11
-157.9087737265998
 21
-371.64733591996452
 31
0.0
  0
LINE
  5
151
  8
1
 62
     7
 10
-162.7571797600701
 20
-339.80554829715129
 30
0.0
 11
-172.9087737265998
 21
-345.66657380643107
 31
0.0
  0
LINE
  5
152
  8
1
 62
     7
 10
-147.7571797600701
 20
-365.78631041068468
 30
0.0
 11
-157.9087737265998
 21
-371.64733591996452
 31
0.0
  0
LINE
  5
153
  8
1
  6
DASHDOT
 62
     3
 10
-149.1718877050433
 20
-500.53132537854481
 30
0.0
 11
-169.33254925458081
 21
-488.89156200587831
 31
0.0
  0
LINE
  5
154
  8
1
 62
     7
 10
-157.9087737265998
 20
-478.1665738064313
 30
0.0
 11
-172.9087737265998
 21
-504.14733591996452
 31
0.0
  0
LINE
  5
155
  8
1
 62
     7
 10
-147.7571797600701
 20
-484.0275993157112
 30
0.0
 11
-157.9087737265998
 21
-478.1665738064313
 31
0.0
  0
LINE
  5
156
  8
1
 62
     7
 10
-162.7571797600701
 20
-510.0083614292443
 30
0.0
 11
-172.9087737265998
 21
-504.14733591996452
 31
0.0
  0
LINE
  5
157
  8
1
 62
     7
 10
-265.1571397280382
 20
-557.40695486319783
 30
0.0
 11
-295.15713972803809
 21
-557.40695486319783
 31
0.0
  0
LINE
  5
158
  8
1
 62
     7
 10
-265.1571397280382
 20
-569.12900588175751
 30
0.0
 11
-265.1571397280382
 21
-557.40695486319783
 31
0.0
  0
LINE
  5
159
  8
1
 62
     7
 10
-295.15713972803809
 20
-569.12900588175739
 30
0.0
 11
-295.15713972803809
 21
-557.40695486319783
 31
0.0
  0
LINE
  5
15A
  8
1
  6
DASHDOT
 62
     3
 10
-411.14239175103307
 20
-500.53132537854481
 30
0.0
 11
-390.98173020149522
 21
-488.8915620058782
 31
0.0
  0
LINE
  5
15B
  8
1
 62
     7
 10
-387.40550572947632
 20
-504.14733591996429
 30
0.0
 11
-402.40550572947637
 21
-478.16657380643119
 31
0.0
  0
LINE
  5
15C
  8
1
 62
     7
 10
-397.55709969600611
 20
-510.00836142924408
 30
0.0
 11
-387.40550572947632
 21
-504.14733591996429
 31
0.0
  0
LINE
  5
15D
  8
1
 62
     7
 10
-412.55709969600611
 20
-484.02759931571092
 30
0.0
 11
-402.40550572947637
 21
-478.16657380643119
 31
0.0
  0
LINE
  5
15E
  8
1
  6
DASHDOT
 62
     3
 10
-411.14239175103279
 20
-349.28258434785067
 30
0.0
 11
-390.98173020149522
 21
-360.92234772051728
 31
0.0
  0
LINE
  5
15F
  8
1
 62
     7
 10
-402.40550572947609
 20
-371.64733591996429
 30
0.0
 11
-387.40550572947609
 21
-345.66657380643107
 31
0.0
  0
LINE
  5
160
  8
1
 62
     7
 10
-412.55709969600611
 20
-365.78631041068468
 30
0.0
 11
-402.40550572947609
 21
-371.64733591996429
 31
0.0
  0
LINE
  5
161
  8
1
 62
     7
 10
-397.55709969600611
 20
-339.80554829715129
 30
0.0
 11
-387.40550572947609
 21
-345.66657380643107
 31
0.0
  0
LINE
  5
162
  8
1
 62
     7
 10
-295.15713972803792
 20
-292.40695486319783
 30
0.0
 11
-265.15713972803792
 21
-292.40695486319783
 31
0.0
  0
LINE
  5
163
  8
1
 62
     7
 10
-295.15713972803792
 20
-280.68490384463831
 30
0.0
 11
-295.15713972803792
 21
-292.40695486319783
 31
0.0
  0
LINE
  5
164
  8
1
 62
     7
 10
-265.15713972803792
 20
-280.68490384463831
 30
0.0
 11
-265.15713972803792
 21
-292.40695486319783
 31
0.0
  0
LINE
  5
165
  8
1
 62
     7
 10
-624.15713972803792
 20
-289.90695486319783
 30
0.0
 11
-641.15713972803792
 21
-289.90695486319783
 31
0.0
  0
LINE
  5
166
  8
1
 62
     7
 10
-723.43802331266374
 20
-201.80419862380981
 30
0.0
 11
-723.43802331266409
 21
-206.80419862380981
 31
0.0
  0
LINE
  5
167
  8
1
 62
     7
 10
-723.85754174797682
 20
-201.80419862380981
 30
0.0
 11
-723.85754174797682
 21
-206.80419862380981
 31
0.0
  0
LINE
  5
168
  8
1
 62
     7
 10
-724.82905812448985
 20
-201.80419862380981
 30
0.0
 11
-724.82905812448996
 21
-206.80419862380981
 31
0.0
  0
LINE
  5
169
  8
1
 62
     7
 10
-724.51993927741705
 20
-201.80419862380981
 30
0.0
 11
-724.51993927741705
 21
-206.80419862380981
 31
0.0
  0
LINE
  5
16A
  8
1
 62
     7
 10
-724.15713972803792
 20
-201.80419862380981
 30
0.0
 11
-724.15713972803792
 21
-206.80419862380981
 31
0.0
  0
LINE
  5
16B
  8
1
 62
     7
 10
-725.47213972803797
 20
-206.80419862380981
 30
0.0
 11
-725.47213972803797
 21
-292.89695486319778
 31
0.0
  0
LINE
  5
16C
  8
1
 62
     7
 10
-725.47213972803797
 20
-206.80419862380981
 30
0.0
 11
-722.84213972803809
 21
-206.80419862380981
 31
0.0
  0
LINE
  5
16D
  8
1
 62
     7
 10
-719.84213972803821
 20
-295.59695486319782
 30
0.0
 11
-715.15713972803781
 21
-295.59695486319782
 31
0.0
  0
LINE
  5
16E
  8
1
 62
     7
 10
-720.15213972803792
 20
-298.21695486319783
 30
0.0
 11
-715.15713972803781
 21
-298.21695486319783
 31
0.0
  0
LINE
  5
16F
  8
1
 62
     7
 10
-722.84213972803809
 20
-292.59695486319782
 30
0.0
 11
-722.84213972803809
 21
-206.80419862380981
 31
0.0
  0
LINE
  5
170
  8
1
  6
DASHDOT
 62
     3
 10
-280.15713972803809
 20
-576.15569589389213
 30
0.0
 11
-280.15713972803809
 21
-552.87616914855892
 31
0.0
  0
LINE
  5
171
  8
1
  6
DASHDOT
 62
     3
 10
-280.15713972803792
 20
-279.90695486319783
 30
0.0
 11
-280.15713972803792
 21
-296.93774057783662
 31
0.0
  0
ARC
  5
172
  8
1
 62
     7
 10
-1345.157139728037
 20
-424.90695486319771
 30
0.0
 40
44.999999999999858
 50
106.1276202131607
 51
73.87237978683919
  0
ARC
  5
173
  8
1
 62
     7
 10
-1345.157139728037
 20
-424.90695486319771
 30
0.0
 40
144.99999999999989
 50
94.945429717883314
 51
85.054570282116671
  0
ARC
  5
174
  8
1
 62
     7
 10
-1345.157139728037
 20
-423.90695486319771
 30
0.0
 40
134.99999999999989
 50
97.180755781458302
 51
99.966766300244444
  0
ARC
  5
175
  8
1
 62
     7
 10
-1345.157139728037
 20
-423.90695486319771
 30
0.0
 40
108.9999999999998
 50
79.224776697638191
 51
100.77522330236189
  0
ARC
  5
176
  8
1
 62
     7
 10
-1345.157139728037
 20
-423.90695486319771
 30
0.0
 40
134.99999999999989
 50
80.033233699755158
 51
82.819244218541684
  0
ARC
  5
177
  8
1
 62
     7
 10
-280.15713972803792
 20
-424.90695486319771
 30
0.0
 40
44.999999999999858
 50
106.1276202131607
 51
73.87237978683919
  0
ARC
  5
178
  8
1
 62
     7
 10
-719.84213972803821
 20
-292.59695486319782
 30
0.0
 40
3.0
 50
180.0
 51
270.0
  0
ARC
  5
179
  8
1
 62
     7
 10
-720.15213972803792
 20
-292.89695486319778
 30
0.0
 40
5.32000000000005
 50
180.0
 51
270.0
  0
ARC
  5
17A
  8
1
 62
     7
 10
-280.15713972803792
 20
-424.90695486319771
 30
0.0
 40
138.0
 50
83.759868901742223
 51
96.240131098257777
  0
ARC
  5
17B
  8
1
 62
     7
 10
-280.15713972803792
 20
-424.90695486319771
 30
0.0
 40
137.99999999999989
 50
143.7598689017421
 51
156.24013109825779
  0
ARC
  5
17C
  8
1
 62
     7
 10
-280.15713972803792
 20
-424.90695486319771
 30
0.0
 40
137.99999999999989
 50
203.75986890174229
 51
216.24013109825779
  0
ARC
  5
17D
  8
1
 62
     7
 10
-280.15713972803792
 20
-424.90695486319771
 30
0.0
 40
138.0
 50
263.7598689017421
 51
276.24013109825762
  0
ARC
  5
17E
  8
1
 62
     7
 10
-280.15713972803792
 20
-424.90695486319771
 30
0.0
 40
138.0
 50
323.7598689017421
 51
336.24013109825762
  0
ARC
  5
17F
  8
1
 62
     7
 10
-280.15713972803792
 20
-424.90695486319771
 30
0.0
 40
138.0
 50
23.759868901742131
 51
36.24013109825767
  0
CIRCLE
  5
180
  8
1
 62
     7
 10
-280.15713972803792
 20
-424.90695486319771
 30
0.0
 40
72.500000000000099
  0
CIRCLE
  5
181
  8
1
 62
     7
 10
-1345.157139728037
 20
-424.90695486319771
 30
0.0
 40
90.0
  0
CIRCLE
  5
182
  8
1
 62
     7
 10
-1345.157139728037
 20
-424.90695486319771
 30
0.0
 40
109.0
  0
CIRCLE
  5
183
  8
1
 62
     7
 10
-1345.157139728037
 20
-424.90695486319771
 30
0.0
 40
60.0
  0
CIRCLE
  5
184
  8
1
 62
     7
 10
-1365.157139728037
 20
-304.90695486319783
 30
0.0
 40
4.6000000000001364
  0
CIRCLE
  5
185
  8
1
 62
     7
 10
-1325.157139728037
 20
-304.90695486319783
 30
0.0
 40
4.6000000000001364
  0
CIRCLE
  5
186
  8
1
 62
     7
 10
-1365.157139728037
 20
-304.90695486319783
 30
0.0
 40
4.25
  0
CIRCLE
  5
187
  8
1
 62
     7
 10
-1325.157139728037
 20
-304.90695486319783
 30
0.0
 40
4.25
  0
CIRCLE
  5
188
  8
1
 62
     7
 10
-679.15713972803792
 20
-499.90695486319771
 30
0.0
 40
9.0
  0
CIRCLE
  5
189
  8
1
 62
     7
 10
-707.15713972803792
 20
-499.90695486319771
 30
0.0
 40
9.0
  0
CIRCLE
  5
18A
  8
1
 62
     7
 10
-679.15713972803792
 20
-349.90695486319771
 30
0.0
 40
9.0
  0
CIRCLE
  5
18B
  8
1
 62
     7
 10
-707.15713972803792
 20
-349.90695486319771
 30
0.0
 40
9.0
  0
CIRCLE
  5
18C
  8
1
 62
     7
 10
-280.15713972803792
 20
-424.90695486319771
 30
0.0
 40
145.0
  0
CIRCLE
  5
18D
  8
1
 62
     7
 10
-280.15713972803792
 20
-424.90695486319771
 30
0.0
 40
131.0
  0
CIRCLE
  5
18E
  8
1
 62
     7
 10
-280.15713972803792
 20
-424.90695486319771
 30
0.0
 40
126.0
  0
CIRCLE
  5
18F
  8
1
 62
     7
 10
-280.15713972803792
 20
-424.90695486319771
 30
0.0
 40
85.5
  0
ARC
  5
190
  8
1
 62
     7
 10
-1366.6571397280379
 20
-310.93461311531701
 30
0.0
 40
6.0
 50
180.0
 51
280.77522330236297
  0
ARC
  5
191
  8
1
 62
     7
 10
-1323.657139728037
 20
-310.93461311531689
 30
0.0
 40
6.0000000000001208
 50
259.22477669763492
 51
0.0
  0
ARC
  5
192
  8
1
 62
     7
 10
-1322.6571397280379
 20
-295.86887459017908
 30
0.0
 40
5.0
 50
0.0
 51
80.033233699750966
  0
ARC
  5
193
  8
1
 62
     7
 10
-1367.6571397280379
 20
-295.86887459017908
 30
0.0
 40
4.9999999999999254
 50
99.966766300238518
 51
180.0
  0
ARC
  5
194
  8
1
 62
     7
 10
-1362.6571397280379
 20
-285.0050110323067
 30
0.0
 40
5.0000000000000888
 50
277.18075578145812
 51
0.0
  0
ARC
  5
195
  8
1
 62
     7
 10
-1327.6571397280379
 20
-285.0050110323067
 30
0.0
 40
5.0
 50
180.0
 51
262.81924421854183
  0
ARC
  5
196
  8
1
 62
     7
 10
-578.15713972803792
 20
-341.40695486319783
 30
0.0
 40
2.0
 50
90.0
 51
180.0
  0
ARC
  5
197
  8
1
 62
     7
 10
-578.15713972803792
 20
-508.40695486319771
 30
0.0
 40
2.0
 50
180.0
 51
270.0
  0
TEXT
  5
199
  8
1
 62
     7
 10
-1485.2115775978591
 20
-82.137047850566816
 30
0.0
 40
18.0
  1
MDC 160
 41
0.9
  7
SIMPLEX
  0
ENDSEC
  0
EOF
