  0
SECTION
  2
HEADER
  9
$ACADVER
  1
AC1009
  9
$INSBASE
 10
0.0
 20
0.0
 30
0.0
  9
$EXTMIN
 10
-1355.705369135939
 20
-730.83411905633182
 30
0.0
  9
$EXTMAX
 10
176.05725034840489
 20
-141.99306878055901
 30
0.0
  9
$LIMMIN
 10
-1355.705369135939
 20
-727.9176064649921
  9
$LIMMAX
 10
176.05725034840481
 20
-141.99306878055901
  9
$ORTHOMODE
 70
     0
  9
$REGENMODE
 70
     1
  9
$FILLMODE
 70
     1
  9
$QTEXTMODE
 70
     0
  9
$MIRRTEXT
 70
     1
  9
$DRAGMODE
 70
     2
  9
$LTSCALE
 40
1.0
  9
$OSMODE
 70
    37
  9
$ATTMODE
 70
     1
  9
$TEXTSIZE
 40
3.5
  9
$TRACEWID
 40
0.5
  9
$TEXTSTYLE
  7
STANDARD
  9
$CLAYER
  8
0
  9
$CELTYPE
  6
BYLAYER
  9
$CECOLOR
 62
   256
  9
$DIMSCALE
 40
1.0
  9
$DIMASZ
 40
0.18
  9
$DIMEXO
 40
0.0625
  9
$DIMDLI
 40
0.38
  9
$DIMRND
 40
0.0
  9
$DIMDLE
 40
0.0
  9
$DIMEXE
 40
0.18
  9
$DIMTP
 40
0.0
  9
$DIMTM
 40
0.0
  9
$DIMTXT
 40
0.18
  9
$DIMCEN
 40
0.09
  9
$DIMTSZ
 40
0.0
  9
$DIMTOL
 70
     0
  9
$DIMLIM
 70
     0
  9
$DIMTIH
 70
     1
  9
$DIMTOH
 70
     1
  9
$DIMSE1
 70
     0
  9
$DIMSE2
 70
     0
  9
$DIMTAD
 70
     0
  9
$DIMZIN
 70
     0
  9
$DIMBLK
  1

  9
$DIMASO
 70
     1
  9
$DIMSHO
 70
     1
  9
$DIMPOST
  1

  9
$DIMAPOST
  1

  9
$DIMALT
 70
     0
  9
$DIMALTD
 70
     2
  9
$DIMALTF
 40
25.399999999999999
  9
$DIMLFAC
 40
1.0
  9
$DIMTOFL
 70
     0
  9
$DIMTVP
 40
0.0
  9
$DIMTIX
 70
     0
  9
$DIMSOXD
 70
     0
  9
$DIMSAH
 70
     0
  9
$DIMBLK1
  1

  9
$DIMBLK2
  1

  9
$DIMSTYLE
  2
STANDARD
  9
$DIMCLRD
 70
     0
  9
$DIMCLRE
 70
     0
  9
$DIMCLRT
 70
     0
  9
$DIMTFAC
 40
1.0
  9
$DIMGAP
 40
0.09
  9
$LUNITS
 70
     2
  9
$LUPREC
 70
     4
  9
$SKETCHINC
 40
0.1
  9
$FILLETRAD
 40
2.0
  9
$AUNITS
 70
     0
  9
$AUPREC
 70
     0
  9
$MENU
  1
ACAD
  9
$ELEVATION
 40
0.0
  9
$PELEVATION
 40
0.0
  9
$THICKNESS
 40
0.0
  9
$LIMCHECK
 70
     0
  9
$BLIPMODE
 70
     0
  9
$CHAMFERA
 40
0.0
  9
$CHAMFERB
 40
0.0
  9
$SKPOLY
 70
     0
  9
$TDCREATE
 40
2452095.0183332171
  9
$TDUPDATE
 40
2452095.0190814808
  9
$TDINDWG
 40
0.0007628472
  9
$TDUSRTIMER
 40
0.0007628472
  9
$USRTIMER
 70
     1
  9
$ANGBASE
 50
0.0
  9
$ANGDIR
 70
     0
  9
$PDMODE
 70
     0
  9
$PDSIZE
 40
0.0
  9
$PLINEWID
 40
0.0
  9
$COORDS
 70
     1
  9
$SPLFRAME
 70
     0
  9
$SPLINETYPE
 70
     6
  9
$SPLINESEGS
 70
     8
  9
$ATTDIA
 70
     0
  9
$ATTREQ
 70
     1
  9
$HANDLING
 70
 10241
  9
$HANDSEED
  5
1B9
  9
$SURFTAB1
 70
     6
  9
$SURFTAB2
 70
     6
  9
$SURFTYPE
 70
     6
  9
$SURFU
 70
     6
  9
$SURFV
 70
     6
  9
$UCSNAME
  2

  9
$UCSORG
 10
0.0
 20
0.0
 30
0.0
  9
$UCSXDIR
 10
1.0
 20
0.0
 30
0.0
  9
$UCSYDIR
 10
0.0
 20
1.0
 30
0.0
  9
$PUCSNAME
  2

  9
$PUCSORG
 10
0.0
 20
0.0
 30
0.0
  9
$PUCSXDIR
 10
1.0
 20
0.0
 30
0.0
  9
$PUCSYDIR
 10
0.0
 20
1.0
 30
0.0
  9
$USERI1
 70
     0
  9
$USERI2
 70
     0
  9
$USERI3
 70
     0
  9
$USERI4
 70
     0
  9
$USERI5
 70
     0
  9
$USERR1
 40
0.0
  9
$USERR2
 40
0.0
  9
$USERR3
 40
0.0
  9
$USERR4
 40
0.0
  9
$USERR5
 40
0.0
  9
$WORLDVIEW
 70
     1
  9
$SHADEDGE
 70
     3
  9
$SHADEDIF
 70
    70
  9
$TILEMODE
 70
     1
  9
$MAXACTVP
 70
    64
  9
$PLIMCHECK
 70
     0
  9
$PEXTMIN
 10
1.0000000000000000E+020
 20
1.0000000000000000E+020
 30
1.0000000000000000E+020
  9
$PEXTMAX
 10
-1.0000000000000000E+020
 20
-1.0000000000000000E+020
 30
-1.0000000000000000E+020
  9
$PLIMMIN
 10
0.0
 20
0.0
  9
$PLIMMAX
 10
12.0
 20
9.0
  9
$UNITMODE
 70
     0
  9
$VISRETAIN
 70
     1
  9
$PLINEGEN
 70
     0
  9
$PSLTSCALE
 70
     1
  0
ENDSEC
  0
SECTION
  2
TABLES
  0
TABLE
  2
VPORT
 70
     2
  0
VPORT
  2
*ACTIVE
 70
     0
 10
0.0
 20
0.0
 11
1.0
 21
1.0
 12
-1262.4742946093011
 22
-179.40528006533179
 13
0.0
 23
0.0
 14
1.0
 24
1.0
 15
0.0
 25
0.0
 16
0.0
 26
0.0
 36
1.0
 17
0.0
 27
0.0
 37
0.0
 40
8.9999995142517104
 41
2.4144144144144142
 42
50.0
 43
0.0
 44
0.0
 50
0.0
 51
0.0
 71
     0
 72
   100
 73
     1
 74
     1
 75
     0
 76
     0
 77
     0
 78
     0
  0
ENDTAB
  0
TABLE
  2
LTYPE
 70
     9
  0
LTYPE
  2
CONTINUOUS
 70
     0
  3
Solid line
 72
    65
 73
     0
 40
0.0
  0
LTYPE
  2
BORDER
 70
     0
  3
__ __ . __ __ .
 72
    65
 73
     6
 40
70.541699581515815
 49
20.154771309004509
 49
-10.077385654502249
 49
20.154771309004509
 49
-10.077385654502249
 49
0.0
 49
-10.077385654502249
  0
LTYPE
  2
CENTER
 70
     0
  3
____ _ ____ _
 72
    65
 73
     4
 40
80.619085236018094
 49
50.386928272511312
 49
-10.077385654502249
 49
10.077385654502249
 49
-10.077385654502249
  0
LTYPE
  2
DASHDOT
 70
     0
  3
__ . __ . __ .
 72
    65
 73
     4
 40
40.30954261800904
 49
20.154771309004509
 49
-10.077385654502249
 49
0.0
 49
-10.077385654502249
  0
LTYPE
  2
DASHED
 70
     0
  3
__ __ __ __ __
 72
    65
 73
     2
 40
30.232156963506782
 49
20.154771309004509
 49
-10.077385654502249
  0
LTYPE
  2
DIVIDE
 70
     0
  3
__ . . __ . . 
 72
    65
 73
     6
 40
50.386928272511312
 49
20.154771309004509
 49
-10.077385654502249
 49
0.0
 49
-10.077385654502249
 49
0.0
 49
-10.077385654502249
  0
LTYPE
  2
DOT
 70
     0
  3
..............
 72
    65
 73
     4
 40
20.154771309004509
 49
0.0
 49
-10.077385654502249
 49
0.0
 49
-10.077385654502249
  0
LTYPE
  2
HIDDEN
 70
     0
  3
_ _ _ _ _ _ _
 72
    65
 73
     2
 40
15.11607848175338
 49
10.077385654502249
 49
-5.03869282725113
  0
LTYPE
  2
PHANTOM
 70
     0
  3
_____ _ _ _____ _ _ 
 72
    65
 73
     6
 40
100.7738565450225
 49
50.386928272511312
 49
-10.077385654502249
 49
10.077385654502249
 49
-10.077385654502249
 49
10.077385654502249
 49
-10.077385654502249
  0
ENDTAB
  0
TABLE
  2
LAYER
 70
     2
  0
LAYER
  2
0
 70
     0
 62
     7
  6
CONTINUOUS
  0
LAYER
  2
1
 70
     0
 62
     7
  6
CONTINUOUS
  0
ENDTAB
  0
TABLE
  2
STYLE
 70
     4
  0
STYLE
  2
STANDARD
 70
     0
 40
0.0
 41
1.0
 50
0.0
 71
     0
 42
3.5
  3
txt
  4

  0
STYLE
  2
SIMPLEX
 70
     0
 40
0.0
 41
1.0
 50
0.0
 71
     0
 42
3.5
  3
simplex
  4

  0
STYLE
  2
COMPLEX
 70
     0
 40
0.0
 41
1.0
 50
0.0
 71
     0
 42
3.5
  3
complex
  4

  0
STYLE
  2
ITALIC
 70
     0
 40
0.0
 41
1.0
 50
0.0
 71
     0
 42
3.5
  3
italic
  4

  0
ENDTAB
  0
TABLE
  2
VIEW
 70
     0
  0
ENDTAB
  0
TABLE
  2
UCS
 70
     0
  0
ENDTAB
  0
TABLE
  2
APPID
 70
     1
  0
APPID
  2
ACAD
 70
     0
  0
ENDTAB
  0
TABLE
  2
DIMSTYLE
 70
     1
  0
DIMSTYLE
  2
STANDARD
 70
     0
  3

  4

  5

  6

  7

 40
1.0
 41
0.18
 42
0.0625
 43
0.38
 44
0.18
 45
0.0
 46
0.0
 47
0.0
 48
0.0
140
0.18
141
0.09
142
0.0
143
25.399999999999999
144
1.0
145
0.0
146
1.0
147
0.09
 71
     0
 72
     0
 73
     1
 74
     1
 75
     0
 76
     0
 77
     0
 78
     0
170
     0
171
     2
172
     0
173
     0
174
     0
175
     0
176
     0
177
     0
178
     0
  0
ENDTAB
  0
ENDSEC
  0
SECTION
  2
BLOCKS
  0
BLOCK
  8
0
  2
$MODEL_SPACE
 70
     0
 10
0.0
 20
0.0
 30
0.0
  3
$MODEL_SPACE
  1

  0
ENDBLK
  5
20
  8
0
  0
BLOCK
 67
     1
  8
0
  2
$PAPER_SPACE
 70
     0
 10
0.0
 20
0.0
 30
0.0
  3
$PAPER_SPACE
  1

  0
ENDBLK
  5
1C
 67
     1
  8
0
  0
ENDSEC
  0
SECTION
  2
ENTITIES
  0
LINE
  5
33
  8
1
  6
DASHDOT
 62
     3
 10
-521.20536913593912
 20
-558.44911142202898
 30
0.0
 11
-529.20536913593912
 21
-558.44911142202898
 31
0.0
  0
LINE
  5
34
  8
1
  6
DASHDOT
 62
     3
 10
-336.20536913593912
 20
-558.44911142202898
 30
0.0
 11
-328.20536913593912
 21
-558.44911142202898
 31
0.0
  0
LINE
  5
35
  8
1
 62
     7
 10
-501.7347317323613
 20
-338.44911142202932
 30
0.0
 11
-495.20536913593918
 21
-338.44911142202932
 31
0.0
  0
LINE
  5
36
  8
1
 62
     7
 10
-414.20536913593912
 20
-439.44911142202932
 30
0.0
 11
-415.20536913593912
 21
-439.44911142202932
 31
0.0
  0
LINE
  5
37
  8
1
 62
     7
 10
-396.20536913593918
 20
-409.14911142202942
 30
0.0
 11
-415.20536913593912
 21
-409.14911142202942
 31
0.0
  0
LINE
  5
38
  8
1
  6
DASHDOT
 62
     3
 10
13.55725034840521
 20
-727.9176064649921
 30
0.0
 11
13.55725034840464
 21
-697.54255332780519
 31
0.0
  0
LINE
  5
39
  8
1
  6
DASHDOT
 62
     3
 10
13.55725034840475
 20
-396.44911142202932
 30
0.0
 11
13.557250348404979
 21
-418.1948713638248
 31
0.0
  0
LINE
  5
3A
  8
1
  6
DASHDOT
 62
     3
 10
13.55725034840475
 20
-539.06678122764902
 30
0.0
 11
13.55725034840475
 21
-577.83144161640917
 31
0.0
  0
LINE
  5
3B
  8
1
  6
DASHDOT
 62
     3
 10
32.939580542784817
 20
-558.44911142202898
 30
0.0
 11
-5.8250798459753241
 21
-558.44911142202898
 31
0.0
  0
LINE
  5
3C
  8
1
 62
     7
 10
15.87725034840491
 20
-309.96058506108483
 30
0.0
 11
15.87725034840491
 21
-396.46572461955498
 31
0.0
  0
LINE
  5
3D
  8
1
 62
     7
 10
-504.05473173236118
 20
-408.299111422029
 30
0.0
 11
-504.05473173236118
 21
-309.96058506108483
 31
0.0
  0
LINE
  5
3E
  8
1
 62
     7
 10
-501.7347317323613
 20
-309.96058506108483
 30
0.0
 11
-501.7347317323613
 21
-408.299111422029
 31
0.0
  0
LINE
  5
3F
  8
1
 62
     7
 10
-496.75473173236128
 20
-415.59911142202901
 30
0.0
 11
-495.20536913593929
 21
-415.59911142202901
 31
0.0
  0
LINE
  5
40
  8
1
 62
     7
 10
-496.7347317323613
 20
-413.299111422029
 30
0.0
 11
-495.20536913593929
 21
-413.299111422029
 31
0.0
  0
LINE
  5
41
  8
1
 62
     7
 10
-504.05473173236118
 20
-309.96058506108483
 30
0.0
 11
-501.7347317323613
 21
-309.96058506108483
 31
0.0
  0
LINE
  5
42
  8
1
 62
     7
 10
-502.3312703161011
 20
-304.96058506108483
 30
0.0
 11
-502.3312703161011
 21
-309.96058506108483
 31
0.0
  0
LINE
  5
43
  8
1
 62
     7
 10
-502.61329092579132
 20
-304.96058506108483
 30
0.0
 11
-502.61329092579132
 21
-309.96058506108483
 31
0.0
  0
LINE
  5
44
  8
1
 62
     7
 10
-503.53626746657108
 20
-304.96058506108483
 30
0.0
 11
-503.53626746657108
 21
-309.96058506108483
 31
0.0
  0
LINE
  5
45
  8
1
 62
     7
 10
-503.29270421275118
 20
-304.96058506108483
 30
0.0
 11
-503.29270421275118
 21
-309.96058506108483
 31
0.0
  0
LINE
  5
46
  8
1
 62
     7
 10
-502.84403506098118
 20
-304.96058506108483
 30
0.0
 11
-502.84403506098118
 21
-309.96058506108483
 31
0.0
  0
LINE
  5
47
  8
1
 62
     7
 10
11.23725034840481
 20
-309.96058506108483
 30
0.0
 11
15.87725034840491
 21
-309.96058506108483
 31
0.0
  0
LINE
  5
48
  8
1
 62
     7
 10
11.74379463122477
 20
-309.96058506108483
 30
0.0
 11
11.74379463122477
 21
-304.96058506108483
 31
0.0
  0
LINE
  5
49
  8
1
 62
     7
 10
12.064272596774799
 20
-309.96058506108483
 30
0.0
 11
12.064272596774799
 21
-304.96058506108483
 31
0.0
  0
LINE
  5
4A
  8
1
 62
     7
 10
12.87187706995473
 20
-309.96058506108483
 30
0.0
 11
12.87187706995473
 21
-304.96058506108483
 31
0.0
  0
LINE
  5
4B
  8
1
 62
     7
 10
12.56421822303491
 20
-309.96058506108483
 30
0.0
 11
12.56421822303491
 21
-304.96058506108483
 31
0.0
  0
LINE
  5
4C
  8
1
 62
     7
 10
12.30783585059476
 20
-309.96058506108483
 30
0.0
 11
12.30783585059476
 21
-304.96058506108483
 31
0.0
  0
LINE
  5
4D
  8
1
 62
     7
 10
14.153788932144829
 20
-309.96058506108483
 30
0.0
 11
14.153788932144829
 21
-304.96058506108483
 31
0.0
  0
LINE
  5
4E
  8
1
 62
     7
 10
14.435809541834709
 20
-309.96058506108483
 30
0.0
 11
14.435809541834709
 21
-304.96058506108483
 31
0.0
  0
LINE
  5
4F
  8
1
 62
     7
 10
15.358786082614859
 20
-309.96058506108483
 30
0.0
 11
15.358786082614859
 21
-304.96058506108483
 31
0.0
  0
LINE
  5
50
  8
1
 62
     7
 10
15.115222828794909
 20
-309.96058506108483
 30
0.0
 11
15.115222828794909
 21
-304.96058506108483
 31
0.0
  0
LINE
  5
51
  8
1
 62
     7
 10
14.66655367702468
 20
-309.96058506108483
 30
0.0
 11
14.66655367702468
 21
-304.96058506108483
 31
0.0
  0
LINE
  5
52
  8
1
 62
     7
 10
11.23725034840481
 20
-309.96058506108483
 30
0.0
 11
11.23725034840481
 21
-396.46572461955498
 31
0.0
  0
LINE
  5
53
  8
1
 62
     7
 10
13.55725034840475
 20
-396.44911142202932
 30
0.0
 11
13.55725034840475
 21
-309.96058506108483
 31
0.0
  0
LINE
  5
54
  8
1
 62
     7
 10
-371.20536913593918
 20
-508.44911142202898
 30
0.0
 11
-336.20536913593912
 21
-508.44911142202898
 31
0.0
  0
LINE
  5
55
  8
1
 62
     7
 10
-521.20536913593912
 20
-501.94911142202932
 30
0.0
 11
-336.20536913593912
 21
-501.94911142202932
 31
0.0
  0
LINE
  5
56
  8
1
 62
     7
 10
-495.20536913593918
 20
-397.44911142202932
 30
0.0
 11
-494.20536913593912
 21
-396.44911142202932
 31
0.0
  0
LINE
  5
57
  8
1
 62
     7
 10
-396.20536913593918
 20
-409.14911142202942
 30
0.0
 11
-396.20536913593918
 21
-404.44911142202932
 31
0.0
  0
LINE
  5
58
  8
1
 62
     7
 10
-414.20536913593912
 20
-463.44911142202932
 30
0.0
 11
-414.20536913593912
 21
-439.44911142202932
 31
0.0
  0
LINE
  5
59
  8
1
 62
     7
 10
-439.20536913593912
 20
-463.44911142202932
 30
0.0
 11
-414.20536913593912
 21
-463.44911142202932
 31
0.0
  0
LINE
  5
5A
  8
1
 62
     7
 10
-472.20536913593912
 20
-493.44911142202932
 30
0.0
 11
-472.20536913593912
 21
-458.44911142202932
 31
0.0
  0
LINE
  5
5B
  8
1
 62
     7
 10
-439.20536913593912
 20
-484.87411142202927
 30
0.0
 11
-450.17415091569131
 21
-484.87411142202927
 31
0.0
  0
LINE
  5
5C
  8
1
 62
     7
 10
-439.20536913593912
 20
-467.02411142202931
 30
0.0
 11
-450.17415091569131
 21
-467.02411142202931
 31
0.0
  0
LINE
  5
5D
  8
1
 62
     7
 10
-472.20536913593912
 20
-458.44911142202932
 30
0.0
 11
-472.20536913593912
 21
-493.44911142202932
 31
0.0
  0
LINE
  5
5E
  8
1
 62
     7
 10
-461.23658735618687
 20
-484.87411142202927
 30
0.0
 11
-483.17415091569143
 21
-484.87411142202927
 31
0.0
  0
LINE
  5
5F
  8
1
 62
     7
 10
-505.20536913593912
 20
-484.87411142202927
 30
0.0
 11
-494.23658735618687
 21
-484.87411142202927
 31
0.0
  0
LINE
  5
60
  8
1
 62
     7
 10
-461.23658735618687
 20
-467.02411142202931
 30
0.0
 11
-483.17415091569143
 21
-467.02411142202931
 31
0.0
  0
LINE
  5
61
  8
1
 62
     7
 10
-505.20536913593912
 20
-467.02411142202931
 30
0.0
 11
-494.23658735618687
 21
-467.02411142202931
 31
0.0
  0
LINE
  5
62
  8
1
 62
     7
 10
-510.20536913593912
 20
-431.44911142202932
 30
0.0
 11
-495.20536913593918
 21
-431.44911142202932
 31
0.0
  0
LINE
  5
63
  8
1
 62
     7
 10
-510.20536913593912
 20
-338.44911142202932
 30
0.0
 11
-504.05473173236118
 21
-338.44911142202932
 31
0.0
  0
LINE
  5
64
  8
1
 62
     7
 10
-507.00536913593908
 20
-431.44911142202932
 30
0.0
 11
-507.00536913593908
 21
-338.44911142202932
 31
0.0
  0
LINE
  5
65
  8
1
 62
     7
 10
-510.20536913593912
 20
-431.44911142202932
 30
0.0
 11
-510.20536913593912
 21
-338.44911142202932
 31
0.0
  0
LINE
  5
66
  8
1
 62
     7
 10
-495.20536913593918
 20
-433.44911142202932
 30
0.0
 11
-495.20536913593918
 21
-338.44911142202932
 31
0.0
  0
LINE
  5
67
  8
1
 62
     7
 10
-404.20536913593918
 20
-396.44911142202932
 30
0.0
 11
-396.20536913593918
 21
-404.44911142202932
 31
0.0
  0
LINE
  5
68
  8
1
 62
     7
 10
-505.20536913593912
 20
-484.44911142202932
 30
0.0
 11
-509.20536913593912
 21
-484.44911142202932
 31
0.0
  0
LINE
  5
69
  8
1
 62
     7
 10
-509.20536913593912
 20
-495.44911142202932
 30
0.0
 11
-505.20536913593912
 21
-495.44911142202932
 31
0.0
  0
LINE
  5
6A
  8
1
 62
     7
 10
-509.20536913593912
 20
-484.44911142202932
 30
0.0
 11
-509.20536913593912
 21
-495.44911142202932
 31
0.0
  0
LINE
  5
6B
  8
1
 62
     7
 10
-509.20536913593912
 20
-455.94911142202932
 30
0.0
 11
-505.20536913593912
 21
-455.94911142202932
 31
0.0
  0
LINE
  5
6C
  8
1
 62
     7
 10
-509.20536913593912
 20
-469.9491114220292
 30
0.0
 11
-505.20536913593912
 21
-469.9491114220292
 31
0.0
  0
LINE
  5
6D
  8
1
 62
     7
 10
-514.20536913593912
 20
-458.44911142202932
 30
0.0
 11
-509.20536913593912
 21
-458.44911142202932
 31
0.0
  0
LINE
  5
6E
  8
1
 62
     7
 10
-513.20536913593912
 20
-433.44911142202932
 30
0.0
 11
-495.20536913593918
 21
-433.44911142202932
 31
0.0
  0
LINE
  5
6F
  8
1
 62
     7
 10
-514.20536913593912
 20
-493.44911142202932
 30
0.0
 11
-514.20536913593912
 21
-434.44911142202932
 31
0.0
  0
LINE
  5
70
  8
1
 62
     7
 10
-509.20536913593912
 20
-477.64063240277528
 30
0.0
 11
-509.20536913593912
 21
-455.94911142202932
 31
0.0
  0
LINE
  5
71
  8
1
 62
     7
 10
-505.20536913593912
 20
-495.44911142202932
 30
0.0
 11
-505.20536913593912
 21
-455.94911142202932
 31
0.0
  0
LINE
  5
72
  8
1
 62
     7
 10
-439.20536913593912
 20
-493.44911142202932
 30
0.0
 11
-439.20536913593912
 21
-458.44911142202932
 31
0.0
  0
LINE
  5
73
  8
1
 62
     7
 10
-439.20536913593912
 20
-458.44911142202932
 30
0.0
 11
-505.20536913593912
 21
-458.44911142202932
 31
0.0
  0
LINE
  5
74
  8
1
 62
     7
 10
-413.20536913593912
 20
-409.94911142202932
 30
0.0
 11
-391.20536913593912
 21
-409.94911142202932
 31
0.0
  0
LINE
  5
75
  8
1
 62
     7
 10
-411.20536913593912
 20
-425.44911142202932
 30
0.0
 11
-413.20536913593912
 21
-425.44911142202932
 31
0.0
  0
LINE
  5
76
  8
1
 62
     7
 10
-411.20536913593912
 20
-464.24911142202927
 30
0.0
 11
-411.20536913593912
 21
-425.44911142202932
 31
0.0
  0
LINE
  5
77
  8
1
 62
     7
 10
-437.20536913593918
 20
-464.24911142202927
 30
0.0
 11
-411.20536913593912
 21
-464.24911142202927
 31
0.0
  0
LINE
  5
78
  8
1
 62
     7
 10
-437.20536913593918
 20
-482.4491114220292
 30
0.0
 11
-437.20536913593918
 21
-464.24911142202927
 31
0.0
  0
LINE
  5
79
  8
1
 62
     7
 10
-439.20536913593912
 20
-482.4491114220292
 30
0.0
 11
-437.20536913593918
 21
-482.4491114220292
 31
0.0
  0
LINE
  5
7A
  8
1
 62
     7
 10
-391.20536913593912
 20
-490.4491114220292
 30
0.0
 11
-439.20536913593912
 21
-490.4491114220292
 31
0.0
  0
LINE
  5
7B
  8
1
 62
     7
 10
-413.20536913593912
 20
-425.44911142202932
 30
0.0
 11
-413.20536913593912
 21
-409.94911142202932
 31
0.0
  0
LINE
  5
7C
  8
1
 62
     7
 10
-438.20536913593912
 20
-493.44911142202932
 30
0.0
 11
-438.20536913593912
 21
-490.4491114220292
 31
0.0
  0
LINE
  5
7D
  8
1
 62
     7
 10
-505.20536913593912
 20
-493.44911142202932
 30
0.0
 11
-438.20536913593912
 21
-493.44911142202932
 31
0.0
  0
LINE
  5
7E
  8
1
 62
     7
 10
-521.20536913593912
 20
-493.44911142202932
 30
0.0
 11
-509.20536913593912
 21
-493.44911142202932
 31
0.0
  0
LINE
  5
7F
  8
1
 62
     7
 10
-441.20536913593918
 20
-507.94911142202898
 30
0.0
 11
-433.20536913593918
 21
-507.94911142202898
 31
0.0
  0
LINE
  5
80
  8
1
 62
     7
 10
-433.20536913593918
 20
-608.94911142202898
 30
0.0
 11
-433.20536913593918
 21
-507.94911142202898
 31
0.0
  0
LINE
  5
81
  8
1
 62
     7
 10
-521.20536913593912
 20
-508.44911142202898
 30
0.0
 11
-441.20536913593918
 21
-508.44911142202898
 31
0.0
  0
LINE
  5
82
  8
1
 62
     7
 10
-415.20536913593912
 20
-439.44911142202932
 30
0.0
 11
-415.20536913593912
 21
-409.14911142202942
 31
0.0
  0
LINE
  5
83
  8
1
 62
     7
 10
-391.20536913593912
 20
-395.94911142202932
 30
0.0
 11
-391.20536913593912
 21
-490.4491114220292
 31
0.0
  0
LINE
  5
84
  8
1
 62
     7
 10
-357.70536913593912
 20
-395.94911142202932
 30
0.0
 11
-391.20536913593912
 21
-395.94911142202932
 31
0.0
  0
LINE
  5
85
  8
1
 62
     7
 10
-357.70536913593912
 20
-409.94911142202932
 30
0.0
 11
-343.70536913593912
 21
-409.94911142202932
 31
0.0
  0
LINE
  5
86
  8
1
 62
     7
 10
-344.20536913593912
 20
-459.94911142202932
 30
0.0
 11
-341.70536913593918
 21
-459.94911142202932
 31
0.0
  0
LINE
  5
87
  8
1
 62
     7
 10
-347.20536913593912
 20
-477.9491114220292
 30
0.0
 11
-347.20536913593912
 21
-462.94911142202932
 31
0.0
  0
LINE
  5
88
  8
1
 62
     7
 10
-343.70536913593912
 20
-409.94911142202932
 30
0.0
 11
-338.70536913593912
 21
-414.94911142202932
 31
0.0
  0
LINE
  5
89
  8
1
 62
     7
 10
-357.70536913593912
 20
-477.9491114220292
 30
0.0
 11
-357.70536913593912
 21
-395.94911142202932
 31
0.0
  0
LINE
  5
8A
  8
1
 62
     7
 10
-391.20536913593912
 20
-470.94911142202932
 30
0.0
 11
-347.20536913593912
 21
-470.94911142202932
 31
0.0
  0
LINE
  5
8B
  8
1
  6
DASHDOT
 62
     3
 10
-395.77633867518642
 20
-474.44911142202932
 30
0.0
 11
-331.77856590503649
 21
-474.44911142202932
 31
0.0
  0
LINE
  5
8C
  8
1
 62
     7
 10
-336.20536913593912
 20
-473.44911142202932
 30
0.0
 11
-343.20536913593912
 21
-473.44911142202932
 31
0.0
  0
LINE
  5
8D
  8
1
 62
     7
 10
-336.20536913593912
 20
-643.44911142202875
 30
0.0
 11
-336.20536913593912
 21
-473.44911142202932
 31
0.0
  0
LINE
  5
8E
  8
1
 62
     7
 10
-347.20536913593912
 20
-475.94911142202932
 30
0.0
 11
-343.20536913593912
 21
-475.94911142202932
 31
0.0
  0
LINE
  5
8F
  8
1
 62
     7
 10
-391.20536913593912
 20
-477.9491114220292
 30
0.0
 11
-336.20536913593912
 21
-477.9491114220292
 31
0.0
  0
LINE
  5
90
  8
1
 62
     3
 10
-391.20536913593912
 20
-477.9491114220292
 30
0.0
 11
-357.70536913593912
 21
-395.94911142202932
 31
0.0
  0
LINE
  5
91
  8
1
 62
     3
 10
-391.20536913593912
 20
-395.94911142202932
 30
0.0
 11
-357.70536913593912
 21
-477.9491114220292
 31
0.0
  0
LINE
  5
92
  8
1
 62
     7
 10
-371.20536913593918
 20
-507.94911142202898
 30
0.0
 11
-371.20536913593918
 21
-608.94911142202898
 31
0.0
  0
LINE
  5
93
  8
1
 62
     7
 10
-379.20536913593918
 20
-507.94911142202898
 30
0.0
 11
-371.20536913593918
 21
-507.94911142202898
 31
0.0
  0
LINE
  5
94
  8
1
 62
     7
 10
-379.20536913593918
 20
-608.94911142202898
 30
0.0
 11
-379.20536913593918
 21
-507.94911142202898
 31
0.0
  0
LINE
  5
95
  8
1
 62
     7
 10
-433.20536913593918
 20
-508.44911142202898
 30
0.0
 11
-379.20536913593918
 21
-508.44911142202898
 31
0.0
  0
LINE
  5
96
  8
1
 62
     7
 10
-338.70536913593912
 20
-456.9491114220292
 30
0.0
 11
-341.70536913593918
 21
-459.94911142202932
 31
0.0
  0
LINE
  5
97
  8
1
 62
     7
 10
-343.20536913593912
 20
-463.4491114220292
 30
0.0
 11
-343.20536913593912
 21
-475.94911142202932
 31
0.0
  0
LINE
  5
98
  8
1
 62
     7
 10
-347.20536913593912
 20
-463.4491114220292
 30
0.0
 11
-343.20536913593912
 21
-463.4491114220292
 31
0.0
  0
LINE
  5
99
  8
1
 62
     7
 10
-521.20536913593912
 20
-493.44911142202932
 30
0.0
 11
-521.20536913593912
 21
-623.44911142202875
 31
0.0
  0
LINE
  5
9A
  8
1
 62
     7
 10
-0.4427496515952499
 20
-510.44911142202909
 30
0.0
 11
-0.4427496515952499
 21
-501.94911142202932
 31
0.0
  0
LINE
  5
9B
  8
1
 62
     7
 10
-0.4427496515952499
 20
-501.94911142202932
 30
0.0
 11
27.55725034840475
 21
-501.94911142202932
 31
0.0
  0
LINE
  5
9C
  8
1
 62
     7
 10
27.55725034840475
 20
-501.94911142202932
 30
0.0
 11
27.55725034840475
 21
-510.44911142202909
 31
0.0
  0
LINE
  5
9D
  8
1
 62
     7
 10
-6.4427496515952498
 20
-397.18457719332781
 30
0.0
 11
-6.4427496515952498
 21
-408.44911142202932
 31
0.0
  0
LINE
  5
9E
  8
1
 62
     7
 10
-6.4427496515952498
 20
-408.44911142202932
 30
0.0
 11
33.55725034840475
 21
-408.44911142202932
 31
0.0
  0
LINE
  5
9F
  8
1
 62
     7
 10
33.55725034840475
 20
-408.44911142202932
 30
0.0
 11
33.55725034840475
 21
-397.18457719332781
 31
0.0
  0
LINE
  5
A0
  8
1
 62
     7
 10
-6.4427496515952498
 20
-719.71364565073088
 30
0.0
 11
-6.4427496515952498
 21
-708.44911142202898
 31
0.0
  0
LINE
  5
A1
  8
1
 62
     7
 10
-6.4427496515952498
 20
-708.44911142202898
 30
0.0
 11
33.55725034840475
 21
-708.44911142202898
 31
0.0
  0
LINE
  5
A2
  8
1
 62
     7
 10
33.55725034840475
 20
-708.44911142202898
 30
0.0
 11
33.55725034840475
 21
-719.71364565073088
 31
0.0
  0
LINE
  5
A3
  8
1
 62
     7
 10
-136.10193302311569
 20
-495.1373523833671
 30
0.0
 11
-126.34656021926099
 21
-500.76961949771783
 31
0.0
  0
LINE
  5
A4
  8
1
 62
     7
 10
-126.34656021926099
 20
-500.76961949771783
 30
0.0
 11
-106.34656021926099
 21
-466.12860334634041
 31
0.0
  0
LINE
  5
A5
  8
1
 62
     7
 10
-106.34656021926099
 20
-466.12860334634041
 30
0.0
 11
-116.10193302311571
 21
-460.49633623198969
 31
0.0
  0
LINE
  5
A6
  8
1
 62
     7
 10
143.21643371992531
 20
-656.40188661206912
 30
0.0
 11
133.46106091607041
 21
-650.76961949771817
 31
0.0
  0
LINE
  5
A7
  8
1
 62
     7
 10
133.46106091607041
 20
-650.76961949771817
 30
0.0
 11
153.46106091607041
 21
-616.12860334634001
 31
0.0
  0
LINE
  5
A8
  8
1
 62
     7
 10
153.46106091607041
 20
-616.12860334634001
 30
0.0
 11
163.21643371992531
 21
-621.76087046069085
 31
0.0
  0
LINE
  5
A9
  8
1
 62
     7
 10
-116.1019330231159
 20
-656.40188661206912
 30
0.0
 11
-106.34656021926099
 21
-650.76961949771817
 31
0.0
  0
LINE
  5
AA
  8
1
 62
     7
 10
-106.34656021926099
 20
-650.76961949771817
 30
0.0
 11
-126.34656021926099
 21
-616.12860334634001
 31
0.0
  0
LINE
  5
AB
  8
1
 62
     7
 10
-126.34656021926099
 20
-616.12860334634001
 30
0.0
 11
-136.10193302311569
 21
-621.76087046069085
 31
0.0
  0
LINE
  5
AC
  8
1
 62
     7
 10
163.21643371992531
 20
-495.13735238336727
 30
0.0
 11
153.46106091607069
 21
-500.76961949771822
 31
0.0
  0
LINE
  5
AD
  8
1
 62
     7
 10
153.46106091607069
 20
-500.76961949771822
 30
0.0
 11
133.46106091607069
 21
-466.12860334634058
 31
0.0
  0
LINE
  5
AE
  8
1
 62
     7
 10
133.46106091607069
 20
-466.12860334634058
 30
0.0
 11
143.21643371992531
 21
-460.49633623198991
 31
0.0
  0
LINE
  5
AF
  8
1
  6
DASHDOT
 62
     3
 10
160.3212721967279
 20
-473.7148639005477
 30
0.0
 11
134.01570453862169
 21
-488.90239046914132
 31
0.0
  0
LINE
  5
B0
  8
1
  6
DASHDOT
 62
     3
 10
134.01570453862169
 20
-627.99583237491697
 30
0.0
 11
160.3212721967279
 21
-643.18335894351128
 31
0.0
  0
LINE
  5
B1
  8
1
  6
DASHDOT
 62
     3
 10
-106.90120384181201
 20
-488.90239046914132
 30
0.0
 11
-133.20677149991809
 21
-473.7148639005477
 31
0.0
  0
LINE
  5
B2
  8
1
  6
DASHDOT
 62
     3
 10
-133.20677149991809
 20
-643.18335894351128
 30
0.0
 11
-106.90120384181201
 21
-627.99583237491697
 31
0.0
  0
LINE
  5
B3
  8
1
 62
     7
 10
-1.4427496515952489
 20
-397.14505071678838
 30
0.0
 11
-1.4427496515952489
 21
-338.44911142202932
 31
0.0
  0
LINE
  5
B4
  8
1
 62
     7
 10
-1.4427496515952489
 20
-338.44911142202932
 30
0.0
 11
11.23725034840481
 21
-338.44911142202932
 31
0.0
  0
LINE
  5
B5
  8
1
 62
     7
 10
28.55725034840475
 20
-338.44911142202932
 30
0.0
 11
28.55725034840475
 21
-397.14505071678838
 31
0.0
  0
LINE
  5
B6
  8
1
 62
     7
 10
1.757250348404795
 20
-338.44911142202932
 30
0.0
 11
1.757250348404795
 21
-396.8794360494519
 31
0.0
  0
LINE
  5
B7
  8
1
 62
     7
 10
25.357250348404708
 20
-338.44911142202932
 30
0.0
 11
25.357250348404708
 21
-396.87943604945178
 31
0.0
  0
LINE
  5
B8
  8
1
 62
     7
 10
15.87725034840491
 20
-338.44911142202932
 30
0.0
 11
28.55725034840475
 21
-338.44911142202932
 31
0.0
  0
LINE
  5
B9
  8
1
 62
     7
 10
-501.90536913593911
 20
-465.4491114220292
 30
0.0
 11
-501.90536913593911
 21
-486.4491114220292
 31
0.0
  0
LINE
  5
BA
  8
1
 62
     7
 10
-475.50536913593908
 20
-465.4491114220292
 30
0.0
 11
-475.50536913593908
 21
-486.4491114220292
 31
0.0
  0
LINE
  5
BB
  8
1
 62
     7
 10
-468.90536913593911
 20
-486.4491114220292
 30
0.0
 11
-468.90536913593911
 21
-465.4491114220292
 31
0.0
  0
LINE
  5
BC
  8
1
 62
     7
 10
-442.50536913593908
 20
-486.4491114220292
 30
0.0
 11
-442.50536913593908
 21
-465.4491114220292
 31
0.0
  0
LINE
  5
BD
  8
1
 62
     7
 10
-338.70536913593912
 20
-467.17135274072922
 30
0.0
 11
-338.70536913593912
 21
-414.94911142202932
 31
0.0
  0
LINE
  5
BE
  8
1
 62
     7
 10
-341.70536913593918
 20
-467.17135274072922
 30
0.0
 11
-341.70536913593918
 21
-459.94911142202932
 31
0.0
  0
LINE
  5
BF
  8
1
 62
     7
 10
-415.20536913593912
 20
-677.44911142202875
 30
0.0
 11
-414.20536913593912
 21
-677.44911142202875
 31
0.0
  0
LINE
  5
C0
  8
1
 62
     7
 10
-415.20536913593912
 20
-707.74911142202882
 30
0.0
 11
-396.20536913593918
 21
-707.74911142202882
 31
0.0
  0
LINE
  5
C1
  8
1
 62
     7
 10
-336.20536913593912
 20
-608.44911142202898
 30
0.0
 11
-371.20536913593918
 21
-608.44911142202898
 31
0.0
  0
LINE
  5
C2
  8
1
 62
     7
 10
-404.20536913593918
 20
-720.44911142202886
 30
0.0
 11
-494.20536913593912
 21
-720.44911142202886
 31
0.0
  0
LINE
  5
C3
  8
1
 62
     7
 10
-396.20536913593918
 20
-712.44911142202886
 30
0.0
 11
-396.20536913593918
 21
-707.74911142202882
 31
0.0
  0
LINE
  5
C4
  8
1
 62
     7
 10
-414.20536913593912
 20
-677.44911142202875
 30
0.0
 11
-414.20536913593912
 21
-653.44911142202875
 31
0.0
  0
LINE
  5
C5
  8
1
 62
     7
 10
-414.20536913593912
 20
-653.44911142202875
 30
0.0
 11
-439.20536913593912
 21
-653.44911142202875
 31
0.0
  0
LINE
  5
C6
  8
1
 62
     7
 10
-472.20536913593912
 20
-658.44911142202886
 30
0.0
 11
-472.20536913593912
 21
-623.44911142202875
 31
0.0
  0
LINE
  5
C7
  8
1
 62
     7
 10
-450.17415091569131
 20
-632.02411142202891
 30
0.0
 11
-439.20536913593912
 21
-632.02411142202891
 31
0.0
  0
LINE
  5
C8
  8
1
 62
     7
 10
-450.17415091569131
 20
-649.8741114220287
 30
0.0
 11
-439.20536913593912
 21
-649.8741114220287
 31
0.0
  0
LINE
  5
C9
  8
1
 62
     7
 10
-472.20536913593912
 20
-623.44911142202875
 30
0.0
 11
-472.20536913593912
 21
-658.44911142202886
 31
0.0
  0
LINE
  5
CA
  8
1
 62
     7
 10
-483.17415091569143
 20
-632.02411142202891
 30
0.0
 11
-461.23658735618687
 21
-632.02411142202891
 31
0.0
  0
LINE
  5
CB
  8
1
 62
     7
 10
-494.23658735618687
 20
-632.02411142202891
 30
0.0
 11
-505.20536913593912
 21
-632.02411142202891
 31
0.0
  0
LINE
  5
CC
  8
1
 62
     7
 10
-483.17415091569143
 20
-649.8741114220287
 30
0.0
 11
-461.23658735618687
 21
-649.8741114220287
 31
0.0
  0
LINE
  5
CD
  8
1
 62
     7
 10
-494.23658735618687
 20
-649.8741114220287
 30
0.0
 11
-505.20536913593912
 21
-649.8741114220287
 31
0.0
  0
LINE
  5
CE
  8
1
 62
     7
 10
-495.20536913593918
 20
-719.44911142202875
 30
0.0
 11
-495.20536913593918
 21
-683.44911142202886
 31
0.0
  0
LINE
  5
CF
  8
1
 62
     7
 10
-396.20536913593918
 20
-712.44911142202886
 30
0.0
 11
-404.20536913593918
 21
-720.44911142202886
 31
0.0
  0
LINE
  5
D0
  8
1
 62
     7
 10
-509.20536913593912
 20
-632.44911142202875
 30
0.0
 11
-505.20536913593912
 21
-632.44911142202875
 31
0.0
  0
LINE
  5
D1
  8
1
 62
     7
 10
-505.20536913593912
 20
-621.44911142202875
 30
0.0
 11
-509.20536913593912
 21
-621.44911142202875
 31
0.0
  0
LINE
  5
D2
  8
1
 62
     7
 10
-509.20536913593912
 20
-621.44911142202875
 30
0.0
 11
-509.20536913593912
 21
-632.44911142202875
 31
0.0
  0
LINE
  5
D3
  8
1
 62
     7
 10
-505.20536913593912
 20
-660.94911142202875
 30
0.0
 11
-509.20536913593912
 21
-660.94911142202875
 31
0.0
  0
LINE
  5
D4
  8
1
 62
     7
 10
-505.20536913593912
 20
-646.94911142202875
 30
0.0
 11
-509.20536913593912
 21
-646.94911142202875
 31
0.0
  0
LINE
  5
D5
  8
1
 62
     7
 10
-509.20536913593912
 20
-658.44911142202886
 30
0.0
 11
-514.20536913593912
 21
-658.44911142202886
 31
0.0
  0
LINE
  5
D6
  8
1
 62
     7
 10
-495.20536913593918
 20
-683.44911142202886
 30
0.0
 11
-513.20536913593912
 21
-683.44911142202886
 31
0.0
  0
LINE
  5
D7
  8
1
 62
     7
 10
-514.20536913593912
 20
-682.44911142202875
 30
0.0
 11
-514.20536913593912
 21
-623.44911142202875
 31
0.0
  0
LINE
  5
D8
  8
1
 62
     7
 10
-509.20536913593912
 20
-660.94911142202875
 30
0.0
 11
-509.20536913593912
 21
-639.25759044128279
 31
0.0
  0
LINE
  5
D9
  8
1
 62
     7
 10
-505.20536913593912
 20
-660.94911142202875
 30
0.0
 11
-505.20536913593912
 21
-621.44911142202875
 31
0.0
  0
LINE
  5
DA
  8
1
 62
     7
 10
-439.20536913593912
 20
-658.44911142202886
 30
0.0
 11
-439.20536913593912
 21
-623.44911142202875
 31
0.0
  0
LINE
  5
DB
  8
1
 62
     7
 10
-505.20536913593912
 20
-658.44911142202886
 30
0.0
 11
-439.20536913593912
 21
-658.44911142202886
 31
0.0
  0
LINE
  5
DC
  8
1
 62
     7
 10
-391.20536913593912
 20
-706.94911142202875
 30
0.0
 11
-413.20536913593912
 21
-706.94911142202875
 31
0.0
  0
LINE
  5
DD
  8
1
 62
     7
 10
-413.20536913593912
 20
-691.44911142202886
 30
0.0
 11
-411.20536913593912
 21
-691.44911142202886
 31
0.0
  0
LINE
  5
DE
  8
1
 62
     7
 10
-411.20536913593912
 20
-691.44911142202886
 30
0.0
 11
-411.20536913593912
 21
-652.64911142202891
 31
0.0
  0
LINE
  5
DF
  8
1
 62
     7
 10
-411.20536913593912
 20
-652.64911142202891
 30
0.0
 11
-437.20536913593918
 21
-652.64911142202891
 31
0.0
  0
LINE
  5
E0
  8
1
 62
     7
 10
-437.20536913593918
 20
-652.64911142202891
 30
0.0
 11
-437.20536913593918
 21
-634.44911142202875
 31
0.0
  0
LINE
  5
E1
  8
1
 62
     7
 10
-437.20536913593918
 20
-634.44911142202875
 30
0.0
 11
-439.20536913593912
 21
-634.44911142202875
 31
0.0
  0
LINE
  5
E2
  8
1
 62
     7
 10
-439.20536913593912
 20
-626.44911142202875
 30
0.0
 11
-391.20536913593912
 21
-626.44911142202875
 31
0.0
  0
LINE
  5
E3
  8
1
 62
     7
 10
-413.20536913593912
 20
-706.94911142202875
 30
0.0
 11
-413.20536913593912
 21
-691.44911142202886
 31
0.0
  0
LINE
  5
E4
  8
1
 62
     7
 10
-438.20536913593912
 20
-626.44911142202875
 30
0.0
 11
-438.20536913593912
 21
-623.44911142202875
 31
0.0
  0
LINE
  5
E5
  8
1
 62
     7
 10
-438.20536913593912
 20
-623.44911142202875
 30
0.0
 11
-505.20536913593912
 21
-623.44911142202875
 31
0.0
  0
LINE
  5
E6
  8
1
 62
     7
 10
-509.20536913593912
 20
-623.44911142202875
 30
0.0
 11
-521.20536913593912
 21
-623.44911142202875
 31
0.0
  0
LINE
  5
E7
  8
1
 62
     7
 10
-433.20536913593918
 20
-608.94911142202898
 30
0.0
 11
-441.20536913593918
 21
-608.94911142202898
 31
0.0
  0
LINE
  5
E8
  8
1
 62
     7
 10
-441.20536913593918
 20
-608.94911142202898
 30
0.0
 11
-441.20536913593918
 21
-507.94911142202898
 31
0.0
  0
LINE
  5
E9
  8
1
 62
     7
 10
-441.20536913593918
 20
-608.44911142202898
 30
0.0
 11
-521.20536913593912
 21
-608.44911142202898
 31
0.0
  0
LINE
  5
EA
  8
1
 62
     7
 10
-415.20536913593912
 20
-707.74911142202882
 30
0.0
 11
-415.20536913593912
 21
-677.44911142202875
 31
0.0
  0
LINE
  5
EB
  8
1
 62
     7
 10
-391.20536913593912
 20
-626.44911142202875
 30
0.0
 11
-391.20536913593912
 21
-720.94911142202886
 31
0.0
  0
LINE
  5
EC
  8
1
 62
     7
 10
-391.20536913593912
 20
-720.94911142202886
 30
0.0
 11
-357.70536913593912
 21
-720.94911142202886
 31
0.0
  0
LINE
  5
ED
  8
1
 62
     7
 10
-343.70536913593912
 20
-706.94911142202875
 30
0.0
 11
-357.70536913593912
 21
-706.94911142202875
 31
0.0
  0
LINE
  5
EE
  8
1
 62
     7
 10
-341.70536913593918
 20
-656.94911142202875
 30
0.0
 11
-344.20536913593912
 21
-656.94911142202875
 31
0.0
  0
LINE
  5
EF
  8
1
 62
     7
 10
-347.20536913593912
 20
-653.94911142202886
 30
0.0
 11
-347.20536913593912
 21
-638.94911142202875
 31
0.0
  0
LINE
  5
F0
  8
1
 62
     7
 10
-338.70536913593912
 20
-701.94911142202875
 30
0.0
 11
-343.70536913593912
 21
-706.94911142202875
 31
0.0
  0
LINE
  5
F1
  8
1
 62
     7
 10
-357.70536913593912
 20
-720.94911142202886
 30
0.0
 11
-357.70536913593912
 21
-638.94911142202875
 31
0.0
  0
LINE
  5
F2
  8
1
 62
     7
 10
-347.20536913593912
 20
-645.94911142202886
 30
0.0
 11
-391.20536913593912
 21
-645.94911142202886
 31
0.0
  0
LINE
  5
F3
  8
1
  6
DASHDOT
 62
     3
 10
-331.77856590503649
 20
-642.44911142202875
 30
0.0
 11
-395.77633867518642
 21
-642.44911142202875
 31
0.0
  0
LINE
  5
F4
  8
1
 62
     7
 10
-343.20536913593912
 20
-643.44911142202875
 30
0.0
 11
-336.20536913593912
 21
-643.44911142202875
 31
0.0
  0
LINE
  5
F5
  8
1
 62
     7
 10
-343.20536913593912
 20
-640.94911142202875
 30
0.0
 11
-347.20536913593912
 21
-640.94911142202875
 31
0.0
  0
LINE
  5
F6
  8
1
 62
     7
 10
-336.20536913593912
 20
-638.94911142202875
 30
0.0
 11
-391.20536913593912
 21
-638.94911142202875
 31
0.0
  0
LINE
  5
F7
  8
1
 62
     3
 10
-357.70536913593912
 20
-720.94911142202886
 30
0.0
 11
-391.20536913593912
 21
-638.94911142202875
 31
0.0
  0
LINE
  5
F8
  8
1
 62
     3
 10
-357.70536913593912
 20
-638.94911142202875
 30
0.0
 11
-391.20536913593912
 21
-720.94911142202886
 31
0.0
  0
LINE
  5
F9
  8
1
 62
     7
 10
-371.20536913593918
 20
-608.94911142202898
 30
0.0
 11
-379.20536913593918
 21
-608.94911142202898
 31
0.0
  0
LINE
  5
FA
  8
1
 62
     7
 10
-379.20536913593918
 20
-608.44911142202898
 30
0.0
 11
-433.20536913593918
 21
-608.44911142202898
 31
0.0
  0
LINE
  5
FB
  8
1
 62
     7
 10
-341.70536913593918
 20
-656.94911142202875
 30
0.0
 11
-338.70536913593912
 21
-659.94911142202875
 31
0.0
  0
LINE
  5
FC
  8
1
 62
     7
 10
-343.20536913593912
 20
-640.94911142202875
 30
0.0
 11
-343.20536913593912
 21
-653.44911142202909
 31
0.0
  0
LINE
  5
FD
  8
1
 62
     7
 10
-343.20536913593912
 20
-653.44911142202909
 30
0.0
 11
-347.20536913593912
 21
-653.44911142202909
 31
0.0
  0
LINE
  5
FE
  8
1
 62
     7
 10
-501.90536913593911
 20
-630.44911142202875
 30
0.0
 11
-501.90536913593911
 21
-651.44911142202875
 31
0.0
  0
LINE
  5
FF
  8
1
 62
     7
 10
-475.50536913593908
 20
-630.44911142202875
 30
0.0
 11
-475.50536913593908
 21
-651.44911142202875
 31
0.0
  0
LINE
  5
100
  8
1
 62
     7
 10
-468.90536913593911
 20
-651.44911142202875
 30
0.0
 11
-468.90536913593911
 21
-630.44911142202875
 31
0.0
  0
LINE
  5
101
  8
1
 62
     7
 10
-442.50536913593908
 20
-651.44911142202875
 30
0.0
 11
-442.50536913593908
 21
-630.44911142202875
 31
0.0
  0
LINE
  5
102
  8
1
 62
     7
 10
-338.70536913593912
 20
-701.94911142202875
 30
0.0
 11
-338.70536913593912
 21
-649.72687010332891
 31
0.0
  0
LINE
  5
103
  8
1
 62
     7
 10
-341.70536913593918
 20
-656.94911142202875
 30
0.0
 11
-341.70536913593918
 21
-649.72687010332891
 31
0.0
  0
LINE
  5
104
  8
1
  6
DASHDOT
 62
     3
 10
-868.70536913593912
 20
-558.44911142202898
 30
0.0
 11
-876.70536913593912
 21
-558.44911142202898
 31
0.0
  0
LINE
  5
105
  8
1
  6
DASHDOT
 62
     3
 10
-683.70536913593924
 20
-558.44911142202898
 30
0.0
 11
-675.70536913593924
 21
-558.44911142202898
 31
0.0
  0
LINE
  5
106
  8
1
 62
     7
 10
-857.70536913593924
 20
-338.44911142202932
 30
0.0
 11
-842.70536913593912
 21
-338.44911142202932
 31
0.0
  0
LINE
  5
107
  8
1
 62
     7
 10
-851.55473173236135
 20
-338.44911142202932
 30
0.0
 11
-851.55473173236135
 21
-309.96058506108483
 31
0.0
  0
LINE
  5
108
  8
1
 62
     7
 10
-849.23473173236152
 20
-309.96058506108483
 30
0.0
 11
-849.23473173236152
 21
-338.44911142202932
 31
0.0
  0
LINE
  5
109
  8
1
 62
     7
 10
-851.55473173236135
 20
-309.96058506108483
 30
0.0
 11
-849.23473173236152
 21
-309.96058506108483
 31
0.0
  0
LINE
  5
10A
  8
1
 62
     7
 10
-849.83127031610115
 20
-304.96058506108483
 30
0.0
 11
-849.83127031610115
 21
-309.96058506108483
 31
0.0
  0
LINE
  5
10B
  8
1
 62
     7
 10
-850.11329092579126
 20
-304.96058506108483
 30
0.0
 11
-850.11329092579126
 21
-309.96058506108483
 31
0.0
  0
LINE
  5
10C
  8
1
 62
     7
 10
-851.03626746657119
 20
-304.96058506108483
 30
0.0
 11
-851.03626746657119
 21
-309.96058506108483
 31
0.0
  0
LINE
  5
10D
  8
1
 62
     7
 10
-850.79270421275135
 20
-304.96058506108483
 30
0.0
 11
-850.79270421275135
 21
-309.96058506108483
 31
0.0
  0
LINE
  5
10E
  8
1
 62
     7
 10
-850.34403506098135
 20
-304.96058506108483
 30
0.0
 11
-850.34403506098135
 21
-309.96058506108483
 31
0.0
  0
LINE
  5
10F
  8
1
 62
     7
 10
-842.70536913593912
 20
-397.44911142202932
 30
0.0
 11
-841.70536913593924
 21
-396.44911142202932
 31
0.0
  0
LINE
  5
110
  8
1
 62
     7
 10
-743.70536913593912
 20
-712.44911142202886
 30
0.0
 11
-743.70536913593912
 21
-404.44911142202932
 31
0.0
  0
LINE
  5
111
  8
1
 62
     7
 10
-857.70536913593924
 20
-431.44911142202932
 30
0.0
 11
-845.90536913593905
 21
-431.44911142202932
 31
0.0
  0
LINE
  5
112
  8
1
 62
     7
 10
-857.70536913593924
 20
-431.44911142202932
 30
0.0
 11
-857.70536913593924
 21
-338.44911142202932
 31
0.0
  0
LINE
  5
113
  8
1
 62
     7
 10
-751.70536913593912
 20
-396.44911142202932
 30
0.0
 11
-743.70536913593912
 21
-404.44911142202932
 31
0.0
  0
LINE
  5
114
  8
1
 62
     7
 10
-860.70536913593912
 20
-433.44911142202932
 30
0.0
 11
-845.90536913593905
 21
-433.44911142202932
 31
0.0
  0
LINE
  5
115
  8
1
 62
     7
 10
-861.70536913593912
 20
-682.44911142202875
 30
0.0
 11
-861.70536913593912
 21
-434.44911142202932
 31
0.0
  0
LINE
  5
116
  8
1
 62
     7
 10
-868.70536913593912
 20
-493.44911142202932
 30
0.0
 11
-861.70536913593912
 21
-493.44911142202932
 31
0.0
  0
LINE
  5
117
  8
1
 62
     7
 10
-705.20536913593901
 20
-395.94911142202932
 30
0.0
 11
-738.70536913593901
 21
-395.94911142202932
 31
0.0
  0
LINE
  5
118
  8
1
 62
     7
 10
-705.20536913593901
 20
-409.94911142202932
 30
0.0
 11
-691.20536913593912
 21
-409.94911142202932
 31
0.0
  0
LINE
  5
119
  8
1
 62
     7
 10
-691.20536913593912
 20
-409.94911142202932
 30
0.0
 11
-686.20536913593924
 21
-414.94911142202932
 31
0.0
  0
LINE
  5
11A
  8
1
 62
     7
 10
-705.20536913593901
 20
-720.94911142202886
 30
0.0
 11
-705.20536913593901
 21
-395.94911142202932
 31
0.0
  0
LINE
  5
11B
  8
1
 62
     7
 10
-683.70536913593924
 20
-473.44911142202932
 30
0.0
 11
-686.20536913593924
 21
-473.44911142202932
 31
0.0
  0
LINE
  5
11C
  8
1
 62
     7
 10
-683.70536913593924
 20
-643.44911142202875
 30
0.0
 11
-683.70536913593924
 21
-473.44911142202932
 31
0.0
  0
LINE
  5
11D
  8
1
 62
     7
 10
-868.70536913593912
 20
-493.44911142202932
 30
0.0
 11
-868.70536913593912
 21
-623.44911142202875
 31
0.0
  0
LINE
  5
11E
  8
1
 62
     7
 10
-751.70536913593912
 20
-720.44911142202886
 30
0.0
 11
-841.70536913593924
 21
-720.44911142202886
 31
0.0
  0
LINE
  5
11F
  8
1
 62
     7
 10
-842.70536913593912
 20
-719.44911142202875
 30
0.0
 11
-842.70536913593912
 21
-338.44911142202932
 31
0.0
  0
LINE
  5
120
  8
1
 62
     7
 10
-743.70536913593912
 20
-712.44911142202886
 30
0.0
 11
-751.70536913593912
 21
-720.44911142202886
 31
0.0
  0
LINE
  5
121
  8
1
 62
     7
 10
-842.70536913593912
 20
-683.44911142202886
 30
0.0
 11
-860.70536913593912
 21
-683.44911142202886
 31
0.0
  0
LINE
  5
122
  8
1
 62
     7
 10
-738.70536913593901
 20
-706.94911142202875
 30
0.0
 11
-743.70536913593912
 21
-706.94911142202875
 31
0.0
  0
LINE
  5
123
  8
1
 62
     7
 10
-861.70536913593912
 20
-623.44911142202875
 30
0.0
 11
-868.70536913593912
 21
-623.44911142202875
 31
0.0
  0
LINE
  5
124
  8
1
 62
     7
 10
-738.70536913593901
 20
-395.94911142202932
 30
0.0
 11
-738.70536913593901
 21
-720.94911142202886
 31
0.0
  0
LINE
  5
125
  8
1
 62
     7
 10
-738.70536913593901
 20
-720.94911142202886
 30
0.0
 11
-705.20536913593901
 21
-720.94911142202886
 31
0.0
  0
LINE
  5
126
  8
1
 62
     7
 10
-691.20536913593912
 20
-706.94911142202875
 30
0.0
 11
-705.20536913593901
 21
-706.94911142202875
 31
0.0
  0
LINE
  5
127
  8
1
 62
     7
 10
-686.20536913593924
 20
-701.94911142202875
 30
0.0
 11
-691.20536913593912
 21
-706.94911142202875
 31
0.0
  0
LINE
  5
128
  8
1
 62
     7
 10
-686.20536913593924
 20
-643.44911142202875
 30
0.0
 11
-683.70536913593924
 21
-643.44911142202875
 31
0.0
  0
LINE
  5
129
  8
1
 62
     7
 10
-686.20536913593924
 20
-701.94911142202875
 30
0.0
 11
-686.20536913593924
 21
-414.94911142202932
 31
0.0
  0
LINE
  5
12A
  8
1
 62
     7
 10
-691.20536913593912
 20
-409.94911142202932
 30
0.0
 11
-691.20536913593912
 21
-706.94911142202875
 31
0.0
  0
LINE
  5
12B
  8
1
 62
     3
 10
-738.70536913593901
 20
-720.94911142202886
 30
0.0
 11
-705.20536913593901
 21
-395.94911142202932
 31
0.0
  0
LINE
  5
12C
  8
1
 62
     3
 10
-738.70536913593901
 20
-395.94911142202932
 30
0.0
 11
-705.20536913593901
 21
-720.94911142202886
 31
0.0
  0
LINE
  5
12D
  8
1
 62
     7
 10
-743.70536913593912
 20
-409.94911142202932
 30
0.0
 11
-738.70536913593901
 21
-409.94911142202932
 31
0.0
  0
LINE
  5
12E
  8
1
 62
     7
 10
-495.20536913593918
 20
-719.44911142202875
 30
0.0
 11
-494.20536913593912
 21
-720.44911142202886
 31
0.0
  0
LINE
  5
12F
  8
1
 62
     7
 10
-514.20536913593912
 20
-682.44911142202875
 30
0.0
 11
-513.20536913593912
 21
-683.44911142202886
 31
0.0
  0
LINE
  5
130
  8
1
 62
     7
 10
-514.20536913593912
 20
-434.44911142202932
 30
0.0
 11
-513.20536913593912
 21
-433.44911142202932
 31
0.0
  0
LINE
  5
131
  8
1
 62
     7
 10
-494.20536913593912
 20
-396.44911142202932
 30
0.0
 11
-404.20536913593918
 21
-396.44911142202932
 31
0.0
  0
LINE
  5
132
  8
1
 62
     7
 10
-841.70536913593924
 20
-396.44911142202932
 30
0.0
 11
-751.70536913593912
 21
-396.44911142202932
 31
0.0
  0
LINE
  5
133
  8
1
 62
     7
 10
-861.70536913593912
 20
-434.44911142202932
 30
0.0
 11
-860.70536913593912
 21
-433.44911142202932
 31
0.0
  0
LINE
  5
134
  8
1
 62
     7
 10
-861.70536913593912
 20
-682.44911142202875
 30
0.0
 11
-860.70536913593912
 21
-683.44911142202886
 31
0.0
  0
LINE
  5
135
  8
1
 62
     7
 10
-842.70536913593912
 20
-719.44911142202875
 30
0.0
 11
-841.70536913593924
 21
-720.44911142202886
 31
0.0
  0
LINE
  5
136
  8
1
 62
     7
 10
-751.70536913593912
 20
-396.44911142202932
 30
0.0
 11
-751.70536913593912
 21
-720.44911142202886
 31
0.0
  0
LINE
  5
137
  8
1
 62
     7
 10
-841.70536913593924
 20
-720.44911142202886
 30
0.0
 11
-841.70536913593924
 21
-396.44911142202932
 31
0.0
  0
LINE
  5
138
  8
1
 62
     7
 10
-860.70536913593912
 20
-433.44911142202932
 30
0.0
 11
-860.70536913593912
 21
-683.44911142202886
 31
0.0
  0
LINE
  5
139
  8
1
 62
     7
 10
-1207.205369135939
 20
-510.44911142202909
 30
0.0
 11
-1207.205369135939
 21
-501.94911142202932
 31
0.0
  0
LINE
  5
13A
  8
1
 62
     7
 10
-1207.205369135939
 20
-501.94911142202932
 30
0.0
 11
-1179.2053691359381
 21
-501.94911142202932
 31
0.0
  0
LINE
  5
13B
  8
1
 62
     7
 10
-1179.2053691359381
 20
-501.94911142202932
 30
0.0
 11
-1179.2053691359381
 21
-510.44911142202909
 31
0.0
  0
LINE
  5
13C
  8
1
  6
DASHDOT
 62
     3
 10
-1193.205369135939
 20
-539.06678122764902
 30
0.0
 11
-1193.205369135939
 21
-577.83144161640917
 31
0.0
  0
LINE
  5
13D
  8
1
  6
DASHDOT
 62
     3
 10
-1173.823038941558
 20
-558.44911142202898
 30
0.0
 11
-1212.5876993303191
 21
-558.44911142202898
 31
0.0
  0
LINE
  5
13E
  8
1
 62
     7
 10
-1178.205369135939
 20
-432.33804925855338
 30
0.0
 11
-1178.205369135939
 21
-338.44911142202932
 31
0.0
  0
LINE
  5
13F
  8
1
 62
     7
 10
-1208.205369135939
 20
-432.33804925855338
 30
0.0
 11
-1208.205369135939
 21
-338.44911142202932
 31
0.0
  0
LINE
  5
140
  8
1
 62
     7
 10
-1178.205369135939
 20
-338.44911142202932
 30
0.0
 11
-1208.205369135939
 21
-338.44911142202932
 31
0.0
  0
LINE
  5
141
  8
1
 62
     7
 10
-1163.2053691359381
 20
-428.8381550950271
 30
0.0
 11
-1163.2053691359381
 21
-416.81578201118731
 31
0.0
  0
LINE
  5
142
  8
1
 62
     7
 10
-1223.205369135939
 20
-428.8381550950271
 30
0.0
 11
-1223.205369135939
 21
-416.81578201118731
 31
0.0
  0
LINE
  5
143
  8
1
 62
     7
 10
-842.70536913593912
 20
-411.60991365794428
 30
0.0
 11
-845.90536913593905
 21
-411.60991365794428
 31
0.0
  0
LINE
  5
144
  8
1
 62
     7
 10
-842.70536913593912
 20
-412.88152286088609
 30
0.0
 11
-845.90536913593905
 21
-412.88152286088609
 31
0.0
  0
LINE
  5
145
  8
1
 62
     7
 10
-842.70536913593912
 20
-433.83815509502722
 30
0.0
 11
-845.90536913593905
 21
-433.83815509502722
 31
0.0
  0
LINE
  5
146
  8
1
 62
     7
 10
-845.90536913593905
 20
-411.60991365794428
 30
0.0
 11
-845.90536913593905
 21
-433.83815509502722
 31
0.0
  0
LINE
  5
147
  8
1
 62
     7
 10
-845.90536913593905
 20
-422.44911142202932
 30
0.0
 11
-847.20536913593912
 21
-423.74911142202927
 31
0.0
  0
LINE
  5
148
  8
1
 62
     7
 10
-845.90536913593905
 20
-421.14911142202931
 30
0.0
 11
-847.20536913593912
 21
-422.44911142202932
 31
0.0
  0
LINE
  5
149
  8
1
 62
     7
 10
-845.90536913593905
 20
-427.04911142202928
 30
0.0
 11
-847.20536913593912
 21
-427.04911142202928
 31
0.0
  0
LINE
  5
14A
  8
1
 62
     7
 10
-847.20536913593912
 20
-427.04911142202928
 30
0.0
 11
-847.20536913593912
 21
-417.8491114220293
 31
0.0
  0
LINE
  5
14B
  8
1
 62
     7
 10
-847.20536913593912
 20
-417.8491114220293
 30
0.0
 11
-845.90536913593905
 21
-417.8491114220293
 31
0.0
  0
LINE
  5
14C
  8
1
 62
     7
 10
-847.20536913593912
 20
-426.69911142202932
 30
0.0
 11
-851.90536913593917
 21
-426.69911142202932
 31
0.0
  0
LINE
  5
14D
  8
1
 62
     7
 10
-851.90536913593917
 20
-426.69911142202932
 30
0.0
 11
-852.20536913593901
 21
-426.17949617975847
 31
0.0
  0
LINE
  5
14E
  8
1
 62
     7
 10
-852.20536913593901
 20
-426.17949617975847
 30
0.0
 11
-852.20536913593901
 21
-418.71872666429988
 31
0.0
  0
LINE
  5
14F
  8
1
 62
     7
 10
-852.20536913593901
 20
-418.71872666429988
 30
0.0
 11
-851.90536913593917
 21
-418.19911142202932
 31
0.0
  0
LINE
  5
150
  8
1
 62
     7
 10
-851.90536913593917
 20
-418.19911142202932
 30
0.0
 11
-847.20536913593912
 21
-418.19911142202932
 31
0.0
  0
LINE
  5
151
  8
1
 62
     7
 10
-851.90536913593917
 20
-426.69911142202932
 30
0.0
 11
-851.90536913593917
 21
-418.19911142202932
 31
0.0
  0
LINE
  5
152
  8
1
 62
     7
 10
-1171.2053691359381
 20
-420.13971034527083
 30
0.0
 11
-1173.2053691359381
 21
-421.29441088365002
 31
0.0
  0
LINE
  5
153
  8
1
 62
     7
 10
-1173.2053691359381
 20
-421.29441088365002
 30
0.0
 11
-1173.2053691359381
 21
-423.60381196040862
 31
0.0
  0
LINE
  5
154
  8
1
 62
     7
 10
-1173.2053691359381
 20
-423.60381196040862
 30
0.0
 11
-1171.2053691359381
 21
-424.75851249878781
 31
0.0
  0
LINE
  5
155
  8
1
 62
     7
 10
-1171.2053691359381
 20
-424.75851249878781
 30
0.0
 11
-1169.205369135939
 21
-423.60381196040862
 31
0.0
  0
LINE
  5
156
  8
1
 62
     7
 10
-1169.205369135939
 20
-423.60381196040862
 30
0.0
 11
-1169.205369135939
 21
-421.29441088365002
 31
0.0
  0
LINE
  5
157
  8
1
 62
     7
 10
-1169.205369135939
 20
-421.29441088365002
 30
0.0
 11
-1171.2053691359381
 21
-420.13971034527083
 31
0.0
  0
LINE
  5
158
  8
1
 62
     7
 10
-1215.205369135939
 20
-420.13971034527083
 30
0.0
 11
-1217.205369135939
 21
-421.29441088365002
 31
0.0
  0
LINE
  5
159
  8
1
 62
     7
 10
-1217.205369135939
 20
-421.29441088365002
 30
0.0
 11
-1217.205369135939
 21
-423.60381196040862
 31
0.0
  0
LINE
  5
15A
  8
1
 62
     7
 10
-1217.205369135939
 20
-423.60381196040862
 30
0.0
 11
-1215.205369135939
 21
-424.75851249878781
 31
0.0
  0
LINE
  5
15B
  8
1
 62
     7
 10
-1215.205369135939
 20
-424.75851249878781
 30
0.0
 11
-1213.205369135939
 21
-423.60381196040862
 31
0.0
  0
LINE
  5
15C
  8
1
 62
     7
 10
-1213.205369135939
 20
-423.60381196040862
 30
0.0
 11
-1213.205369135939
 21
-421.29441088365002
 31
0.0
  0
LINE
  5
15D
  8
1
 62
     7
 10
-1213.205369135939
 20
-421.29441088365002
 30
0.0
 11
-1215.205369135939
 21
-420.13971034527083
 31
0.0
  0
LINE
  5
15E
  8
1
 62
     7
 10
-1173.2053691359381
 20
-397.18457719332758
 30
0.0
 11
-1173.2053691359381
 21
-397.68841970916071
 31
0.0
  0
LINE
  5
15F
  8
1
 62
     7
 10
-1213.205369135939
 20
-397.18457719332758
 30
0.0
 11
-1213.205369135939
 21
-397.68841970916071
 31
0.0
  0
LINE
  5
160
  8
1
 62
     7
 10
-1322.8645525074601
 20
-460.49633623198969
 30
0.0
 11
-1322.4282120892419
 21
-460.74825748990611
 31
0.0
  0
LINE
  5
161
  8
1
 62
     7
 10
-1342.8645525074601
 20
-495.1373523833671
 30
0.0
 11
-1342.4282120892419
 21
-495.38927364128381
 31
0.0
  0
LINE
  5
162
  8
1
 62
     7
 10
-1342.864552507458
 20
-621.76087046069142
 30
0.0
 11
-1342.4282120892419
 21
-621.50894920277472
 31
0.0
  0
LINE
  5
163
  8
1
 62
     7
 10
-1322.8645525074601
 20
-656.40188661206867
 30
0.0
 11
-1322.4282120892419
 21
-656.14996535415253
 31
0.0
  0
LINE
  5
164
  8
1
 62
     7
 10
-1213.205369135939
 20
-719.71364565073043
 30
0.0
 11
-1213.205369135939
 21
-719.20980313489804
 31
0.0
  0
LINE
  5
165
  8
1
 62
     7
 10
-1173.2053691359381
 20
-719.71364565073065
 30
0.0
 11
-1173.2053691359381
 21
-719.20980313489781
 31
0.0
  0
LINE
  5
166
  8
1
 62
     7
 10
-1063.546185764417
 20
-656.40188661206821
 30
0.0
 11
-1063.982526182635
 21
-656.14996535415207
 31
0.0
  0
LINE
  5
167
  8
1
 62
     7
 10
-1043.546185764417
 20
-621.76087046069108
 30
0.0
 11
-1043.982526182635
 21
-621.5089492027746
 31
0.0
  0
LINE
  5
168
  8
1
 62
     7
 10
-1043.5461857644179
 20
-495.13735238336699
 30
0.0
 11
-1043.982526182635
 21
-495.3892736412833
 31
0.0
  0
LINE
  5
169
  8
1
 62
     7
 10
-1063.546185764417
 20
-460.49633623198952
 30
0.0
 11
-1063.982526182635
 21
-460.74825748990582
 31
0.0
  0
LINE
  5
16A
  8
1
 62
     7
 10
-1195.5253691359389
 20
-309.96058506108483
 30
0.0
 11
-1190.8853691359391
 21
-309.96058506108483
 31
0.0
  0
LINE
  5
16B
  8
1
 62
     7
 10
-1195.018824853119
 20
-309.96058506108483
 30
0.0
 11
-1195.018824853119
 21
-304.96058506108483
 31
0.0
  0
LINE
  5
16C
  8
1
 62
     7
 10
-1194.6983468875681
 20
-309.96058506108483
 30
0.0
 11
-1194.6983468875681
 21
-304.96058506108483
 31
0.0
  0
LINE
  5
16D
  8
1
 62
     7
 10
-1193.8907424143879
 20
-309.96058506108483
 30
0.0
 11
-1193.8907424143879
 21
-304.96058506108483
 31
0.0
  0
LINE
  5
16E
  8
1
 62
     7
 10
-1194.1984012613091
 20
-309.96058506108483
 30
0.0
 11
-1194.1984012613091
 21
-304.96058506108483
 31
0.0
  0
LINE
  5
16F
  8
1
 62
     7
 10
-1194.454783633749
 20
-309.96058506108483
 30
0.0
 11
-1194.454783633749
 21
-304.96058506108483
 31
0.0
  0
LINE
  5
170
  8
1
 62
     7
 10
-1192.6088305521989
 20
-309.96058506108483
 30
0.0
 11
-1192.6088305521989
 21
-304.96058506108483
 31
0.0
  0
LINE
  5
171
  8
1
 62
     7
 10
-1192.326809942509
 20
-309.96058506108483
 30
0.0
 11
-1192.326809942509
 21
-304.96058506108483
 31
0.0
  0
LINE
  5
172
  8
1
 62
     7
 10
-1191.403833401728
 20
-309.96058506108483
 30
0.0
 11
-1191.403833401728
 21
-304.96058506108483
 31
0.0
  0
LINE
  5
173
  8
1
 62
     7
 10
-1191.6473966555491
 20
-309.96058506108483
 30
0.0
 11
-1191.6473966555491
 21
-304.96058506108483
 31
0.0
  0
LINE
  5
174
  8
1
 62
     7
 10
-1192.0960658073191
 20
-309.96058506108483
 30
0.0
 11
-1192.0960658073191
 21
-304.96058506108483
 31
0.0
  0
LINE
  5
175
  8
1
 62
     7
 10
-1190.8853691359391
 20
-309.96058506108483
 30
0.0
 11
-1190.8853691359391
 21
-338.44911142202932
 31
0.0
  0
LINE
  5
176
  8
1
 62
     7
 10
-1195.5253691359389
 20
-309.96058506108483
 30
0.0
 11
-1195.5253691359389
 21
-338.44911142202932
 31
0.0
  0
LINE
  5
177
  8
1
 62
     7
 10
-1193.205369135939
 20
-309.96058506108483
 30
0.0
 11
-1193.205369135939
 21
-338.44911142202932
 31
0.0
  0
ARC
  5
178
  8
1
 62
     7
 10
13.55725034840475
 20
-558.44911142202898
 30
0.0
 40
153.9999999999996
 50
22.537912314381369
 51
37.462087685618599
  0
ARC
  5
179
  8
1
 62
     7
 10
13.55725034840475
 20
-558.44911142202898
 30
0.0
 40
153.9999999999996
 50
322.53791231438129
 51
337.4620876856186
  0
ARC
  5
17A
  8
1
 62
     7
 10
13.55725034840475
 20
-558.44911142202898
 30
0.0
 40
153.9999999999998
 50
262.53791231438129
 51
277.46208768561849
  0
ARC
  5
17B
  8
1
 62
     7
 10
13.55725034840475
 20
-558.44911142202898
 30
0.0
 40
153.9999999999996
 50
202.5379123143812
 51
217.4620876856186
  0
ARC
  5
17C
  8
1
 62
     7
 10
13.55725034840475
 20
-558.44911142202898
 30
0.0
 40
153.9999999999996
 50
142.53791231438129
 51
157.4620876856186
  0
ARC
  5
17D
  8
1
 62
     7
 10
13.55725034840475
 20
-558.44911142202898
 30
0.0
 40
153.9999999999996
 50
82.537912314381416
 51
97.462087685618584
  0
ARC
  5
17E
  8
1
 62
     7
 10
-496.75473173236128
 20
-408.299111422029
 30
0.0
 40
7.3000000000000123
 50
180.0
 51
270.0
  0
ARC
  5
17F
  8
1
 62
     7
 10
-496.7347317323613
 20
-408.299111422029
 30
0.0
 40
5.0
 50
180.0
 51
270.0
  0
ARC
  5
180
  8
1
 62
     7
 10
13.55725034840475
 20
-558.44911142202898
 30
0.0
 40
50.0
 50
106.260204708312
 51
73.739795291688054
  0
ARC
  5
181
  8
1
 62
     7
 10
13.55725034840475
 20
-558.44911142202898
 30
0.0
 40
162.49999999999989
 50
37.069714042303247
 51
82.930285957696626
  0
ARC
  5
182
  8
1
 62
     7
 10
13.55725034840475
 20
-558.44911142202898
 30
0.0
 40
162.5
 50
157.06971404230339
 51
202.9302859576965
  0
ARC
  5
183
  8
1
 62
     7
 10
13.55725034840475
 20
-558.44911142202898
 30
0.0
 40
162.5000000000004
 50
217.0697140423035
 51
262.93028595769658
  0
ARC
  5
184
  8
1
 62
     7
 10
13.55725034840475
 20
-558.44911142202898
 30
0.0
 40
162.5
 50
337.06971404230342
 51
22.93028595769653
  0
ARC
  5
185
  8
1
 62
     7
 10
13.55725034840475
 20
-558.44911142202898
 30
0.0
 40
162.5000000000004
 50
277.06971404230342
 51
322.93028595769641
  0
ARC
  5
186
  8
1
 62
     7
 10
13.55725034840475
 20
-558.44911142202898
 30
0.0
 40
162.4999999999998
 50
97.069714042303403
 51
142.9302859576965
  0
ARC
  5
187
  8
1
 62
     7
 10
13.55725034840475
 20
-558.44911142202898
 30
0.0
 40
161.9999999999998
 50
82.908353915606256
 51
97.091646084393787
  0
ARC
  5
188
  8
1
 62
     7
 10
13.55725034840475
 20
-558.44911142202898
 30
0.0
 40
162.0
 50
142.90835391560631
 51
157.0916460843938
  0
ARC
  5
189
  8
1
 62
     7
 10
13.55725034840475
 20
-558.44911142202898
 30
0.0
 40
162.00000000000031
 50
202.9083539156064
 51
217.0916460843936
  0
ARC
  5
18A
  8
1
 62
     7
 10
13.55725034840475
 20
-558.44911142202898
 30
0.0
 40
162.00000000000031
 50
262.9083539156062
 51
277.09164608439357
  0
ARC
  5
18B
  8
1
 62
     7
 10
13.55725034840475
 20
-558.44911142202898
 30
0.0
 40
162.0000000000004
 50
322.90835391560603
 51
337.09164608439357
  0
ARC
  5
18C
  8
1
 62
     7
 10
13.55725034840475
 20
-558.44911142202898
 30
0.0
 40
162.0
 50
22.908353915606121
 51
37.091646084393638
  0
ARC
  5
18D
  8
1
 62
     7
 10
-1193.205369135939
 20
-558.44911142202898
 30
0.0
 40
50.0
 50
106.260204708312
 51
73.739795291688054
  0
ARC
  5
18E
  8
1
 62
     7
 10
-1193.205369135939
 20
-558.44911142202898
 30
0.0
 40
147.99999999999989
 50
79.597878991048233
 51
82.819244218541741
  0
ARC
  5
18F
  8
1
 62
     7
 10
-1193.205369135939
 20
-558.44911142202898
 30
0.0
 40
148.0
 50
97.180755781458302
 51
100.4021210089518
  0
ARC
  5
190
  8
1
 62
     7
 10
-1193.205369135939
 20
-558.44911142202898
 30
0.0
 40
127.0
 50
79.082582684186221
 51
100.91741731581369
  0
ARC
  5
191
  8
1
 62
     7
 10
-1193.205369135939
 20
-558.44911142202898
 30
0.0
 40
162.0
 50
0.0
 51
84.687225294728606
  0
ARC
  5
192
  8
1
 62
     7
 10
-1193.205369135939
 20
-558.44911142202898
 30
0.0
 40
161.9999999999996
 50
95.312774705271337
 51
0.0
  0
ARC
  5
193
  8
1
 62
     7
 10
-1193.205369135939
 20
-558.44911142202898
 30
0.0
 40
162.5000000000004
 50
37.069714042303289
 51
82.930285957696626
  0
ARC
  5
194
  8
1
 62
     7
 10
-1193.205369135939
 20
-558.44911142202898
 30
0.0
 40
162.5000000000006
 50
337.06971404230342
 51
22.930285957696771
  0
ARC
  5
195
  8
1
 62
     7
 10
-1193.205369135939
 20
-558.44911142202898
 30
0.0
 40
162.50000000000031
 50
277.06971404230342
 51
322.93028595769681
  0
ARC
  5
196
  8
1
 62
     7
 10
-1193.205369135939
 20
-558.44911142202898
 30
0.0
 40
162.5000000000004
 50
217.0697140423033
 51
262.93028595769658
  0
ARC
  5
197
  8
1
 62
     7
 10
-1193.205369135939
 20
-558.44911142202898
 30
0.0
 40
162.5000000000004
 50
157.06971404230339
 51
202.93028595769681
  0
ARC
  5
198
  8
1
 62
     7
 10
-1193.205369135939
 20
-558.44911142202898
 30
0.0
 40
162.5
 50
97.069714042303403
 51
142.93028595769681
  0
CIRCLE
  5
199
  8
1
 62
     7
 10
-455.70536913593912
 20
-475.94911142202932
 30
0.0
 40
10.5
  0
CIRCLE
  5
19A
  8
1
 62
     7
 10
-488.70536913593912
 20
-475.94911142202932
 30
0.0
 40
10.5
  0
CIRCLE
  5
19B
  8
1
 62
     7
 10
13.55725034840475
 20
-558.44911142202898
 30
0.0
 40
148.50000000000011
  0
CIRCLE
  5
19C
  8
1
 62
     7
 10
13.55725034840475
 20
-558.44911142202898
 30
0.0
 40
85.0
  0
CIRCLE
  5
19D
  8
1
 62
     7
 10
13.55725034840475
 20
-558.44911142202898
 30
0.0
 40
98.500000000000014
  0
CIRCLE
  5
19E
  8
1
 62
     7
 10
13.55725034840475
 20
-558.44911142202898
 30
0.0
 40
143.5
  0
CIRCLE
  5
19F
  8
1
 62
     7
 10
-455.70536913593912
 20
-640.94911142202875
 30
0.0
 40
10.5
  0
CIRCLE
  5
1A0
  8
1
 62
     7
 10
-488.70536913593912
 20
-640.94911142202875
 30
0.0
 40
10.5
  0
CIRCLE
  5
1A1
  8
1
 62
     7
 10
-1171.2053691359381
 20
-422.44911142202932
 30
0.0
 40
4.25
  0
CIRCLE
  5
1A2
  8
1
 62
     7
 10
-1215.205369135939
 20
-422.44911142202932
 30
0.0
 40
4.25
  0
CIRCLE
  5
1A3
  8
1
 62
     7
 10
-1171.2053691359381
 20
-422.44911142202932
 30
0.0
 40
4.5999999999999091
  0
CIRCLE
  5
1A4
  8
1
 62
     7
 10
-1215.205369135939
 20
-422.44911142202932
 30
0.0
 40
4.5999999999999091
  0
CIRCLE
  5
1A5
  8
1
 62
     7
 10
-1193.205369135939
 20
-558.44911142202898
 30
0.0
 40
65.0
  0
CIRCLE
  5
1A6
  8
1
 62
     7
 10
-1193.205369135939
 20
-558.44911142202898
 30
0.0
 40
125.0
  0
CIRCLE
  5
1A7
  8
1
 62
     7
 10
-1193.205369135939
 20
-558.44911142202898
 30
0.0
 40
100.0
  0
ARC
  5
1A8
  8
1
 62
     7
 10
-344.20536913593912
 20
-462.94911142202932
 30
0.0
 40
3.0
 50
90.0
 51
180.0
  0
ARC
  5
1A9
  8
1
 62
     7
 10
-344.20536913593912
 20
-653.94911142202886
 30
0.0
 40
3.0
 50
180.0
 51
270.0
  0
ARC
  5
1AA
  8
1
 62
     7
 10
-1174.205369135939
 20
-407.64128669134732
 30
0.0
 40
4.0
 50
180.0
 51
262.81924421854171
  0
ARC
  5
1AB
  8
1
 62
     7
 10
-1212.205369135939
 20
-407.64128669134732
 30
0.0
 40
4.0000000000000151
 50
277.18075578145817
 51
0.0
  0
ARC
  5
1AC
  8
1
 62
     7
 10
-1167.205369135939
 20
-416.81578201118731
 30
0.0
 40
4.0
 50
0.0
 51
79.597878991052184
  0
ARC
  5
1AD
  8
1
 62
     7
 10
-1219.205369135939
 20
-416.81578201118731
 30
0.0
 40
4.0000000000000062
 50
100.4021210089478
 51
180.0
  0
ARC
  5
1AE
  8
1
 62
     7
 10
-1168.205369135939
 20
-428.8381550950271
 30
0.0
 40
4.9999999999999689
 50
259.0825826841828
 51
0.0
  0
ARC
  5
1AF
  8
1
 62
     7
 10
-1218.205369135939
 20
-428.8381550950271
 30
0.0
 40
5.0
 50
180.0
 51
280.9174173158172
  0
TEXT
  5
1B0
  8
1
 62
     7
 10
-1316.1180063619499
 20
-159.99306878055901
 30
0.0
 40
18.0
  1
MDC 250
 41
0.9
  7
SIMPLEX
  0
ENDSEC
  0
EOF
