  0
SECTION
  2
HEADER
  9
$ACADVER
  1
AC1009
  9
$INSBASE
 10
0.0
 20
0.0
 30
0.0
  9
$EXTMIN
 10
-1007.394075707773
 20
-1.071626157585605
 30
0.0
  9
$EXTMAX
 10
-576.89407570777303
 20
161.47224318050101
 30
0.0
  9
$LIMMIN
 10
-1007.394075707773
 20
-0.2252877517226993
  9
$LIMMAX
 10
-576.89407570777303
 20
161.47224318050101
  9
$ORTHOMODE
 70
     0
  9
$REGENMODE
 70
     1
  9
$FILLMODE
 70
     1
  9
$QTEXTMODE
 70
     0
  9
$MIRRTEXT
 70
     1
  9
$DRAGMODE
 70
     2
  9
$LTSCALE
 40
1.0
  9
$OSMODE
 70
    37
  9
$ATTMODE
 70
     1
  9
$TEXTSIZE
 40
3.5
  9
$TRACEWID
 40
0.5
  9
$TEXTSTYLE
  7
STANDARD
  9
$CLAYER
  8
0
  9
$CELTYPE
  6
BYLAYER
  9
$CECOLOR
 62
   256
  9
$DIMSCALE
 40
1.0
  9
$DIMASZ
 40
0.18
  9
$DIMEXO
 40
0.0625
  9
$DIMDLI
 40
0.38
  9
$DIMRND
 40
0.0
  9
$DIMDLE
 40
0.0
  9
$DIMEXE
 40
0.18
  9
$DIMTP
 40
0.0
  9
$DIMTM
 40
0.0
  9
$DIMTXT
 40
0.18
  9
$DIMCEN
 40
0.09
  9
$DIMTSZ
 40
0.0
  9
$DIMTOL
 70
     0
  9
$DIMLIM
 70
     0
  9
$DIMTIH
 70
     1
  9
$DIMTOH
 70
     1
  9
$DIMSE1
 70
     0
  9
$DIMSE2
 70
     0
  9
$DIMTAD
 70
     0
  9
$DIMZIN
 70
     0
  9
$DIMBLK
  1

  9
$DIMASO
 70
     1
  9
$DIMSHO
 70
     1
  9
$DIMPOST
  1

  9
$DIMAPOST
  1

  9
$DIMALT
 70
     0
  9
$DIMALTD
 70
     2
  9
$DIMALTF
 40
25.399999999999999
  9
$DIMLFAC
 40
1.0
  9
$DIMTOFL
 70
     0
  9
$DIMTVP
 40
0.0
  9
$DIMTIX
 70
     0
  9
$DIMSOXD
 70
     0
  9
$DIMSAH
 70
     0
  9
$DIMBLK1
  1

  9
$DIMBLK2
  1

  9
$DIMSTYLE
  2
STANDARD
  9
$DIMCLRD
 70
     0
  9
$DIMCLRE
 70
     0
  9
$DIMCLRT
 70
     0
  9
$DIMTFAC
 40
1.0
  9
$DIMGAP
 40
0.09
  9
$LUNITS
 70
     2
  9
$LUPREC
 70
     4
  9
$SKETCHINC
 40
0.1
  9
$FILLETRAD
 40
2.0
  9
$AUNITS
 70
     0
  9
$AUPREC
 70
     0
  9
$MENU
  1
ACAD
  9
$ELEVATION
 40
0.0
  9
$PELEVATION
 40
0.0
  9
$THICKNESS
 40
0.0
  9
$LIMCHECK
 70
     0
  9
$BLIPMODE
 70
     0
  9
$CHAMFERA
 40
0.0
  9
$CHAMFERB
 40
0.0
  9
$SKPOLY
 70
     0
  9
$TDCREATE
 40
2452095.0024194438
  9
$TDUPDATE
 40
2452095.0033304389
  9
$TDINDWG
 40
0.0009268519
  9
$TDUSRTIMER
 40
0.0009268519
  9
$USRTIMER
 70
     1
  9
$ANGBASE
 50
0.0
  9
$ANGDIR
 70
     0
  9
$PDMODE
 70
     0
  9
$PDSIZE
 40
0.0
  9
$PLINEWID
 40
0.0
  9
$COORDS
 70
     1
  9
$SPLFRAME
 70
     0
  9
$SPLINETYPE
 70
     6
  9
$SPLINESEGS
 70
     8
  9
$ATTDIA
 70
     0
  9
$ATTREQ
 70
     1
  9
$HANDLING
 70
 10241
  9
$HANDSEED
  5
174
  9
$SURFTAB1
 70
     6
  9
$SURFTAB2
 70
     6
  9
$SURFTYPE
 70
     6
  9
$SURFU
 70
     6
  9
$SURFV
 70
     6
  9
$UCSNAME
  2

  9
$UCSORG
 10
0.0
 20
0.0
 30
0.0
  9
$UCSXDIR
 10
1.0
 20
0.0
 30
0.0
  9
$UCSYDIR
 10
0.0
 20
1.0
 30
0.0
  9
$PUCSNAME
  2

  9
$PUCSORG
 10
0.0
 20
0.0
 30
0.0
  9
$PUCSXDIR
 10
1.0
 20
0.0
 30
0.0
  9
$PUCSYDIR
 10
0.0
 20
1.0
 30
0.0
  9
$USERI1
 70
     0
  9
$USERI2
 70
     0
  9
$USERI3
 70
     0
  9
$USERI4
 70
     0
  9
$USERI5
 70
     0
  9
$USERR1
 40
0.0
  9
$USERR2
 40
0.0
  9
$USERR3
 40
0.0
  9
$USERR4
 40
0.0
  9
$USERR5
 40
0.0
  9
$WORLDVIEW
 70
     1
  9
$SHADEDGE
 70
     3
  9
$SHADEDIF
 70
    70
  9
$TILEMODE
 70
     1
  9
$MAXACTVP
 70
    64
  9
$PLIMCHECK
 70
     0
  9
$PEXTMIN
 10
1.0000000000000000E+020
 20
1.0000000000000000E+020
 30
1.0000000000000000E+020
  9
$PEXTMAX
 10
-1.0000000000000000E+020
 20
-1.0000000000000000E+020
 30
-1.0000000000000000E+020
  9
$PLIMMIN
 10
0.0
 20
0.0
  9
$PLIMMAX
 10
12.0
 20
9.0
  9
$UNITMODE
 70
     0
  9
$VISRETAIN
 70
     1
  9
$PLINEGEN
 70
     0
  9
$PSLTSCALE
 70
     1
  0
ENDSEC
  0
SECTION
  2
TABLES
  0
TABLE
  2
VPORT
 70
     2
  0
VPORT
  2
*ACTIVE
 70
     0
 10
0.0
 20
0.0
 11
1.0
 21
1.0
 12
-995.28178308246117
 22
150.72357363798091
 13
0.0
 23
0.0
 14
1.0
 24
1.0
 15
0.0
 25
0.0
 16
0.0
 26
0.0
 36
1.0
 17
0.0
 27
0.0
 37
0.0
 40
9.0000001359849193
 41
2.4144144144144142
 42
50.0
 43
0.0
 44
0.0
 50
0.0
 51
0.0
 71
     0
 72
   100
 73
     1
 74
     1
 75
     0
 76
     0
 77
     0
 78
     0
  0
ENDTAB
  0
TABLE
  2
LTYPE
 70
     9
  0
LTYPE
  2
CONTINUOUS
 70
     0
  3
Solid line
 72
    65
 73
     0
 40
0.0
  0
LTYPE
  2
BORDER
 70
     0
  3
__ __ . __ __ .
 72
    65
 73
     6
 40
19.825657894736839
 49
5.6644736842105257
 49
-2.8322368421052628
 49
5.6644736842105257
 49
-2.8322368421052628
 49
0.0
 49
-2.8322368421052628
  0
LTYPE
  2
CENTER
 70
     0
  3
____ _ ____ _
 72
    65
 73
     4
 40
22.657894736842099
 49
14.16118421052632
 49
-2.8322368421052628
 49
2.8322368421052628
 49
-2.8322368421052628
  0
LTYPE
  2
DASHDOT
 70
     0
  3
__ . __ . __ .
 72
    65
 73
     4
 40
11.32894736842105
 49
5.6644736842105257
 49
-2.8322368421052628
 49
0.0
 49
-2.8322368421052628
  0
LTYPE
  2
DASHED
 70
     0
  3
__ __ __ __ __
 72
    65
 73
     2
 40
8.4967105263157894
 49
5.6644736842105257
 49
-2.8322368421052628
  0
LTYPE
  2
DIVIDE
 70
     0
  3
__ . . __ . . 
 72
    65
 73
     6
 40
14.16118421052632
 49
5.6644736842105257
 49
-2.8322368421052628
 49
0.0
 49
-2.8322368421052628
 49
0.0
 49
-2.8322368421052628
  0
LTYPE
  2
DOT
 70
     0
  3
..............
 72
    65
 73
     4
 40
5.6644736842105257
 49
0.0
 49
-2.8322368421052628
 49
0.0
 49
-2.8322368421052628
  0
LTYPE
  2
HIDDEN
 70
     0
  3
_ _ _ _ _ _ _
 72
    65
 73
     2
 40
4.2483552631578947
 49
2.8322368421052628
 49
-1.416118421052631
  0
LTYPE
  2
PHANTOM
 70
     0
  3
_____ _ _ _____ _ _ 
 72
    65
 73
     6
 40
28.322368421052619
 49
14.16118421052632
 49
-2.8322368421052628
 49
2.8322368421052628
 49
-2.8322368421052628
 49
2.8322368421052628
 49
-2.8322368421052628
  0
ENDTAB
  0
TABLE
  2
LAYER
 70
     2
  0
LAYER
  2
0
 70
     0
 62
     7
  6
CONTINUOUS
  0
LAYER
  2
1
 70
     0
 62
     7
  6
CONTINUOUS
  0
ENDTAB
  0
TABLE
  2
STYLE
 70
     4
  0
STYLE
  2
STANDARD
 70
     0
 40
0.0
 41
1.0
 50
0.0
 71
     0
 42
3.5
  3
txt
  4

  0
STYLE
  2
SIMPLEX
 70
     0
 40
0.0
 41
1.0
 50
0.0
 71
     0
 42
3.5
  3
simplex
  4

  0
STYLE
  2
COMPLEX
 70
     0
 40
0.0
 41
1.0
 50
0.0
 71
     0
 42
3.5
  3
complex
  4

  0
STYLE
  2
ITALIC
 70
     0
 40
0.0
 41
1.0
 50
0.0
 71
     0
 42
3.5
  3
italic
  4

  0
ENDTAB
  0
TABLE
  2
VIEW
 70
     0
  0
ENDTAB
  0
TABLE
  2
UCS
 70
     0
  0
ENDTAB
  0
TABLE
  2
APPID
 70
     1
  0
APPID
  2
ACAD
 70
     0
  0
ENDTAB
  0
TABLE
  2
DIMSTYLE
 70
     1
  0
DIMSTYLE
  2
STANDARD
 70
     0
  3

  4

  5

  6

  7

 40
1.0
 41
0.18
 42
0.0625
 43
0.38
 44
0.18
 45
0.0
 46
0.0
 47
0.0
 48
0.0
140
0.18
141
0.09
142
0.0
143
25.399999999999999
144
1.0
145
0.0
146
1.0
147
0.09
 71
     0
 72
     0
 73
     1
 74
     1
 75
     0
 76
     0
 77
     0
 78
     0
170
     0
171
     2
172
     0
173
     0
174
     0
175
     0
176
     0
177
     0
178
     0
  0
ENDTAB
  0
ENDSEC
  0
SECTION
  2
BLOCKS
  0
BLOCK
  8
0
  2
$MODEL_SPACE
 70
     0
 10
0.0
 20
0.0
 30
0.0
  3
$MODEL_SPACE
  1

  0
ENDBLK
  5
20
  8
0
  0
BLOCK
 67
     1
  8
0
  2
$PAPER_SPACE
 70
     0
 10
0.0
 20
0.0
 30
0.0
  3
$PAPER_SPACE
  1

  0
ENDBLK
  5
1C
 67
     1
  8
0
  0
ENDSEC
  0
SECTION
  2
ENTITIES
  0
LINE
  5
33
  8
1
 62
     7
 10
-746.39407570777325
 20
75.2085442800213
 30
0.0
 11
-746.39407570777325
 21
69.2085442800213
 31
0.0
  0
LINE
  5
34
  8
1
 62
     7
 10
-754.39407570777325
 20
75.2085442800213
 30
0.0
 11
-754.39407570777325
 21
69.2085442800213
 31
0.0
  0
LINE
  5
35
  8
1
 62
     7
 10
-756.39407570777314
 20
69.2085442800213
 30
0.0
 11
-756.39407570777314
 21
75.2085442800213
 31
0.0
  0
LINE
  5
36
  8
1
 62
     7
 10
-764.39407570777314
 20
69.2085442800213
 30
0.0
 11
-764.39407570777314
 21
75.2085442800213
 31
0.0
  0
LINE
  5
37
  8
1
 62
     7
 10
-754.39407570777325
 20
30.208544280021311
 30
0.0
 11
-754.39407570777325
 21
24.208544280021311
 31
0.0
  0
LINE
  5
38
  8
1
 62
     7
 10
-746.39407570777325
 20
30.208544280021311
 30
0.0
 11
-746.39407570777325
 21
24.208544280021311
 31
0.0
  0
LINE
  5
39
  8
1
 62
     7
 10
-756.39407570777314
 20
24.208544280021311
 30
0.0
 11
-756.39407570777314
 21
30.208544280021311
 31
0.0
  0
LINE
  5
3A
  8
1
 62
     7
 10
-764.39407570777314
 20
24.208544280021311
 30
0.0
 11
-764.39407570777314
 21
30.208544280021311
 31
0.0
  0
LINE
  5
3B
  8
1
  6
DASHDOT
 62
     3
 10
-866.53074990604
 20
106.7085442800213
 30
0.0
 11
-861.03766983042112
 21
106.7085442800213
 31
0.0
  0
LINE
  5
3C
  8
1
 62
     7
 10
-719.39407570777314
 20
72.308544280021309
 30
0.0
 11
-719.39407570777314
 21
27.108544280021299
 31
0.0
  0
LINE
  5
3D
  8
1
 62
     7
 10
-720.89407570777314
 20
72.308544280021309
 30
0.0
 11
-719.39407570777314
 21
72.308544280021309
 31
0.0
  0
LINE
  5
3E
  8
1
 62
     7
 10
-720.89407570777314
 20
70.708544280021314
 30
0.0
 11
-720.89407570777314
 21
73.008544280021283
 31
0.0
  0
LINE
  5
3F
  8
1
 62
     7
 10
-734.1940757077731
 20
67.708544280021314
 30
0.0
 11
-745.39407570777314
 21
67.708544280021314
 31
0.0
  0
LINE
  5
40
  8
1
 62
     7
 10
-766.89407570777314
 20
66.208544280021314
 30
0.0
 11
-765.39407570777314
 21
66.208544280021314
 31
0.0
  0
LINE
  5
41
  8
1
 62
     7
 10
-768.39407570777314
 20
67.208544280021314
 30
0.0
 11
-766.89407570777314
 21
67.208544280021314
 31
0.0
  0
LINE
  5
42
  8
1
 62
     7
 10
-768.39407570777314
 20
67.208544280021314
 30
0.0
 11
-768.39407570777314
 21
32.2085442800213
 31
0.0
  0
LINE
  5
43
  8
1
 62
     7
 10
-727.39407570777314
 20
62.708544280021293
 30
0.0
 11
-727.39407570777314
 21
36.708544280021322
 31
0.0
  0
LINE
  5
44
  8
1
 62
     7
 10
-733.39407570777314
 20
62.708544280021293
 30
0.0
 11
-733.39407570777314
 21
36.708544280021322
 31
0.0
  0
LINE
  5
45
  8
1
 62
     7
 10
-741.89407570777314
 20
62.708544280021293
 30
0.0
 11
-741.89407570777314
 21
36.708544280021322
 31
0.0
  0
LINE
  5
46
  8
1
 62
     7
 10
-747.89407570777314
 20
62.708544280021293
 30
0.0
 11
-747.89407570777314
 21
36.708544280021322
 31
0.0
  0
LINE
  5
47
  8
1
 62
     7
 10
-733.39407570777314
 20
62.708544280021293
 30
0.0
 11
-727.39407570777314
 21
62.708544280021293
 31
0.0
  0
LINE
  5
48
  8
1
 62
     7
 10
-747.89407570777314
 20
62.708544280021293
 30
0.0
 11
-741.89407570777314
 21
62.708544280021293
 31
0.0
  0
LINE
  5
49
  8
1
 62
     7
 10
-727.39407570777314
 20
62.208544280021293
 30
0.0
 11
-719.39407570777314
 21
62.208544280021293
 31
0.0
  0
LINE
  5
4A
  8
1
 62
     7
 10
-741.89407570777314
 20
62.208544280021293
 30
0.0
 11
-733.39407570777314
 21
62.208544280021293
 31
0.0
  0
LINE
  5
4B
  8
1
 62
     7
 10
-768.39407570777314
 20
62.208544280021293
 30
0.0
 11
-747.89407570777314
 21
62.208544280021293
 31
0.0
  0
LINE
  5
4C
  8
1
 62
     7
 10
-740.69407570777332
 20
91.9585442800213
 30
0.0
 11
-734.19407570777287
 21
91.9585442800213
 31
0.0
  0
LINE
  5
4D
  8
1
 62
     7
 10
-740.69407570777332
 20
87.9585442800213
 30
0.0
 11
-740.69407570777332
 21
91.9585442800213
 31
0.0
  0
LINE
  5
4E
  8
1
 62
     7
 10
-739.19407570777332
 20
74.4585442800213
 30
0.0
 11
-739.19407570777332
 21
87.9585442800213
 31
0.0
  0
LINE
  5
4F
  8
1
 62
     7
 10
-744.89407570777314
 20
74.4585442800213
 30
0.0
 11
-739.19407570777332
 21
74.4585442800213
 31
0.0
  0
LINE
  5
50
  8
1
 62
     7
 10
-744.89407570777314
 20
69.7085442800213
 30
0.0
 11
-744.89407570777314
 21
74.4585442800213
 31
0.0
  0
LINE
  5
51
  8
1
 62
     7
 10
-745.39407570777314
 20
69.7085442800213
 30
0.0
 11
-744.89407570777314
 21
69.7085442800213
 31
0.0
  0
LINE
  5
52
  8
1
 62
     7
 10
-740.69407570777332
 20
87.9585442800213
 30
0.0
 11
-739.19407570777332
 21
87.9585442800213
 31
0.0
  0
LINE
  5
53
  8
1
 62
     7
 10
-755.39407570777314
 20
77.2085442800213
 30
0.0
 11
-755.39407570777314
 21
67.208544280021314
 31
0.0
  0
LINE
  5
54
  8
1
 62
     7
 10
-751.89407570777314
 20
74.80662049137463
 30
0.0
 11
-758.89407570777314
 21
74.80662049137463
 31
0.0
  0
LINE
  5
55
  8
1
 62
     7
 10
-745.39407570777314
 20
74.806620491374602
 30
0.0
 11
-748.89407570777314
 21
74.80662049137463
 31
0.0
  0
LINE
  5
56
  8
1
 62
     7
 10
-745.39407570777314
 20
69.610468068667998
 30
0.0
 11
-748.89407570777314
 21
69.610468068667998
 31
0.0
  0
LINE
  5
57
  8
1
 62
     7
 10
-745.39407570777314
 20
77.2085442800213
 30
0.0
 11
-745.39407570777314
 21
67.208544280021314
 31
0.0
  0
LINE
  5
58
  8
1
 62
     7
 10
-758.89407570777314
 20
69.610468068667998
 30
0.0
 11
-751.89407570777314
 21
69.610468068667998
 31
0.0
  0
LINE
  5
59
  8
1
 62
     7
 10
-761.89407570777314
 20
69.610468068667998
 30
0.0
 11
-765.39407570777314
 21
69.610468068667998
 31
0.0
  0
LINE
  5
5A
  8
1
 62
     7
 10
-761.89407570777314
 20
74.80662049137463
 30
0.0
 11
-765.39407570777314
 21
74.806620491374602
 31
0.0
  0
LINE
  5
5B
  8
1
 62
     7
 10
-766.89407570777314
 20
70.008544280021297
 30
0.0
 11
-766.89407570777314
 21
66.208544280021314
 31
0.0
  0
LINE
  5
5C
  8
1
 62
     7
 10
-766.89407570777314
 20
70.008544280021297
 30
0.0
 11
-765.39407570777314
 21
70.008544280021297
 31
0.0
  0
LINE
  5
5D
  8
1
 62
     7
 10
-765.39407570777314
 20
78.7085442800213
 30
0.0
 11
-765.39407570777314
 21
66.208544280021314
 31
0.0
  0
LINE
  5
5E
  8
1
 62
     7
 10
-745.39407570777314
 20
67.208544280021314
 30
0.0
 11
-765.39407570777314
 21
67.208544280021314
 31
0.0
  0
LINE
  5
5F
  8
1
 62
     7
 10
-739.69407570777332
 20
75.2085442800213
 30
0.0
 11
-745.39407570777314
 21
75.2085442800213
 31
0.0
  0
LINE
  5
60
  8
1
 62
     7
 10
-739.69407570777332
 20
79.7085442800213
 30
0.0
 11
-739.69407570777332
 21
75.2085442800213
 31
0.0
  0
LINE
  5
61
  8
1
 62
     7
 10
-736.19407570777332
 20
93.708544280021314
 30
0.0
 11
-736.19407570777332
 21
92.708544280021286
 31
0.0
  0
LINE
  5
62
  8
1
 62
     7
 10
-738.69407570777332
 20
96.208544280021314
 30
0.0
 11
-765.99407570777316
 21
96.208544280021314
 31
0.0
  0
LINE
  5
63
  8
1
 62
     7
 10
-766.89407570777314
 20
77.2085442800213
 30
0.0
 11
-768.39407570777314
 21
77.2085442800213
 31
0.0
  0
LINE
  5
64
  8
1
 62
     7
 10
-765.39407570777314
 20
77.2085442800213
 30
0.0
 11
-745.39407570777314
 21
77.2085442800213
 31
0.0
  0
LINE
  5
65
  8
1
 62
     7
 10
-766.89407570777314
 20
78.7085442800213
 30
0.0
 11
-766.89407570777314
 21
74.2085442800213
 31
0.0
  0
LINE
  5
66
  8
1
 62
     7
 10
-766.89407570777314
 20
74.2085442800213
 30
0.0
 11
-765.39407570777314
 21
74.2085442800213
 31
0.0
  0
LINE
  5
67
  8
1
 62
     7
 10
-736.19407570777332
 20
93.708544280021314
 30
0.0
 11
-738.69407570777332
 21
96.208544280021314
 31
0.0
  0
LINE
  5
68
  8
1
 62
     7
 10
-739.69407570777332
 20
79.7085442800213
 30
0.0
 11
-741.69407570777332
 21
81.7085442800213
 31
0.0
  0
LINE
  5
69
  8
1
 62
     7
 10
-741.69407570777332
 20
81.7085442800213
 30
0.0
 11
-741.69407570777332
 21
92.708544280021286
 31
0.0
  0
LINE
  5
6A
  8
1
 62
     7
 10
-722.39407570777314
 20
73.008544280021283
 30
0.0
 11
-720.89407570777314
 21
73.008544280021283
 31
0.0
  0
LINE
  5
6B
  8
1
 62
     7
 10
-719.89407570777269
 20
74.7085442800213
 30
0.0
 11
-722.39407570777314
 21
74.7085442800213
 31
0.0
  0
LINE
  5
6C
  8
1
 62
     7
 10
-719.89407570777269
 20
80.242024638059405
 30
0.0
 11
-721.39407570777314
 21
92.458544280021314
 31
0.0
  0
LINE
  5
6D
  8
1
 62
     7
 10
-722.39407570777314
 20
74.7085442800213
 30
0.0
 11
-722.39407570777314
 21
69.308544280021309
 31
0.0
  0
LINE
  5
6E
  8
1
 62
     7
 10
-724.89407570777314
 20
92.458544280021314
 30
0.0
 11
-721.39407570777314
 21
92.458544280021314
 31
0.0
  0
LINE
  5
6F
  8
1
 62
     7
 10
-724.89407570777314
 20
69.308544280021309
 30
0.0
 11
-722.39407570777314
 21
69.308544280021309
 31
0.0
  0
LINE
  5
70
  8
1
 62
     7
 10
-722.39407570777314
 20
72.7085442800213
 30
0.0
 11
-724.89407570777314
 21
72.7085442800213
 31
0.0
  0
LINE
  5
71
  8
1
 62
     7
 10
-734.19407570777287
 20
97.2085442800213
 30
0.0
 11
-724.89407570777314
 21
97.2085442800213
 31
0.0
  0
LINE
  5
72
  8
1
 62
     7
 10
-724.89407570777314
 20
68.7085442800213
 30
0.0
 11
-724.89407570777314
 21
97.2085442800213
 31
0.0
  0
LINE
  5
73
  8
1
 62
     7
 10
-734.1940757077731
 20
67.708544280021314
 30
0.0
 11
-734.19407570777287
 21
97.2085442800213
 31
0.0
  0
LINE
  5
74
  8
1
 62
     3
 10
-724.89407570777314
 20
97.2085442800213
 30
0.0
 11
-734.1940757077731
 21
68.7085442800213
 31
0.0
  0
LINE
  5
75
  8
1
 62
     3
 10
-724.89407570777314
 20
68.7085442800213
 30
0.0
 11
-734.19407570777287
 21
97.2085442800213
 31
0.0
  0
LINE
  5
76
  8
1
 62
     7
 10
-768.39407570777314
 20
63.908544280021289
 30
0.0
 11
-719.39407570777314
 21
63.908544280021289
 31
0.0
  0
LINE
  5
77
  8
1
 62
     7
 10
-736.19407570777332
 20
92.708544280021286
 30
0.0
 11
-741.69407570777332
 21
92.708544280021286
 31
0.0
  0
LINE
  5
78
  8
1
 62
     7
 10
-760.05407570777334
 20
116.91847233757611
 30
0.0
 11
-757.73407570777329
 21
116.91847233757611
 31
0.0
  0
LINE
  5
79
  8
1
 62
     7
 10
-760.05407570777334
 20
116.91847233757611
 30
0.0
 11
-760.05407570777334
 21
96.208544280021314
 31
0.0
  0
LINE
  5
7A
  8
1
 62
     7
 10
-759.17236600915601
 20
121.91847233757611
 30
0.0
 11
-759.17236600915601
 21
116.91847233757611
 31
0.0
  0
LINE
  5
7B
  8
1
 62
     7
 10
-759.47449418057511
 20
121.91847233757611
 30
0.0
 11
-759.47449418057511
 21
116.91847233757611
 31
0.0
  0
LINE
  5
7C
  8
1
 62
     7
 10
-758.64692571103512
 20
121.91847233757611
 30
0.0
 11
-758.64692571103512
 21
116.91847233757611
 31
0.0
  0
LINE
  5
7D
  8
1
 62
     7
 10
-758.29225350980312
 20
121.91847233757611
 30
0.0
 11
-758.29225350980312
 21
116.91847233757611
 31
0.0
  0
LINE
  5
7E
  8
1
 62
     7
 10
-768.39407570777314
 20
78.7085442800213
 30
0.0
 11
-765.39407570777314
 21
78.7085442800213
 31
0.0
  0
LINE
  5
7F
  8
1
 62
     7
 10
-765.99407570777316
 20
78.7085442800213
 30
0.0
 11
-765.99407570777316
 21
112.7085442800213
 31
0.0
  0
LINE
  5
80
  8
1
 62
     7
 10
-768.39407570777314
 20
78.7085442800213
 30
0.0
 11
-768.39407570777314
 21
70.008544280021297
 31
0.0
  0
LINE
  5
81
  8
1
 62
     7
 10
-768.294075707773
 20
112.7085442800213
 30
0.0
 11
-768.29407570777323
 21
78.7085442800213
 31
0.0
  0
LINE
  5
82
  8
1
 62
     7
 10
-765.99407570777316
 20
112.7085442800213
 30
0.0
 11
-768.294075707773
 21
112.7085442800213
 31
0.0
  0
LINE
  5
83
  8
1
  6
DASHDOT
 62
     3
 10
-770.03074990604
 20
106.7085442800213
 30
0.0
 11
-764.53766983042112
 21
106.7085442800213
 31
0.0
  0
LINE
  5
84
  8
1
 62
     7
 10
-768.294075707773
 20
109.4585442800213
 30
0.0
 11
-765.99407570777316
 21
109.4585442800213
 31
0.0
  0
LINE
  5
85
  8
1
 62
     7
 10
-768.29407570777323
 20
103.9585442800212
 30
0.0
 11
-765.99407570777316
 21
103.9585442800212
 31
0.0
  0
LINE
  5
86
  8
1
 62
     7
 10
-719.89407570777269
 20
73.233503070815303
 30
0.0
 11
-719.89407570777269
 21
80.242024638059405
 31
0.0
  0
LINE
  5
87
  8
1
 62
     7
 10
-628.39407570777303
 20
63.908544280021289
 30
0.0
 11
-620.39407570777303
 21
63.908544280021289
 31
0.0
  0
LINE
  5
88
  8
1
 62
     7
 10
-620.39407570777303
 20
63.908544280021289
 30
0.0
 11
-620.39407570777303
 21
61.551263562348311
 31
0.0
  0
LINE
  5
89
  8
1
 62
     7
 10
-628.39407570777303
 20
63.908544280021289
 30
0.0
 11
-628.39407570777303
 21
61.551263562348311
 31
0.0
  0
LINE
  5
8A
  8
1
 62
     7
 10
-619.39407570777303
 20
96.944653349249293
 30
0.0
 11
-619.39407570777303
 21
93.4585442800213
 31
0.0
  0
LINE
  5
8B
  8
1
 62
     7
 10
-629.39407570777303
 20
96.944653349249293
 30
0.0
 11
-629.39407570777303
 21
93.4585442800213
 31
0.0
  0
LINE
  5
8C
  8
1
 62
     7
 10
-629.39407570777303
 20
93.4585442800213
 30
0.0
 11
-619.39407570777303
 21
93.4585442800213
 31
0.0
  0
LINE
  5
8D
  8
1
 62
     7
 10
-662.80174613765712
 20
77.656725833557502
 30
0.0
 11
-659.78268712334216
 21
75.913671298943513
 31
0.0
  0
LINE
  5
8E
  8
1
 62
     7
 10
-667.80174613765712
 20
68.99647179571312
 30
0.0
 11
-664.78268712334216
 21
67.253417261099131
 31
0.0
  0
LINE
  5
8F
  8
1
 62
     7
 10
-664.78268712334216
 20
67.253417261099131
 30
0.0
 11
-659.78268712334216
 21
75.913671298943513
 31
0.0
  0
LINE
  5
90
  8
1
 62
     7
 10
-667.80174613765712
 20
30.420616764329498
 30
0.0
 11
-664.78268712334238
 21
32.163671298943477
 31
0.0
  0
LINE
  5
91
  8
1
 62
     7
 10
-662.80174613765712
 20
21.76036272648512
 30
0.0
 11
-659.78268712334227
 21
23.503417261099091
 31
0.0
  0
LINE
  5
92
  8
1
 62
     7
 10
-659.78268712334227
 20
23.503417261099091
 30
0.0
 11
-664.78268712334238
 21
32.163671298943477
 31
0.0
  0
LINE
  5
93
  8
1
 62
     7
 10
-629.39407570777303
 20
2.4724352107933161
 30
0.0
 11
-629.39407570777303
 21
5.9585442800212807
 31
0.0
  0
LINE
  5
94
  8
1
 62
     7
 10
-619.39407570777314
 20
2.4724352107933121
 30
0.0
 11
-619.39407570777314
 21
5.958544280021278
 31
0.0
  0
LINE
  5
95
  8
1
 62
     7
 10
-619.39407570777314
 20
5.958544280021278
 30
0.0
 11
-629.39407570777303
 21
5.9585442800212807
 31
0.0
  0
LINE
  5
96
  8
1
 62
     7
 10
-585.98640527788928
 20
21.760362726485091
 30
0.0
 11
-589.0054642922039
 21
23.50341726109907
 31
0.0
  0
LINE
  5
97
  8
1
 62
     7
 10
-580.98640527788916
 20
30.42061676432948
 30
0.0
 11
-584.0054642922039
 21
32.163671298943463
 31
0.0
  0
LINE
  5
98
  8
1
 62
     7
 10
-584.0054642922039
 20
32.163671298943463
 30
0.0
 11
-589.0054642922039
 21
23.50341726109907
 31
0.0
  0
LINE
  5
99
  8
1
 62
     7
 10
-580.98640527788916
 20
68.996471795713092
 30
0.0
 11
-584.0054642922039
 21
67.253417261099102
 31
0.0
  0
LINE
  5
9A
  8
1
 62
     7
 10
-585.98640527788928
 20
77.656725833557473
 30
0.0
 11
-589.0054642922039
 21
75.913671298943498
 31
0.0
  0
LINE
  5
9B
  8
1
 62
     7
 10
-589.0054642922039
 20
75.913671298943498
 30
0.0
 11
-584.0054642922039
 21
67.253417261099102
 31
0.0
  0
LINE
  5
9C
  8
1
  6
DASHDOT
 62
     3
 10
-667.63804275556845
 20
74.675460295893231
 30
0.0
 11
-660.1962077717435
 21
70.378914864717231
 31
0.0
  0
LINE
  5
9D
  8
1
  6
DASHDOT
 62
     3
 10
-667.63804275556845
 20
24.741628264149391
 30
0.0
 11
-660.19620777174373
 21
29.038173695325391
 31
0.0
  0
LINE
  5
9E
  8
1
  6
DASHDOT
 62
     3
 10
-581.1501086599776
 20
24.741628264149369
 30
0.0
 11
-588.59194364380255
 21
29.038173695325369
 31
0.0
  0
LINE
  5
9F
  8
1
  6
DASHDOT
 62
     3
 10
-581.1501086599776
 20
74.675460295893203
 30
0.0
 11
-588.59194364380255
 21
70.378914864717203
 31
0.0
  0
LINE
  5
A0
  8
1
 62
     7
 10
-631.39407570777303
 20
110.7085442800213
 30
0.0
 11
-631.39407570777303
 21
96.689923570118793
 31
0.0
  0
LINE
  5
A1
  8
1
 62
     7
 10
-617.39407570777303
 20
110.7085442800213
 30
0.0
 11
-617.39407570777303
 21
96.689923570118793
 31
0.0
  0
LINE
  5
A2
  8
1
 62
     7
 10
-629.39407570777303
 20
112.7085442800213
 30
0.0
 11
-619.39407570777303
 21
112.7085442800213
 31
0.0
  0
LINE
  5
A3
  8
1
 62
     7
 10
-638.91425564156123
 20
94.934801859998188
 30
0.0
 11
-644.03023302602924
 21
114.0278893892059
 31
0.0
  0
LINE
  5
A4
  8
1
 62
     7
 10
-642.64095127822247
 20
114.40014631158991
 30
0.0
 11
-643.93504650373495
 21
119.22977544303539
 31
0.0
  0
LINE
  5
A5
  8
1
 62
     7
 10
-642.34911787459907
 20
114.47834283641519
 30
0.0
 11
-643.64321310011178
 21
119.3079719678606
 31
0.0
  0
LINE
  5
A6
  8
1
 62
     7
 10
-643.14848763235045
 20
114.264152355372
 30
0.0
 11
-644.44258285786304
 21
119.09378148681731
 31
0.0
  0
LINE
  5
A7
  8
1
 62
     7
 10
-643.49107467138731
 20
114.17235643492459
 30
0.0
 11
-644.78516989689956
 21
119.00198556637
 31
0.0
  0
LINE
  5
A8
  8
1
 62
     7
 10
-644.03023302602924
 20
114.0278893892059
 30
0.0
 11
-639.54833719204794
 21
115.2288097584815
 31
0.0
  0
LINE
  5
A9
  8
1
 62
     7
 10
-641.78928510903836
 20
114.62834957384381
 30
0.0
 11
-636.68798035014277
 21
95.590021028752076
 31
0.0
  0
LINE
  5
AA
  8
1
 62
     7
 10
-634.43235980757993
 20
96.13572222927391
 30
0.0
 11
-639.54833719204794
 21
115.2288097584815
 31
0.0
  0
LINE
  5
AB
  8
1
 62
     7
 10
-640.40000336123171
 20
115.0006064962279
 30
0.0
 11
-641.69409858674419
 21
119.8302356276732
 31
0.0
  0
LINE
  5
AC
  8
1
 62
     7
 10
-640.10816995760877
 20
115.0788030210531
 30
0.0
 11
-641.40226518312124
 21
119.90843215249841
 31
0.0
  0
LINE
  5
AD
  8
1
 62
     7
 10
-640.90753971535992
 20
114.8646125400099
 30
0.0
 11
-642.20163494087251
 21
119.6942416714552
 31
0.0
  0
LINE
  5
AE
  8
1
 62
     7
 10
-641.25012675439677
 20
114.7728166195626
 30
0.0
 11
-642.54422197990925
 21
119.60244575100791
 31
0.0
  0
LINE
  5
AF
  8
1
 62
     7
 10
-641.9629063760558
 20
119.75820879760811
 30
0.0
 11
-640.66881115054321
 21
114.9285796661627
 31
0.0
  0
LINE
  5
B0
  8
1
 62
     7
 10
-644.20385429304656
 20
119.1577486129701
 30
0.0
 11
-642.90975906753408
 21
114.32811948152469
 31
0.0
  0
LINE
  5
B1
  8
1
 62
     7
 10
-835.19407570777321
 20
3.2085442800212962
 30
0.0
 11
-863.39407570777314
 21
3.2085442800212962
 31
0.0
  0
LINE
  5
B2
  8
1
 62
     7
 10
-835.19407570777321
 20
3.2085442800212962
 30
0.0
 11
-832.69407570777321
 21
5.7085442800212967
 31
0.0
  0
LINE
  5
B3
  8
1
 62
     7
 10
-864.89407570777314
 20
4.7085442800212958
 30
0.0
 11
-863.39407570777314
 21
3.2085442800212962
 31
0.0
  0
LINE
  5
B4
  8
1
 62
     7
 10
-817.89407570777314
 20
6.9585442800212967
 30
0.0
 11
-816.39407570777325
 21
19.175063921983192
 31
0.0
  0
LINE
  5
B5
  8
1
 62
     7
 10
-817.89407570777314
 20
6.9585442800212967
 30
0.0
 11
-821.39407570777314
 21
6.9585442800212967
 31
0.0
  0
LINE
  5
B6
  8
1
 62
     7
 10
-821.39407570777314
 20
2.2085442800212962
 30
0.0
 11
-830.6940757077731
 21
2.2085442800212962
 31
0.0
  0
LINE
  5
B7
  8
1
 62
     7
 10
-815.89407570777314
 20
27.108544280021292
 30
0.0
 11
-816.39407570777325
 21
27.108544280021292
 31
0.0
  0
LINE
  5
B8
  8
1
 62
     7
 10
-830.6940757077731
 20
6.9585442800212967
 30
0.0
 11
-832.69407570777321
 21
6.9585442800212967
 31
0.0
  0
LINE
  5
B9
  8
1
 62
     7
 10
-856.55407570777345
 20
116.91847233757611
 30
0.0
 11
-854.23407570777329
 21
116.91847233757611
 31
0.0
  0
LINE
  5
BA
  8
1
 62
     7
 10
-854.23407570777329
 20
116.91847233757611
 30
0.0
 11
-854.23407570777329
 21
96.208544280021314
 31
0.0
  0
LINE
  5
BB
  8
1
 62
     7
 10
-855.67236600915589
 20
121.91847233757611
 30
0.0
 11
-855.67236600915589
 21
116.91847233757611
 31
0.0
  0
LINE
  5
BC
  8
1
 62
     7
 10
-855.97449418057511
 20
121.91847233757611
 30
0.0
 11
-855.97449418057511
 21
116.91847233757611
 31
0.0
  0
LINE
  5
BD
  8
1
 62
     7
 10
-855.14692571103512
 20
121.91847233757611
 30
0.0
 11
-855.14692571103512
 21
116.91847233757611
 31
0.0
  0
LINE
  5
BE
  8
1
 62
     7
 10
-854.79225350980312
 20
121.91847233757611
 30
0.0
 11
-854.79225350980312
 21
116.91847233757611
 31
0.0
  0
LINE
  5
BF
  8
1
 62
     7
 10
-862.49407570777316
 20
112.7085442800213
 30
0.0
 11
-862.49407570777316
 21
96.208544280021314
 31
0.0
  0
LINE
  5
C0
  8
1
 62
     7
 10
-862.49407570777316
 20
112.7085442800213
 30
0.0
 11
-864.794075707773
 21
112.7085442800213
 31
0.0
  0
LINE
  5
C1
  8
1
 62
     7
 10
-963.89407570777314
 20
63.908544280021289
 30
0.0
 11
-955.89407570777325
 21
63.908544280021289
 31
0.0
  0
LINE
  5
C2
  8
1
 62
     7
 10
-955.89407570777325
 20
63.908544280021289
 30
0.0
 11
-955.89407570777325
 21
61.551263562348311
 31
0.0
  0
LINE
  5
C3
  8
1
 62
     7
 10
-963.89407570777314
 20
63.908544280021289
 30
0.0
 11
-963.89407570777314
 21
61.551263562348311
 31
0.0
  0
LINE
  5
C4
  8
1
 62
     7
 10
-966.89407570777325
 20
110.7085442800213
 30
0.0
 11
-966.89407570777325
 21
85.7085442800213
 31
0.0
  0
LINE
  5
C5
  8
1
 62
     7
 10
-964.89407570777325
 20
112.7085442800213
 30
0.0
 11
-954.89407570777325
 21
112.7085442800213
 31
0.0
  0
LINE
  5
C6
  8
1
 62
     7
 10
-949.85579160796635
 20
96.135722229274023
 30
0.0
 11
-944.73981422349846
 21
115.2288097584817
 31
0.0
  0
LINE
  5
C7
  8
1
 62
     7
 10
-943.35053247569158
 20
114.85655283609761
 30
0.0
 11
-942.05643725017899
 21
119.68618196754289
 31
0.0
  0
LINE
  5
C8
  8
1
 62
     7
 10
-943.05869907206852
 20
114.7783563112724
 30
0.0
 11
-941.76460384655593
 21
119.60798544271771
 31
0.0
  0
LINE
  5
C9
  8
1
 62
     7
 10
-943.85806882981979
 20
114.99254679231569
 30
0.0
 11
-942.56397360430731
 21
119.82217592376099
 31
0.0
  0
LINE
  5
CA
  8
1
 62
     7
 10
-944.2006558688563
 20
115.08434271276271
 30
0.0
 11
-942.90656064334382
 21
119.91397184420821
 31
0.0
  0
LINE
  5
CB
  8
1
 62
     7
 10
-940.25791838951716
 20
114.027889389206
 30
0.0
 11
-944.73981422349846
 21
115.2288097584817
 31
0.0
  0
LINE
  5
CC
  8
1
 62
     7
 10
-942.49886630650803
 20
114.62834957384391
 30
0.0
 11
-947.60017106540374
 21
95.590021028752105
 31
0.0
  0
LINE
  5
CD
  8
1
 62
     7
 10
-945.37389577398528
 20
94.934801859998416
 30
0.0
 11
-940.25791838951716
 21
114.027889389206
 31
0.0
  0
LINE
  5
CE
  8
1
 62
     7
 10
-941.10958455870127
 20
114.2560926514597
 30
0.0
 11
-939.81548933318834
 21
119.0857217829051
 31
0.0
  0
LINE
  5
CF
  8
1
 62
     7
 10
-940.81775115507799
 20
114.17789612663459
 30
0.0
 11
-939.52365592956528
 21
119.00752525807999
 31
0.0
  0
LINE
  5
D0
  8
1
 62
     7
 10
-941.61712091282914
 20
114.3920866076779
 30
0.0
 11
-940.32302568731677
 21
119.2217157391232
 31
0.0
  0
LINE
  5
D1
  8
1
 62
     7
 10
-941.95970795186588
 20
114.48388252812499
 30
0.0
 11
-940.66561272635317
 21
119.31351165957039
 31
0.0
  0
LINE
  5
D2
  8
1
 62
     7
 10
-940.08429712249983
 20
119.15774861297029
 30
0.0
 11
-941.37839234801243
 21
114.32811948152489
 31
0.0
  0
LINE
  5
D3
  8
1
 62
     7
 10
-942.32524503949082
 20
119.75820879760821
 30
0.0
 11
-943.6193402650033
 21
114.9285796661628
 31
0.0
  0
LINE
  5
D4
  8
1
  6
DASHDOT
 62
     3
 10
-624.39407570777303
 20
-0.2252877517226993
 30
0.0
 11
-624.39407570777314
 21
8.3678031106292643
 31
0.0
  0
LINE
  5
D5
  8
1
  6
DASHDOT
 62
     3
 10
-624.39407570777303
 20
99.642376311765005
 30
0.0
 11
-624.39407570777303
 21
91.049285449413048
 31
0.0
  0
LINE
  5
D6
  8
1
  6
DASHDOT
 62
     3
 10
-620.57338928437002
 20
106.7085442800213
 30
0.0
 11
-628.21476213117603
 21
106.7085442800213
 31
0.0
  0
LINE
  5
D7
  8
1
  6
DASHDOT
 62
     3
 10
-624.39407570777303
 20
110.5292307034243
 30
0.0
 11
-624.39407570777303
 21
102.8878578566182
 31
0.0
  0
LINE
  5
D8
  8
1
  6
DASHDOT
 62
     3
 10
-620.04438400468587
 20
49.708544280021293
 30
0.0
 11
-628.74376741086019
 21
49.708544280021293
 31
0.0
  0
LINE
  5
D9
  8
1
  6
DASHDOT
 62
     3
 10
-624.39407570777303
 20
54.058235983108347
 30
0.0
 11
-624.39407570777303
 21
45.358852576934247
 31
0.0
  0
LINE
  5
DA
  8
1
 62
     3
 10
-719.39407570777314
 20
49.708544280021293
 30
0.0
 11
-716.39407570777314
 21
49.708544280021293
 31
0.0
  0
LINE
  5
DB
  8
1
 62
     3
 10
-768.39407570777314
 20
49.708544280021307
 30
0.0
 11
-771.39407570777314
 21
49.708544280021307
 31
0.0
  0
LINE
  5
DC
  8
1
 62
     7
 10
-734.1940757077731
 20
72.308544280021309
 30
0.0
 11
-722.39407570777314
 21
72.308544280021309
 31
0.0
  0
LINE
  5
DD
  8
1
 62
     7
 10
-734.1940757077731
 20
68.7085442800213
 30
0.0
 11
-719.39407570777314
 21
68.7085442800213
 31
0.0
  0
LINE
  5
DE
  8
1
 62
     7
 10
-722.39407570777314
 20
70.708544280021314
 30
0.0
 11
-720.89407570777314
 21
70.708544280021314
 31
0.0
  0
LINE
  5
DF
  8
1
 62
     7
 10
-757.73407570777329
 20
96.208544280021314
 30
0.0
 11
-757.73407570777329
 21
116.91847233757611
 31
0.0
  0
LINE
  5
E0
  8
1
 62
     7
 10
-758.90952046521602
 20
121.91847233757611
 30
0.0
 11
-758.90952046521602
 21
116.91847233757611
 31
0.0
  0
LINE
  5
E1
  8
1
 62
     7
 10
-719.39407570777314
 20
27.108544280021299
 30
0.0
 11
-720.89407570777314
 21
27.108544280021299
 31
0.0
  0
LINE
  5
E2
  8
1
 62
     7
 10
-765.39407570777314
 20
33.2085442800213
 30
0.0
 11
-766.89407570777314
 21
33.2085442800213
 31
0.0
  0
LINE
  5
E3
  8
1
 62
     7
 10
-766.89407570777314
 20
32.2085442800213
 30
0.0
 11
-768.39407570777314
 21
32.2085442800213
 31
0.0
  0
LINE
  5
E4
  8
1
 62
     7
 10
-727.39407570777314
 20
36.708544280021322
 30
0.0
 11
-733.39407570777314
 21
36.708544280021322
 31
0.0
  0
LINE
  5
E5
  8
1
 62
     7
 10
-741.89407570777314
 20
36.708544280021322
 30
0.0
 11
-747.89407570777314
 21
36.708544280021322
 31
0.0
  0
LINE
  5
E6
  8
1
 62
     7
 10
-719.39407570777314
 20
37.208544280021322
 30
0.0
 11
-727.39407570777314
 21
37.208544280021322
 31
0.0
  0
LINE
  5
E7
  8
1
 62
     7
 10
-733.39407570777314
 20
37.208544280021322
 30
0.0
 11
-741.89407570777314
 21
37.208544280021322
 31
0.0
  0
LINE
  5
E8
  8
1
 62
     7
 10
-747.89407570777314
 20
37.208544280021322
 30
0.0
 11
-768.39407570777314
 21
37.208544280021322
 31
0.0
  0
LINE
  5
E9
  8
1
 62
     7
 10
-734.19407570777287
 20
7.4585442800213269
 30
0.0
 11
-740.69407570777332
 21
7.4585442800213269
 31
0.0
  0
LINE
  5
EA
  8
1
 62
     7
 10
-740.69407570777332
 20
7.4585442800213269
 30
0.0
 11
-740.69407570777332
 21
11.45854428002132
 31
0.0
  0
LINE
  5
EB
  8
1
 62
     7
 10
-739.19407570777332
 20
11.45854428002132
 30
0.0
 11
-739.19407570777332
 21
24.958544280021311
 31
0.0
  0
LINE
  5
EC
  8
1
 62
     7
 10
-739.19407570777332
 20
24.958544280021311
 30
0.0
 11
-744.89407570777314
 21
24.958544280021322
 31
0.0
  0
LINE
  5
ED
  8
1
 62
     7
 10
-744.89407570777314
 20
24.958544280021322
 30
0.0
 11
-744.89407570777314
 21
29.708544280021322
 31
0.0
  0
LINE
  5
EE
  8
1
 62
     7
 10
-744.89407570777314
 20
29.708544280021322
 30
0.0
 11
-745.39407570777314
 21
29.708544280021322
 31
0.0
  0
LINE
  5
EF
  8
1
 62
     7
 10
-745.39407570777314
 20
31.708544280021311
 30
0.0
 11
-734.1940757077731
 21
31.708544280021311
 31
0.0
  0
LINE
  5
F0
  8
1
 62
     7
 10
-739.19407570777332
 20
11.45854428002132
 30
0.0
 11
-740.69407570777332
 21
11.45854428002132
 31
0.0
  0
LINE
  5
F1
  8
1
 62
     7
 10
-755.39407570777314
 20
32.2085442800213
 30
0.0
 11
-755.39407570777314
 21
22.208544280021322
 31
0.0
  0
LINE
  5
F2
  8
1
 62
     7
 10
-758.89407570777314
 20
24.610468068667981
 30
0.0
 11
-751.89407570777314
 21
24.610468068667981
 31
0.0
  0
LINE
  5
F3
  8
1
 62
     7
 10
-748.89407570777314
 20
24.610468068667981
 30
0.0
 11
-745.39407570777314
 21
24.610468068668009
 31
0.0
  0
LINE
  5
F4
  8
1
 62
     7
 10
-748.89407570777314
 20
29.80662049137462
 30
0.0
 11
-745.39407570777314
 21
29.806620491374598
 31
0.0
  0
LINE
  5
F5
  8
1
 62
     7
 10
-745.39407570777314
 20
32.2085442800213
 30
0.0
 11
-745.39407570777314
 21
22.208544280021322
 31
0.0
  0
LINE
  5
F6
  8
1
 62
     7
 10
-751.89407570777314
 20
29.80662049137462
 30
0.0
 11
-758.89407570777314
 21
29.80662049137462
 31
0.0
  0
LINE
  5
F7
  8
1
 62
     7
 10
-765.39407570777314
 20
29.806620491374598
 30
0.0
 11
-761.89407570777314
 21
29.80662049137462
 31
0.0
  0
LINE
  5
F8
  8
1
 62
     7
 10
-765.39407570777314
 20
24.610468068668009
 30
0.0
 11
-761.89407570777314
 21
24.610468068667981
 31
0.0
  0
LINE
  5
F9
  8
1
 62
     7
 10
-766.89407570777314
 20
33.2085442800213
 30
0.0
 11
-766.89407570777314
 21
29.408544280021321
 31
0.0
  0
LINE
  5
FA
  8
1
 62
     7
 10
-765.39407570777314
 20
29.408544280021321
 30
0.0
 11
-766.89407570777314
 21
29.408544280021321
 31
0.0
  0
LINE
  5
FB
  8
1
 62
     7
 10
-765.39407570777314
 20
33.2085442800213
 30
0.0
 11
-765.39407570777314
 21
20.708544280021311
 31
0.0
  0
LINE
  5
FC
  8
1
 62
     7
 10
-765.39407570777314
 20
32.2085442800213
 30
0.0
 11
-745.39407570777314
 21
32.2085442800213
 31
0.0
  0
LINE
  5
FD
  8
1
 62
     7
 10
-745.39407570777314
 20
24.208544280021311
 30
0.0
 11
-739.69407570777332
 21
24.208544280021311
 31
0.0
  0
LINE
  5
FE
  8
1
 62
     7
 10
-739.69407570777332
 20
24.208544280021311
 30
0.0
 11
-739.69407570777332
 21
19.708544280021311
 31
0.0
  0
LINE
  5
FF
  8
1
 62
     7
 10
-736.19407570777332
 20
6.7085442800213251
 30
0.0
 11
-736.19407570777332
 21
5.7085442800213251
 31
0.0
  0
LINE
  5
100
  8
1
 62
     7
 10
-738.69407570777332
 20
3.2085442800213251
 30
0.0
 11
-768.39407570777314
 21
3.2085442800213251
 31
0.0
  0
LINE
  5
101
  8
1
 62
     7
 10
-768.39407570777314
 20
22.208544280021322
 30
0.0
 11
-766.89407570777314
 21
22.208544280021322
 31
0.0
  0
LINE
  5
102
  8
1
 62
     7
 10
-745.39407570777314
 20
22.208544280021322
 30
0.0
 11
-765.39407570777314
 21
22.208544280021322
 31
0.0
  0
LINE
  5
103
  8
1
 62
     7
 10
-766.89407570777314
 20
25.208544280021311
 30
0.0
 11
-766.89407570777314
 21
20.708544280021311
 31
0.0
  0
LINE
  5
104
  8
1
 62
     7
 10
-765.39407570777314
 20
25.208544280021311
 30
0.0
 11
-766.89407570777314
 21
25.208544280021311
 31
0.0
  0
LINE
  5
105
  8
1
 62
     7
 10
-738.69407570777332
 20
3.2085442800213251
 30
0.0
 11
-736.19407570777332
 21
5.7085442800213251
 31
0.0
  0
LINE
  5
106
  8
1
 62
     7
 10
-741.69407570777332
 20
17.708544280021329
 30
0.0
 11
-739.69407570777332
 21
19.708544280021311
 31
0.0
  0
LINE
  5
107
  8
1
 62
     7
 10
-741.69407570777332
 20
6.7085442800213251
 30
0.0
 11
-741.69407570777332
 21
17.708544280021329
 31
0.0
  0
LINE
  5
108
  8
1
 62
     7
 10
-720.89407570777314
 20
26.408544280021321
 30
0.0
 11
-720.89407570777314
 21
28.708544280021311
 31
0.0
  0
LINE
  5
109
  8
1
 62
     7
 10
-720.89407570777314
 20
26.408544280021321
 30
0.0
 11
-722.39407570777314
 21
26.408544280021321
 31
0.0
  0
LINE
  5
10A
  8
1
 62
     7
 10
-722.39407570777314
 20
24.708544280021322
 30
0.0
 11
-719.89407570777269
 21
24.708544280021322
 31
0.0
  0
LINE
  5
10B
  8
1
 62
     7
 10
-721.39407570777314
 20
6.9585442800213251
 30
0.0
 11
-719.89407570777269
 21
19.17506392198321
 31
0.0
  0
LINE
  5
10C
  8
1
 62
     7
 10
-719.89407570777269
 20
19.17506392198321
 30
0.0
 11
-719.89407570777269
 21
26.183585489227308
 31
0.0
  0
LINE
  5
10D
  8
1
 62
     7
 10
-721.39407570777314
 20
6.9585442800213251
 30
0.0
 11
-724.89407570777314
 21
6.9585442800213251
 31
0.0
  0
LINE
  5
10E
  8
1
 62
     7
 10
-722.39407570777314
 20
30.108544280021309
 30
0.0
 11
-722.39407570777314
 21
24.708544280021322
 31
0.0
  0
LINE
  5
10F
  8
1
 62
     7
 10
-722.39407570777314
 20
30.108544280021309
 30
0.0
 11
-724.89407570777314
 21
30.108544280021309
 31
0.0
  0
LINE
  5
110
  8
1
 62
     7
 10
-724.89407570777314
 20
26.708544280021311
 30
0.0
 11
-722.39407570777314
 21
26.708544280021311
 31
0.0
  0
LINE
  5
111
  8
1
 62
     7
 10
-724.89407570777314
 20
2.2085442800213251
 30
0.0
 11
-724.89407570777314
 21
30.708544280021322
 31
0.0
  0
LINE
  5
112
  8
1
 62
     7
 10
-734.19407570777287
 20
2.2085442800213251
 30
0.0
 11
-734.1940757077731
 21
31.708544280021311
 31
0.0
  0
LINE
  5
113
  8
1
 62
     7
 10
-724.89407570777314
 20
2.2085442800213251
 30
0.0
 11
-734.19407570777287
 21
2.2085442800213251
 31
0.0
  0
LINE
  5
114
  8
1
 62
     3
 10
-734.1940757077731
 20
30.708544280021322
 30
0.0
 11
-724.89407570777314
 21
2.2085442800213251
 31
0.0
  0
LINE
  5
115
  8
1
 62
     3
 10
-734.19407570777287
 20
2.2085442800213251
 30
0.0
 11
-724.89407570777314
 21
30.708544280021322
 31
0.0
  0
LINE
  5
116
  8
1
 62
     7
 10
-741.69407570777332
 20
6.7085442800213251
 30
0.0
 11
-736.19407570777332
 21
6.7085442800213251
 31
0.0
  0
LINE
  5
117
  8
1
 62
     7
 10
-768.39407570777314
 20
29.408544280021321
 30
0.0
 11
-768.39407570777314
 21
3.2085442800213251
 31
0.0
  0
LINE
  5
118
  8
1
 62
     7
 10
-722.39407570777314
 20
27.108544280021299
 30
0.0
 11
-734.1940757077731
 21
27.108544280021299
 31
0.0
  0
LINE
  5
119
  8
1
 62
     7
 10
-719.39407570777314
 20
30.708544280021322
 30
0.0
 11
-734.1940757077731
 21
30.708544280021322
 31
0.0
  0
LINE
  5
11A
  8
1
 62
     7
 10
-720.89407570777314
 20
28.708544280021311
 30
0.0
 11
-722.39407570777314
 21
28.708544280021311
 31
0.0
  0
LINE
  5
11B
  8
1
 62
     7
 10
-766.89407570777314
 20
20.708544280021311
 30
0.0
 11
-765.39407570777314
 21
20.708544280021311
 31
0.0
  0
LINE
  5
11C
  8
1
 62
     7
 10
-856.55407570777345
 20
96.208544280021314
 30
0.0
 11
-856.55407570777345
 21
116.91847233757611
 31
0.0
  0
LINE
  5
11D
  8
1
 62
     3
 10
-867.89407570777314
 20
49.708544280021307
 30
0.0
 11
-864.89407570777314
 21
49.708544280021307
 31
0.0
  0
LINE
  5
11E
  8
1
 62
     3
 10
-812.89407570777325
 20
49.708544280021307
 30
0.0
 11
-815.89407570777314
 21
49.708544280021307
 31
0.0
  0
LINE
  5
11F
  8
1
 62
     7
 10
-815.89407570777314
 20
72.308544280021309
 30
0.0
 11
-815.89407570777314
 21
27.108544280021292
 31
0.0
  0
LINE
  5
120
  8
1
 62
     7
 10
-863.39407570777314
 20
96.208544280021314
 30
0.0
 11
-835.19407570777321
 21
96.208544280021314
 31
0.0
  0
LINE
  5
121
  8
1
 62
     7
 10
-864.89407570777314
 20
94.7085442800213
 30
0.0
 11
-864.89407570777314
 21
4.7085442800212958
 31
0.0
  0
LINE
  5
122
  8
1
 62
     7
 10
-832.69407570777321
 20
93.708544280021314
 30
0.0
 11
-835.19407570777321
 21
96.208544280021314
 31
0.0
  0
LINE
  5
123
  8
1
 62
     7
 10
-863.39407570777314
 20
96.208544280021314
 30
0.0
 11
-864.89407570777314
 21
94.7085442800213
 31
0.0
  0
LINE
  5
124
  8
1
 62
     7
 10
-816.39407570777325
 20
80.242024638059405
 30
0.0
 11
-817.89407570777314
 21
92.458544280021314
 31
0.0
  0
LINE
  5
125
  8
1
 62
     7
 10
-816.39407570777325
 20
80.242024638059405
 30
0.0
 11
-816.39407570777325
 21
19.175063921983192
 31
0.0
  0
LINE
  5
126
  8
1
 62
     7
 10
-821.39407570777314
 20
92.458544280021314
 30
0.0
 11
-817.89407570777314
 21
92.458544280021314
 31
0.0
  0
LINE
  5
127
  8
1
 62
     7
 10
-821.39407570777314
 20
97.2085442800213
 30
0.0
 11
-821.39407570777314
 21
2.2085442800212962
 31
0.0
  0
LINE
  5
128
  8
1
 62
     7
 10
-830.6940757077731
 20
97.2085442800213
 30
0.0
 11
-821.39407570777314
 21
97.2085442800213
 31
0.0
  0
LINE
  5
129
  8
1
 62
     7
 10
-816.39407570777325
 20
72.308544280021309
 30
0.0
 11
-815.89407570777314
 21
72.308544280021309
 31
0.0
  0
LINE
  5
12A
  8
1
 62
     7
 10
-817.89407570777314
 20
92.458544280021314
 30
0.0
 11
-817.89407570777314
 21
6.9585442800212967
 31
0.0
  0
LINE
  5
12B
  8
1
 62
     7
 10
-832.69407570777321
 20
93.708544280021314
 30
0.0
 11
-832.69407570777321
 21
5.7085442800212967
 31
0.0
  0
LINE
  5
12C
  8
1
 62
     7
 10
-832.69407570777321
 20
92.458544280021314
 30
0.0
 11
-830.6940757077731
 21
92.458544280021314
 31
0.0
  0
LINE
  5
12D
  8
1
 62
     7
 10
-835.19407570777321
 20
96.208544280021314
 30
0.0
 11
-835.19407570777321
 21
3.2085442800212962
 31
0.0
  0
LINE
  5
12E
  8
1
 62
     7
 10
-863.39407570777314
 20
96.208544280021314
 30
0.0
 11
-863.39407570777314
 21
3.2085442800212962
 31
0.0
  0
LINE
  5
12F
  8
1
 62
     7
 10
-830.6940757077731
 20
97.2085442800213
 30
0.0
 11
-830.6940757077731
 21
2.2085442800212962
 31
0.0
  0
LINE
  5
130
  8
1
 62
     7
 10
-864.79407570777323
 20
94.808544280021295
 30
0.0
 11
-864.794075707773
 21
112.7085442800213
 31
0.0
  0
LINE
  5
131
  8
1
 62
     7
 10
-855.44911142392812
 20
121.91847233757611
 30
0.0
 11
-855.44911142392812
 21
116.91847233757611
 31
0.0
  0
LINE
  5
132
  8
1
 62
     3
 10
-821.39407570777314
 20
97.2085442800213
 30
0.0
 11
-830.6940757077731
 21
2.2085442800212962
 31
0.0
  0
LINE
  5
133
  8
1
 62
     3
 10
-830.6940757077731
 20
97.2085442800213
 30
0.0
 11
-821.39407570777314
 21
2.2085442800212962
 31
0.0
  0
LINE
  5
134
  8
1
 62
     7
 10
-998.30174613765735
 20
77.656725833557502
 30
0.0
 11
-997.43077761989366
 21
77.153871925371192
 31
0.0
  0
LINE
  5
135
  8
1
 62
     7
 10
-1003.301746137656
 20
68.99647179571312
 30
0.0
 11
-1002.430777619893
 21
68.493617887526796
 31
0.0
  0
LINE
  5
136
  8
1
 62
     7
 10
-1003.301746137656
 20
30.420616764329498
 30
0.0
 11
-1002.430777619893
 21
30.923470672515869
 31
0.0
  0
LINE
  5
137
  8
1
 62
     7
 10
-998.30174613765735
 20
21.76036272648512
 30
0.0
 11
-997.43077761989389
 21
22.263216634671469
 31
0.0
  0
LINE
  5
138
  8
1
 62
     7
 10
-964.89407570777325
 20
2.4724352107933161
 30
0.0
 11
-964.89407570777348
 21
3.478143027165943
 31
0.0
  0
LINE
  5
139
  8
1
 62
     7
 10
-954.89407570777348
 20
2.4724352107933121
 30
0.0
 11
-954.89407570777348
 21
3.478143027165939
 31
0.0
  0
LINE
  5
13A
  8
1
 62
     7
 10
-921.48640527788939
 20
21.760362726485091
 30
0.0
 11
-922.35737379565217
 21
22.263216634671231
 31
0.0
  0
LINE
  5
13B
  8
1
 62
     7
 10
-916.4864052778895
 20
30.42061676432948
 30
0.0
 11
-917.35737379565228
 21
30.92347067251562
 31
0.0
  0
LINE
  5
13C
  8
1
 62
     7
 10
-916.4864052778895
 20
68.996471795713092
 30
0.0
 11
-917.35737379565228
 21
68.493617887526639
 31
0.0
  0
LINE
  5
13D
  8
1
 62
     7
 10
-921.48640527788939
 20
77.656725833557473
 30
0.0
 11
-922.35737379565217
 21
77.153871925371021
 31
0.0
  0
LINE
  5
13E
  8
1
 62
     7
 10
-952.89407570777325
 20
85.7085442800213
 30
0.0
 11
-952.89407570777325
 21
110.7085442800213
 31
0.0
  0
LINE
  5
13F
  8
1
  6
DASHDOT
 62
     3
 10
-956.24184723615849
 20
106.7085442800213
 30
0.0
 11
-963.54630417938802
 21
106.7085442800213
 31
0.0
  0
LINE
  5
140
  8
1
  6
DASHDOT
 62
     3
 10
-959.89407570777325
 20
110.36077275163601
 30
0.0
 11
-959.89407570777325
 21
103.0563158084065
 31
0.0
  0
LINE
  5
141
  8
1
  6
DASHDOT
 62
     3
 10
-955.54438400468598
 20
49.708544280021293
 30
0.0
 11
-964.24376741086019
 21
49.708544280021293
 31
0.0
  0
LINE
  5
142
  8
1
  6
DASHDOT
 62
     3
 10
-959.89407570777325
 20
54.058235983108347
 30
0.0
 11
-959.89407570777325
 21
45.358852576934247
 31
0.0
  0
ARC
  5
143
  8
1
 62
     7
 10
-629.39407570777303
 20
110.7085442800213
 30
0.0
 40
2.0
 50
90.0
 51
180.0
  0
ARC
  5
144
  8
1
 62
     7
 10
-619.39407570777303
 20
110.7085442800213
 30
0.0
 40
2.0
 50
0.0
 51
90.0
  0
ARC
  5
145
  8
1
 62
     7
 10
-964.89407570777325
 20
110.7085442800213
 30
0.0
 40
2.0
 50
90.0
 51
180.0
  0
ARC
  5
146
  8
1
 62
     7
 10
-954.89407570777325
 20
110.7085442800213
 30
0.0
 40
2.0
 50
0.0
 51
90.0
  0
ARC
  5
147
  8
1
 62
     7
 10
-624.39407570777303
 20
49.708544280021293
 30
0.0
 40
12.5
 50
108.6629248849424
 51
71.337075115057516
  0
ARC
  5
148
  8
1
 62
     7
 10
-624.39407570777303
 20
49.708544280021293
 30
0.0
 40
47.49999999999995
 50
36.042328419054137
 51
83.957671580945899
  0
ARC
  5
149
  8
1
 62
     7
 10
-624.39407570777303
 20
49.708544280021293
 30
0.0
 40
47.5
 50
96.042328419054087
 51
143.957671580946
  0
ARC
  5
14A
  8
1
 62
     7
 10
-624.39407570777303
 20
49.708544280021293
 30
0.0
 40
47.500000000000149
 50
156.042328419054
 51
203.9576715809458
  0
ARC
  5
14B
  8
1
 62
     7
 10
-624.39407570777303
 20
49.708544280021293
 30
0.0
 40
47.500000000000142
 50
216.04232841905389
 51
263.95767158094583
  0
ARC
  5
14C
  8
1
 62
     7
 10
-624.39407570777303
 20
49.708544280021293
 30
0.0
 40
47.5
 50
276.042328419054
 51
323.95767158094583
  0
ARC
  5
14D
  8
1
 62
     7
 10
-624.39407570777303
 20
49.708544280021293
 30
0.0
 40
47.49999999999995
 50
336.04232841905389
 51
23.957671580945931
  0
ARC
  5
14E
  8
1
 62
     7
 10
-624.39407570777303
 20
49.708544280021293
 30
0.0
 40
46.5
 50
83.827229332888933
 51
96.172770667111095
  0
ARC
  5
14F
  8
1
 62
     7
 10
-624.39407570777303
 20
49.708544280021293
 30
0.0
 40
46.500000000000078
 50
143.82722933288889
 51
156.172770667111
  0
ARC
  5
150
  8
1
 62
     7
 10
-624.39407570777303
 20
49.708544280021293
 30
0.0
 40
46.500000000000028
 50
203.82722933288881
 51
216.172770667111
  0
ARC
  5
151
  8
1
 62
     7
 10
-624.39407570777303
 20
49.708544280021293
 30
0.0
 40
46.500000000000007
 50
263.82722933288892
 51
276.17277066711091
  0
ARC
  5
152
  8
1
 62
     7
 10
-624.39407570777303
 20
49.708544280021293
 30
0.0
 40
46.499999999999972
 50
323.82722933288881
 51
336.17277066711102
  0
ARC
  5
153
  8
1
 62
     7
 10
-624.39407570777303
 20
49.708544280021293
 30
0.0
 40
46.500000000000028
 50
23.82722933288888
 51
36.172770667111031
  0
ARC
  5
154
  8
1
 62
     7
 10
-959.89407570777325
 20
49.708544280021293
 30
0.0
 40
12.5
 50
108.6629248849424
 51
71.337075115057516
  0
ARC
  5
155
  8
1
 62
     7
 10
-959.89407570777325
 20
49.708544280021293
 30
0.0
 40
47.50000000000005
 50
98.474453363008934
 51
143.957671580946
  0
ARC
  5
156
  8
1
 62
     7
 10
-959.89407570777325
 20
49.708544280021293
 30
0.0
 40
47.49999999999995
 50
156.042328419054
 51
203.95767158094591
  0
ARC
  5
157
  8
1
 62
     7
 10
-959.89407570777325
 20
49.708544280021293
 30
0.0
 40
47.500000000000142
 50
216.04232841905389
 51
263.95767158094583
  0
ARC
  5
158
  8
1
 62
     7
 10
-959.89407570777325
 20
49.708544280021293
 30
0.0
 40
47.5
 50
276.04232841905372
 51
323.95767158094571
  0
ARC
  5
159
  8
1
 62
     7
 10
-959.89407570777325
 20
49.708544280021293
 30
0.0
 40
47.499999999999751
 50
336.04232841905389
 51
23.957671580946041
  0
ARC
  5
15A
  8
1
 62
     7
 10
-959.89407570777325
 20
85.7085442800213
 30
0.0
 40
7.0
 50
180.0
 51
0.0
  0
ARC
  5
15B
  8
1
 62
     7
 10
-959.89407570777325
 20
49.708544280021293
 30
0.0
 40
46.500000000000213
 50
98.658084534978357
 51
81.341915465021657
  0
ARC
  5
15C
  8
1
 62
     7
 10
-959.89407570777325
 20
49.708544280021293
 30
0.0
 40
47.499999999999758
 50
36.042328419054307
 51
81.52554663699101
  0
ARC
  5
15D
  8
1
 62
     7
 10
-959.89407570777325
 20
49.708544280021293
 30
0.0
 40
45.100000000000001
 50
98.929013057291243
 51
81.070986942708771
  0
CIRCLE
  5
15E
  8
1
 62
     7
 10
-750.39407570777314
 20
72.208544280021314
 30
0.0
 40
3.0
  0
CIRCLE
  5
15F
  8
1
 62
     7
 10
-760.39407570777314
 20
72.208544280021314
 30
0.0
 40
3.0
  0
CIRCLE
  5
160
  8
1
 62
     7
 10
-624.39407570777303
 20
49.708544280021293
 30
0.0
 40
19.0
  0
CIRCLE
  5
161
  8
1
 62
     7
 10
-624.39407570777303
 20
49.708544280021293
 30
0.0
 40
22.600000000000019
  0
CIRCLE
  5
162
  8
1
 62
     7
 10
-624.39407570777303
 20
49.708544280021293
 30
0.0
 40
25.0
  0
CIRCLE
  5
163
  8
1
 62
     7
 10
-624.39407570777303
 20
49.708544280021293
 30
0.0
 40
30.533480358038108
  0
CIRCLE
  5
164
  8
1
 62
     7
 10
-624.39407570777303
 20
49.708544280021293
 30
0.0
 40
42.75
  0
CIRCLE
  5
165
  8
1
 62
     7
 10
-624.39407570777303
 20
106.7085442800213
 30
0.0
 40
2.75
  0
CIRCLE
  5
166
  8
1
 62
     7
 10
-959.89407570777325
 20
106.7085442800213
 30
0.0
 40
2.75
  0
CIRCLE
  5
167
  8
1
 62
     7
 10
-750.39407570777314
 20
27.208544280021311
 30
0.0
 40
3.0
  0
CIRCLE
  5
168
  8
1
 62
     7
 10
-760.39407570777314
 20
27.208544280021311
 30
0.0
 40
3.0
  0
CIRCLE
  5
169
  8
1
 62
     7
 10
-959.89407570777325
 20
49.708544280021293
 30
0.0
 40
17.5
  0
CIRCLE
  5
16A
  8
1
 62
     7
 10
-959.89407570777325
 20
49.708544280021293
 30
0.0
 40
27.5
  0
TEXT
  5
16C
  8
1
 62
     7
 10
-1004.531738429667
 20
156.47224318050101
 30
0.0
 40
5.0
  1
MDC 2.5
 41
0.9
  7
SIMPLEX
  0
ENDSEC
  0
EOF
