  0
SECTION
  2
HEADER
  9
$ACADVER
  1
AC1009
  9
$INSBASE
 10
0.0
 20
0.0
 30
0.0
  9
$EXTMIN
 10
-1855.232662721892
 20
-717.1582720760855
 30
0.0
  9
$EXTMAX
 10
-210.23266272189309
 20
-148.73320602912679
 30
0.0
  9
$LIMMIN
 10
-1855.232662721892
 20
-715.24946455818269
  9
$LIMMAX
 10
-210.23266272189281
 20
-148.7332060291269
  9
$ORTHOMODE
 70
     0
  9
$REGENMODE
 70
     1
  9
$FILLMODE
 70
     1
  9
$QTEXTMODE
 70
     0
  9
$MIRRTEXT
 70
     1
  9
$DRAGMODE
 70
     2
  9
$LTSCALE
 40
1.0
  9
$OSMODE
 70
    37
  9
$ATTMODE
 70
     1
  9
$TEXTSIZE
 40
3.5
  9
$TRACEWID
 40
0.5
  9
$TEXTSTYLE
  7
STANDARD
  9
$CLAYER
  8
0
  9
$CELTYPE
  6
BYLAYER
  9
$CECOLOR
 62
   256
  9
$DIMSCALE
 40
1.0
  9
$DIMASZ
 40
0.18
  9
$DIMEXO
 40
0.0625
  9
$DIMDLI
 40
0.38
  9
$DIMRND
 40
0.0
  9
$DIMDLE
 40
0.0
  9
$DIMEXE
 40
0.18
  9
$DIMTP
 40
0.0
  9
$DIMTM
 40
0.0
  9
$DIMTXT
 40
0.18
  9
$DIMCEN
 40
0.09
  9
$DIMTSZ
 40
0.0
  9
$DIMTOL
 70
     0
  9
$DIMLIM
 70
     0
  9
$DIMTIH
 70
     1
  9
$DIMTOH
 70
     1
  9
$DIMSE1
 70
     0
  9
$DIMSE2
 70
     0
  9
$DIMTAD
 70
     0
  9
$DIMZIN
 70
     0
  9
$DIMBLK
  1

  9
$DIMASO
 70
     1
  9
$DIMSHO
 70
     1
  9
$DIMPOST
  1

  9
$DIMAPOST
  1

  9
$DIMALT
 70
     0
  9
$DIMALTD
 70
     2
  9
$DIMALTF
 40
25.399999999999999
  9
$DIMLFAC
 40
1.0
  9
$DIMTOFL
 70
     0
  9
$DIMTVP
 40
0.0
  9
$DIMTIX
 70
     0
  9
$DIMSOXD
 70
     0
  9
$DIMSAH
 70
     0
  9
$DIMBLK1
  1

  9
$DIMBLK2
  1

  9
$DIMSTYLE
  2
STANDARD
  9
$DIMCLRD
 70
     0
  9
$DIMCLRE
 70
     0
  9
$DIMCLRT
 70
     0
  9
$DIMTFAC
 40
1.0
  9
$DIMGAP
 40
0.09
  9
$LUNITS
 70
     2
  9
$LUPREC
 70
     4
  9
$SKETCHINC
 40
0.1
  9
$FILLETRAD
 40
2.0
  9
$AUNITS
 70
     0
  9
$AUPREC
 70
     0
  9
$MENU
  1
ACAD
  9
$ELEVATION
 40
0.0
  9
$PELEVATION
 40
0.0
  9
$THICKNESS
 40
0.0
  9
$LIMCHECK
 70
     0
  9
$BLIPMODE
 70
     0
  9
$CHAMFERA
 40
0.0
  9
$CHAMFERB
 40
0.0
  9
$SKPOLY
 70
     0
  9
$TDCREATE
 40
2452098.682263541
  9
$TDUPDATE
 40
2452098.6835496528
  9
$TDINDWG
 40
0.001287963
  9
$TDUSRTIMER
 40
0.001287963
  9
$USRTIMER
 70
     1
  9
$ANGBASE
 50
0.0
  9
$ANGDIR
 70
     0
  9
$PDMODE
 70
     0
  9
$PDSIZE
 40
0.0
  9
$PLINEWID
 40
0.0
  9
$COORDS
 70
     1
  9
$SPLFRAME
 70
     0
  9
$SPLINETYPE
 70
     6
  9
$SPLINESEGS
 70
     8
  9
$ATTDIA
 70
     0
  9
$ATTREQ
 70
     1
  9
$HANDLING
 70
 10241
  9
$HANDSEED
  5
1A4
  9
$SURFTAB1
 70
     6
  9
$SURFTAB2
 70
     6
  9
$SURFTYPE
 70
     6
  9
$SURFU
 70
     6
  9
$SURFV
 70
     6
  9
$UCSNAME
  2

  9
$UCSORG
 10
0.0
 20
0.0
 30
0.0
  9
$UCSXDIR
 10
1.0
 20
0.0
 30
0.0
  9
$UCSYDIR
 10
0.0
 20
1.0
 30
0.0
  9
$PUCSNAME
  2

  9
$PUCSORG
 10
0.0
 20
0.0
 30
0.0
  9
$PUCSXDIR
 10
1.0
 20
0.0
 30
0.0
  9
$PUCSYDIR
 10
0.0
 20
1.0
 30
0.0
  9
$USERI1
 70
     0
  9
$USERI2
 70
     0
  9
$USERI3
 70
     0
  9
$USERI4
 70
     0
  9
$USERI5
 70
     0
  9
$USERR1
 40
0.0
  9
$USERR2
 40
0.0
  9
$USERR3
 40
0.0
  9
$USERR4
 40
0.0
  9
$USERR5
 40
0.0
  9
$WORLDVIEW
 70
     1
  9
$SHADEDGE
 70
     3
  9
$SHADEDIF
 70
    70
  9
$TILEMODE
 70
     1
  9
$MAXACTVP
 70
    64
  9
$PLIMCHECK
 70
     0
  9
$PEXTMIN
 10
1.0000000000000000E+020
 20
1.0000000000000000E+020
 30
1.0000000000000000E+020
  9
$PEXTMAX
 10
-1.0000000000000000E+020
 20
-1.0000000000000000E+020
 30
-1.0000000000000000E+020
  9
$PLIMMIN
 10
0.0
 20
0.0
  9
$PLIMMAX
 10
12.0
 20
9.0
  9
$UNITMODE
 70
     0
  9
$VISRETAIN
 70
     1
  9
$PLINEGEN
 70
     0
  9
$PSLTSCALE
 70
     1
  0
ENDSEC
  0
SECTION
  2
TABLES
  0
TABLE
  2
VPORT
 70
     2
  0
VPORT
  2
*ACTIVE
 70
     0
 10
0.0
 20
0.0
 11
1.0
 21
1.0
 12
-1048.462900308637
 22
-189.1965454612334
 13
0.0
 23
0.0
 14
1.0
 24
1.0
 15
0.0
 25
0.0
 16
0.0
 26
0.0
 36
1.0
 17
0.0
 27
0.0
 37
0.0
 40
9.0000016562103156
 41
1.853118712273641
 42
50.0
 43
0.0
 44
0.0
 50
0.0
 51
0.0
 71
     0
 72
   100
 73
     1
 74
     1
 75
     0
 76
     0
 77
     0
 78
     0
  0
ENDTAB
  0
TABLE
  2
LTYPE
 70
     9
  0
LTYPE
  2
CONTINUOUS
 70
     0
  3
Solid line
 72
    65
 73
     0
 40
0.0
  0
LTYPE
  2
BORDER
 70
     0
  3
__ __ . __ __ .
 72
    65
 73
     6
 40
75.756578947368439
 49
21.64473684210526
 49
-10.82236842105263
 49
21.64473684210526
 49
-10.82236842105263
 49
0.0
 49
-10.82236842105263
  0
LTYPE
  2
CENTER
 70
     0
  3
____ _ ____ _
 72
    65
 73
     4
 40
86.578947368421055
 49
54.11184210526315
 49
-10.82236842105263
 49
10.82236842105263
 49
-10.82236842105263
  0
LTYPE
  2
DASHDOT
 70
     0
  3
__ . __ . __ .
 72
    65
 73
     4
 40
43.289473684210527
 49
21.64473684210526
 49
-10.82236842105263
 49
0.0
 49
-10.82236842105263
  0
LTYPE
  2
DASHED
 70
     0
  3
__ __ __ __ __
 72
    65
 73
     2
 40
32.46710526315789
 49
21.64473684210526
 49
-10.82236842105263
  0
LTYPE
  2
DIVIDE
 70
     0
  3
__ . . __ . . 
 72
    65
 73
     6
 40
54.11184210526315
 49
21.64473684210526
 49
-10.82236842105263
 49
0.0
 49
-10.82236842105263
 49
0.0
 49
-10.82236842105263
  0
LTYPE
  2
DOT
 70
     0
  3
..............
 72
    65
 73
     4
 40
21.64473684210526
 49
0.0
 49
-10.82236842105263
 49
0.0
 49
-10.82236842105263
  0
LTYPE
  2
HIDDEN
 70
     0
  3
_ _ _ _ _ _ _
 72
    65
 73
     2
 40
16.233552631578942
 49
10.82236842105263
 49
-5.411184210526315
  0
LTYPE
  2
PHANTOM
 70
     0
  3
_____ _ _ _____ _ _ 
 72
    65
 73
     6
 40
108.2236842105263
 49
54.11184210526315
 49
-10.82236842105263
 49
10.82236842105263
 49
-10.82236842105263
 49
10.82236842105263
 49
-10.82236842105263
  0
ENDTAB
  0
TABLE
  2
LAYER
 70
     2
  0
LAYER
  2
0
 70
     0
 62
     7
  6
CONTINUOUS
  0
LAYER
  2
1
 70
     0
 62
     7
  6
CONTINUOUS
  0
ENDTAB
  0
TABLE
  2
STYLE
 70
     4
  0
STYLE
  2
STANDARD
 70
     0
 40
0.0
 41
1.0
 50
0.0
 71
     0
 42
3.5
  3
txt
  4

  0
STYLE
  2
SIMPLEX
 70
     0
 40
0.0
 41
1.0
 50
0.0
 71
     0
 42
3.5
  3
simplex
  4

  0
STYLE
  2
COMPLEX
 70
     0
 40
0.0
 41
1.0
 50
0.0
 71
     0
 42
3.5
  3
complex
  4

  0
STYLE
  2
ITALIC
 70
     0
 40
0.0
 41
1.0
 50
0.0
 71
     0
 42
3.5
  3
italic
  4

  0
ENDTAB
  0
TABLE
  2
VIEW
 70
     0
  0
ENDTAB
  0
TABLE
  2
UCS
 70
     0
  0
ENDTAB
  0
TABLE
  2
APPID
 70
     1
  0
APPID
  2
ACAD
 70
     0
  0
ENDTAB
  0
TABLE
  2
DIMSTYLE
 70
     1
  0
DIMSTYLE
  2
STANDARD
 70
     0
  3

  4

  5

  6

  7

 40
1.0
 41
0.18
 42
0.0625
 43
0.38
 44
0.18
 45
0.0
 46
0.0
 47
0.0
 48
0.0
140
0.18
141
0.09
142
0.0
143
25.399999999999999
144
1.0
145
0.0
146
1.0
147
0.09
 71
     0
 72
     0
 73
     1
 74
     1
 75
     0
 76
     0
 77
     0
 78
     0
170
     0
171
     2
172
     0
173
     0
174
     0
175
     0
176
     0
177
     0
178
     0
  0
ENDTAB
  0
ENDSEC
  0
SECTION
  2
BLOCKS
  0
BLOCK
  8
0
  2
$MODEL_SPACE
 70
     0
 10
0.0
 20
0.0
 30
0.0
  3
$MODEL_SPACE
  1

  0
ENDBLK
  5
20
  8
0
  0
BLOCK
 67
     1
  8
0
  2
$PAPER_SPACE
 70
     0
 10
0.0
 20
0.0
 30
0.0
  3
$PAPER_SPACE
  1

  0
ENDBLK
  5
1C
 67
     1
  8
0
  0
ENDSEC
  0
SECTION
  2
ENTITIES
  0
LINE
  5
33
  8
1
 62
     7
 10
-745.03266272189285
 20
-442.60073382486871
 30
0.0
 11
-735.23266272189278
 21
-442.60073382486871
 31
0.0
  0
LINE
  5
34
  8
1
  6
DASHDOT
 62
     3
 10
-945.23266272189255
 20
-530.80073382486864
 30
0.0
 11
-955.23266272189255
 21
-530.80073382486864
 31
0.0
  0
LINE
  5
35
  8
1
  6
DASHDOT
 62
     3
 10
-735.23266272189267
 20
-530.80073382486864
 30
0.0
 11
-725.23266272189255
 21
-530.80073382486864
 31
0.0
  0
LINE
  5
36
  8
1
 62
     7
 10
-885.23266272189267
 20
-418.3007338248687
 30
0.0
 11
-885.23266272189267
 21
-455.8007338248687
 31
0.0
  0
LINE
  5
37
  8
1
 62
     7
 10
-920.23266272189255
 20
-412.8007338248687
 30
0.0
 11
-920.23266272189255
 21
-458.30073382486881
 31
0.0
  0
LINE
  5
38
  8
1
 62
     7
 10
-749.03266272189285
 20
-443.3007338248687
 30
0.0
 11
-745.03266272189285
 21
-443.3007338248687
 31
0.0
  0
LINE
  5
39
  8
1
 62
     7
 10
-824.23266272189255
 20
-398.8007338248687
 30
0.0
 11
-823.23266272189255
 21
-398.8007338248687
 31
0.0
  0
LINE
  5
3A
  8
1
 62
     7
 10
-806.23266272189255
 20
-371.00073382486897
 30
0.0
 11
-824.23266272189255
 21
-371.00073382486897
 31
0.0
  0
LINE
  5
3B
  8
1
  6
DASHDOT
 62
     3
 10
-385.23266272189318
 20
-672.57719152860182
 30
0.0
 11
-385.23266272189301
 21
-715.24946455818269
 31
0.0
  0
LINE
  5
3C
  8
1
 62
     7
 10
-920.23266272189255
 20
-395.8007338248687
 30
0.0
 11
-920.23266272189255
 21
-300.80073382486881
 31
0.0
  0
LINE
  5
3D
  8
1
 62
     7
 10
-932.23266272189255
 20
-455.8007338248687
 30
0.0
 11
-932.23266272189255
 21
-396.8007338248687
 31
0.0
  0
LINE
  5
3E
  8
1
 62
     7
 10
-931.23266272189255
 20
-395.8007338248687
 30
0.0
 11
-920.23266272189255
 21
-395.8007338248687
 31
0.0
  0
LINE
  5
3F
  8
1
 62
     7
 10
-932.03266272189273
 20
-393.8007338248687
 30
0.0
 11
-932.03266272189273
 21
-300.80073382486881
 31
0.0
  0
LINE
  5
40
  8
1
 62
     7
 10
-935.23266272189267
 20
-393.8007338248687
 30
0.0
 11
-935.23266272189267
 21
-300.80073382486881
 31
0.0
  0
LINE
  5
41
  8
1
 62
     7
 10
-935.23266272189267
 20
-393.8007338248687
 30
0.0
 11
-920.23266272189255
 21
-393.8007338248687
 31
0.0
  0
LINE
  5
42
  8
1
 62
     7
 10
-935.23266272189267
 20
-300.80073382486881
 30
0.0
 11
-927.6206627218927
 21
-300.80073382486881
 31
0.0
  0
LINE
  5
43
  8
1
 62
     7
 10
-824.23266272189255
 20
-398.8007338248687
 30
0.0
 11
-824.23266272189255
 21
-371.00073382486897
 31
0.0
  0
LINE
  5
44
  8
1
 62
     7
 10
-768.23266272189267
 20
-475.8007338248687
 30
0.0
 11
-735.23266272189267
 21
-475.8007338248687
 31
0.0
  0
LINE
  5
45
  8
1
 62
     7
 10
-945.23266272189255
 20
-466.8007338248687
 30
0.0
 11
-735.23266272189267
 21
-466.8007338248687
 31
0.0
  0
LINE
  5
46
  8
1
 62
     7
 10
-945.23266272189255
 20
-475.8007338248687
 30
0.0
 11
-858.23266272189267
 21
-475.8007338248687
 31
0.0
  0
LINE
  5
47
  8
1
 62
     7
 10
-838.23266272189255
 20
-586.30073382486864
 30
0.0
 11
-838.23266272189255
 21
-475.3007338248687
 31
0.0
  0
LINE
  5
48
  8
1
 62
     7
 10
-858.23266272189267
 20
-586.30073382486864
 30
0.0
 11
-858.23266272189267
 21
-475.3007338248687
 31
0.0
  0
LINE
  5
49
  8
1
 62
     7
 10
-838.23266272189255
 20
-475.3007338248687
 30
0.0
 11
-858.23266272189267
 21
-475.3007338248687
 31
0.0
  0
LINE
  5
4A
  8
1
 62
     7
 10
-850.23266272189267
 20
-444.8007338248687
 30
0.0
 11
-848.23266272189255
 21
-444.8007338248687
 31
0.0
  0
LINE
  5
4B
  8
1
 62
     7
 10
-848.23266272189255
 20
-444.8007338248687
 30
0.0
 11
-848.23266272189255
 21
-427.8007338248687
 31
0.0
  0
LINE
  5
4C
  8
1
 62
     7
 10
-820.23266272189255
 20
-427.8007338248687
 30
0.0
 11
-820.23266272189255
 21
-387.8007338248687
 31
0.0
  0
LINE
  5
4D
  8
1
 62
     7
 10
-848.23266272189255
 20
-427.8007338248687
 30
0.0
 11
-820.23266272189255
 21
-427.8007338248687
 31
0.0
  0
LINE
  5
4E
  8
1
 62
     7
 10
-820.23266272189255
 20
-387.8007338248687
 30
0.0
 11
-822.23266272189255
 21
-387.8007338248687
 31
0.0
  0
LINE
  5
4F
  8
1
 62
     7
 10
-822.23266272189255
 20
-387.8007338248687
 30
0.0
 11
-822.23266272189255
 21
-371.8007338248687
 31
0.0
  0
LINE
  5
50
  8
1
 62
     7
 10
-822.23266272189255
 20
-371.8007338248687
 30
0.0
 11
-796.13266272189276
 21
-371.8007338248687
 31
0.0
  0
LINE
  5
51
  8
1
 62
     7
 10
-796.13266272189276
 20
-428.3007338248687
 30
0.0
 11
-796.23266272189255
 21
-428.3007338248687
 31
0.0
  0
LINE
  5
52
  8
1
 62
     7
 10
-796.23266272189255
 20
-451.8007338248687
 30
0.0
 11
-796.23266272189255
 21
-428.3007338248687
 31
0.0
  0
LINE
  5
53
  8
1
 62
     7
 10
-932.23266272189255
 20
-418.3007338248687
 30
0.0
 11
-925.23266272189267
 21
-418.3007338248687
 31
0.0
  0
LINE
  5
54
  8
1
 62
     7
 10
-920.23266272189255
 20
-426.8007338248687
 30
0.0
 11
-925.23266272189267
 21
-426.8007338248687
 31
0.0
  0
LINE
  5
55
  8
1
 62
     7
 10
-925.23266272189267
 20
-441.04034649275872
 30
0.0
 11
-925.23266272189267
 21
-412.8007338248687
 31
0.0
  0
LINE
  5
56
  8
1
 62
     7
 10
-920.23266272189255
 20
-412.8007338248687
 30
0.0
 11
-925.23266272189267
 21
-412.8007338248687
 31
0.0
  0
LINE
  5
57
  8
1
 62
     7
 10
-924.23266272189267
 20
-446.70073382486879
 30
0.0
 11
-924.23266272189267
 21
-458.30073382486881
 31
0.0
  0
LINE
  5
58
  8
1
 62
     7
 10
-924.23266272189267
 20
-458.30073382486881
 30
0.0
 11
-920.23266272189255
 21
-458.30073382486881
 31
0.0
  0
LINE
  5
59
  8
1
 62
     7
 10
-920.23266272189255
 20
-446.70073382486879
 30
0.0
 11
-924.23266272189267
 21
-446.70073382486879
 31
0.0
  0
LINE
  5
5A
  8
1
 62
     7
 10
-920.23266272189255
 20
-427.4882338248687
 30
0.0
 11
-908.65896795787216
 21
-427.4882338248687
 31
0.0
  0
LINE
  5
5B
  8
1
 62
     7
 10
-920.23266272189255
 20
-446.6132338248687
 30
0.0
 11
-908.65896795787216
 21
-446.6132338248687
 31
0.0
  0
LINE
  5
5C
  8
1
 62
     7
 10
-896.80635748591328
 20
-427.4882338248687
 30
0.0
 11
-873.65896795787262
 21
-427.4882338248687
 31
0.0
  0
LINE
  5
5D
  8
1
 62
     7
 10
-850.23266272189267
 20
-427.4882338248687
 30
0.0
 11
-861.80635748591328
 21
-427.4882338248687
 31
0.0
  0
LINE
  5
5E
  8
1
 62
     7
 10
-896.80635748591328
 20
-446.6132338248687
 30
0.0
 11
-873.65896795787262
 21
-446.6132338248687
 31
0.0
  0
LINE
  5
5F
  8
1
 62
     7
 10
-850.23266272189267
 20
-446.6132338248687
 30
0.0
 11
-861.80635748591328
 21
-446.6132338248687
 31
0.0
  0
LINE
  5
60
  8
1
 62
     7
 10
-845.23266272189255
 20
-455.8007338248687
 30
0.0
 11
-920.23266272189255
 21
-455.8007338248687
 31
0.0
  0
LINE
  5
61
  8
1
 62
     7
 10
-920.23266272189255
 20
-418.3007338248687
 30
0.0
 11
-850.23266272189267
 21
-418.3007338248687
 31
0.0
  0
LINE
  5
62
  8
1
 62
     7
 10
-850.23266272189267
 20
-418.3007338248687
 30
0.0
 11
-850.23266272189267
 21
-455.8007338248687
 31
0.0
  0
LINE
  5
63
  8
1
 62
     7
 10
-806.23266272189255
 20
-365.8007338248687
 30
0.0
 11
-816.23266272189267
 21
-355.8007338248687
 31
0.0
  0
LINE
  5
64
  8
1
 62
     7
 10
-920.23266272189255
 20
-356.80073382486898
 30
0.0
 11
-919.23266272189267
 21
-355.8007338248687
 31
0.0
  0
LINE
  5
65
  8
1
 62
     7
 10
-850.23266272189267
 20
-427.00073382486897
 30
0.0
 11
-823.23266272189255
 21
-427.00073382486897
 31
0.0
  0
LINE
  5
66
  8
1
 62
     7
 10
-823.23266272189255
 20
-427.00073382486897
 30
0.0
 11
-823.23266272189255
 21
-398.8007338248687
 31
0.0
  0
LINE
  5
67
  8
1
 62
     7
 10
-806.23266272189255
 20
-371.00073382486897
 30
0.0
 11
-806.23266272189255
 21
-365.8007338248687
 31
0.0
  0
LINE
  5
68
  8
1
 62
     7
 10
-850.23266272189267
 20
-451.8007338248687
 30
0.0
 11
-796.23266272189255
 21
-451.8007338248687
 31
0.0
  0
LINE
  5
69
  8
1
 62
     7
 10
-845.23266272189255
 20
-455.8007338248687
 30
0.0
 11
-845.23266272189255
 21
-451.8007338248687
 31
0.0
  0
LINE
  5
6A
  8
1
 62
     7
 10
-945.23266272189255
 20
-605.80073382486864
 30
0.0
 11
-945.23266272189255
 21
-455.80073382486859
 31
0.0
  0
LINE
  5
6B
  8
1
 62
     7
 10
-758.43266272189271
 20
-442.60073382486871
 30
0.0
 11
-758.43266272189271
 21
-355.8007338248687
 31
0.0
  0
LINE
  5
6C
  8
1
  6
DASHDOT
 62
     3
 10
-744.13266272189264
 20
-439.8007338248687
 30
0.0
 11
-800.49370641290477
 21
-439.8007338248687
 31
0.0
  0
LINE
  5
6D
  8
1
 62
     7
 10
-796.13266272189276
 20
-355.8007338248687
 30
0.0
 11
-758.43266272189271
 21
-355.8007338248687
 31
0.0
  0
LINE
  5
6E
  8
1
 62
     7
 10
-796.13266272189276
 20
-442.60073382486871
 30
0.0
 11
-796.13266272189276
 21
-355.8007338248687
 31
0.0
  0
LINE
  5
6F
  8
1
 62
     7
 10
-746.43266272189271
 20
-371.8007338248687
 30
0.0
 11
-758.43266272189271
 21
-371.8007338248687
 31
0.0
  0
LINE
  5
70
  8
1
 62
     7
 10
-742.43266272189271
 20
-426.8007338248687
 30
0.0
 11
-736.43266272189271
 21
-420.80073382486881
 31
0.0
  0
LINE
  5
71
  8
1
 62
     7
 10
-746.03266272189285
 20
-426.8007338248687
 30
0.0
 11
-742.43266272189271
 21
-426.8007338248687
 31
0.0
  0
LINE
  5
72
  8
1
 62
     7
 10
-749.03266272189285
 20
-443.3007338248687
 30
0.0
 11
-749.03266272189285
 21
-429.8007338248687
 31
0.0
  0
LINE
  5
73
  8
1
 62
     7
 10
-796.23266272189255
 20
-442.60073382486871
 30
0.0
 11
-749.03266272189285
 21
-442.60073382486871
 31
0.0
  0
LINE
  5
74
  8
1
 62
     7
 10
-746.43266272189271
 20
-371.8007338248687
 30
0.0
 11
-736.43266272189271
 21
-381.8007338248687
 31
0.0
  0
LINE
  5
75
  8
1
 62
     7
 10
-745.03266272189285
 20
-440.8007338248687
 30
0.0
 11
-735.23266272189278
 21
-440.8007338248687
 31
0.0
  0
LINE
  5
76
  8
1
 62
     7
 10
-788.23266272189255
 20
-475.3007338248687
 30
0.0
 11
-768.23266272189267
 21
-475.3007338248687
 31
0.0
  0
LINE
  5
77
  8
1
 62
     7
 10
-788.23266272189255
 20
-586.30073382486864
 30
0.0
 11
-788.23266272189255
 21
-475.3007338248687
 31
0.0
  0
LINE
  5
78
  8
1
 62
     7
 10
-768.23266272189267
 20
-586.30073382486864
 30
0.0
 11
-768.23266272189267
 21
-475.3007338248687
 31
0.0
  0
LINE
  5
79
  8
1
 62
     7
 10
-838.23266272189255
 20
-475.8007338248687
 30
0.0
 11
-788.23266272189255
 21
-475.8007338248687
 31
0.0
  0
LINE
  5
7A
  8
1
 62
     3
 10
-796.13266272189276
 20
-355.8007338248687
 30
0.0
 11
-758.43266272189271
 21
-442.60073382486871
 31
0.0
  0
LINE
  5
7B
  8
1
 62
     3
 10
-796.13266272189276
 20
-442.60073382486871
 30
0.0
 11
-758.43266272189271
 21
-355.8007338248687
 31
0.0
  0
LINE
  5
7C
  8
1
 62
     7
 10
-749.03266272189285
 20
-432.90073382486872
 30
0.0
 11
-745.03266272189285
 21
-432.90073382486872
 31
0.0
  0
LINE
  5
7D
  8
1
 62
     7
 10
-745.03266272189285
 20
-443.3007338248687
 30
0.0
 11
-745.03266272189285
 21
-432.90073382486872
 31
0.0
  0
LINE
  5
7E
  8
1
 62
     7
 10
-742.43266272189271
 20
-434.72026786172881
 30
0.0
 11
-742.43266272189271
 21
-426.8007338248687
 31
0.0
  0
LINE
  5
7F
  8
1
 62
     7
 10
-736.43266272189271
 20
-434.72026786172881
 30
0.0
 11
-736.43266272189271
 21
-381.8007338248687
 31
0.0
  0
LINE
  5
80
  8
1
 62
     7
 10
-924.23266272189267
 20
-455.8007338248687
 30
0.0
 11
-945.23266272189255
 21
-455.80073382486859
 31
0.0
  0
LINE
  5
81
  8
1
 62
     7
 10
-399.23266272189272
 20
-477.61238923697982
 30
0.0
 11
-399.23266272189272
 21
-466.8007338248687
 31
0.0
  0
LINE
  5
82
  8
1
 62
     7
 10
-399.23266272189272
 20
-466.8007338248687
 30
0.0
 11
-371.23266272189272
 21
-466.8007338248687
 31
0.0
  0
LINE
  5
83
  8
1
 62
     7
 10
-371.23266272189272
 20
-466.8007338248687
 30
0.0
 11
-371.23266272189272
 21
-477.61238923697982
 31
0.0
  0
LINE
  5
84
  8
1
 62
     7
 10
-405.23266272189278
 20
-356.94734731773161
 30
0.0
 11
-405.23266272189278
 21
-370.8007338248687
 31
0.0
  0
LINE
  5
85
  8
1
 62
     7
 10
-405.23266272189278
 20
-370.8007338248687
 30
0.0
 11
-365.23266272189272
 21
-370.8007338248687
 31
0.0
  0
LINE
  5
86
  8
1
 62
     7
 10
-365.23266272189272
 20
-370.8007338248687
 30
0.0
 11
-365.23266272189272
 21
-356.94734731773161
 31
0.0
  0
LINE
  5
87
  8
1
 62
     7
 10
-405.23266272189278
 20
-704.65412033200596
 30
0.0
 11
-405.23266272189278
 21
-690.80073382486864
 31
0.0
  0
LINE
  5
88
  8
1
 62
     7
 10
-405.23266272189278
 20
-690.80073382486864
 30
0.0
 11
-365.23266272189272
 21
-690.80073382486864
 31
0.0
  0
LINE
  5
89
  8
1
 62
     7
 10
-365.23266272189272
 20
-690.80073382486864
 30
0.0
 11
-365.23266272189272
 21
-704.65412033200596
 31
0.0
  0
LINE
  5
8A
  8
1
 62
     7
 10
-244.67121347275739
 20
-635.04793515412598
 30
0.0
 11
-256.66859811638261
 21
-628.12124190055795
 31
0.0
  0
LINE
  5
8B
  8
1
 62
     7
 10
-256.66859811638261
 20
-628.12124190055795
 30
0.0
 11
-236.66859811638241
 21
-593.48022574917979
 31
0.0
  0
LINE
  5
8C
  8
1
 62
     7
 10
-236.66859811638241
 20
-593.48022574917979
 30
0.0
 11
-224.67121347275739
 21
-600.40691900274771
 31
0.0
  0
LINE
  5
8D
  8
1
 62
     7
 10
-224.67121347275739
 20
-461.19454864698878
 30
0.0
 11
-236.66859811638261
 21
-468.12124190055812
 31
0.0
  0
LINE
  5
8E
  8
1
 62
     7
 10
-236.66859811638261
 20
-468.12124190055812
 30
0.0
 11
-256.66859811638261
 21
-433.48022574917979
 31
0.0
  0
LINE
  5
8F
  8
1
 62
     7
 10
-256.66859811638261
 20
-433.48022574917979
 30
0.0
 11
-244.67121347275739
 21
-426.55353249561108
 31
0.0
  0
LINE
  5
90
  8
1
 62
     7
 10
-545.7941119710282
 20
-461.19454864698878
 30
0.0
 11
-533.79672732740289
 21
-468.12124190055812
 31
0.0
  0
LINE
  5
91
  8
1
 62
     7
 10
-533.79672732740289
 20
-468.12124190055812
 30
0.0
 11
-513.79672732740278
 21
-433.48022574917979
 31
0.0
  0
LINE
  5
92
  8
1
 62
     7
 10
-513.79672732740278
 20
-433.48022574917979
 30
0.0
 11
-525.7941119710282
 21
-426.55353249561108
 31
0.0
  0
LINE
  5
93
  8
1
 62
     7
 10
-525.79411197102831
 20
-635.04793515412598
 30
0.0
 11
-513.79672732740312
 21
-628.12124190055795
 31
0.0
  0
LINE
  5
94
  8
1
 62
     7
 10
-513.79672732740312
 20
-628.12124190055795
 30
0.0
 11
-533.79672732740289
 21
-593.48022574917979
 31
0.0
  0
LINE
  5
95
  8
1
 62
     7
 10
-533.79672732740289
 20
-593.48022574917979
 30
0.0
 11
-545.7941119710282
 21
-600.40691900274771
 31
0.0
  0
LINE
  5
96
  8
1
  6
DASHDOT
 62
     3
 10
-262.45064869188963
 20
-459.912504973002
 30
0.0
 11
-225.4953762110473
 21
-438.57636845821179
 31
0.0
  0
LINE
  5
97
  8
1
  6
DASHDOT
 62
     3
 10
-225.4953762110473
 20
-623.02509919152578
 30
0.0
 11
-262.45064869188963
 21
-601.68896267673495
 31
0.0
  0
LINE
  5
98
  8
1
  6
DASHDOT
 62
     3
 10
-544.96994923273837
 20
-438.57636845821179
 30
0.0
 11
-508.01467675189599
 21
-459.912504973002
 31
0.0
  0
LINE
  5
99
  8
1
  6
DASHDOT
 62
     3
 10
-508.01467675189599
 20
-601.68896267673495
 30
0.0
 11
-544.96994923273837
 21
-623.02509919152578
 31
0.0
  0
LINE
  5
9A
  8
1
 62
     7
 10
-400.23266272189272
 20
-356.444776083242
 30
0.0
 11
-400.23266272189272
 21
-300.80073382486881
 31
0.0
  0
LINE
  5
9B
  8
1
 62
     7
 10
-400.23266272189272
 20
-300.80073382486881
 30
0.0
 11
-387.83266272189258
 21
-300.80073382486881
 31
0.0
  0
LINE
  5
9C
  8
1
 62
     7
 10
-370.23266272189272
 20
-300.80073382486881
 30
0.0
 11
-370.23266272189272
 21
-356.444776083242
 31
0.0
  0
LINE
  5
9D
  8
1
 62
     7
 10
-397.03266272189268
 20
-300.80073382486881
 30
0.0
 11
-397.03266272189268
 21
-356.19901562026467
 31
0.0
  0
LINE
  5
9E
  8
1
 62
     7
 10
-373.43266272189271
 20
-300.80073382486881
 30
0.0
 11
-373.43266272189271
 21
-356.19901562026467
 31
0.0
  0
LINE
  5
9F
  8
1
 62
     7
 10
-382.63266272189259
 20
-300.80073382486881
 30
0.0
 11
-370.23266272189272
 21
-300.80073382486881
 31
0.0
  0
LINE
  5
A0
  8
1
 62
     7
 10
-749.03266272189285
 20
-437.00073382486897
 30
0.0
 11
-796.23266272189255
 21
-437.00073382486897
 31
0.0
  0
LINE
  5
A1
  8
1
 62
     7
 10
-888.73266272189267
 20
-425.8007338248687
 30
0.0
 11
-888.73266272189267
 21
-448.3007338248687
 31
0.0
  0
LINE
  5
A2
  8
1
 62
     7
 10
-916.73266272189255
 20
-425.8007338248687
 30
0.0
 11
-916.73266272189255
 21
-448.3007338248687
 31
0.0
  0
LINE
  5
A3
  8
1
 62
     7
 10
-881.73266272189267
 20
-448.3007338248687
 30
0.0
 11
-881.73266272189267
 21
-425.8007338248687
 31
0.0
  0
LINE
  5
A4
  8
1
 62
     7
 10
-853.73266272189289
 20
-448.3007338248687
 30
0.0
 11
-853.73266272189289
 21
-425.8007338248687
 31
0.0
  0
LINE
  5
A5
  8
1
  6
DASHDOT
 62
     3
 10
-385.23266272189278
 20
-355.8007338248687
 30
0.0
 11
-385.23266272189232
 21
-378.43496904694513
 31
0.0
  0
LINE
  5
A6
  8
1
 62
     7
 10
-386.54766272189278
 20
-270.91657461985892
 30
0.0
 11
-386.54766272189278
 21
-275.91657461985892
 31
0.0
  0
LINE
  5
A7
  8
1
 62
     7
 10
-385.78629464186992
 20
-270.91657461985892
 30
0.0
 11
-385.78629464186992
 21
-275.91657461985892
 31
0.0
  0
LINE
  5
A8
  8
1
 62
     7
 10
-386.1624859370948
 20
-270.91657461985892
 30
0.0
 11
-386.1624859370948
 21
-275.91657461985892
 31
0.0
  0
LINE
  5
A9
  8
1
 62
     7
 10
-387.30552871874181
 20
-270.91657461985892
 30
0.0
 11
-387.30552871874181
 21
-275.91657461985892
 31
0.0
  0
LINE
  5
AA
  8
1
 62
     7
 10
-386.90039963157579
 20
-270.91657461985892
 30
0.0
 11
-386.90039963157579
 21
-275.91657461985892
 31
0.0
  0
LINE
  5
AB
  8
1
 62
     7
 10
-387.86266272189278
 20
-355.82036386835802
 30
0.0
 11
-387.86266272189278
 21
-275.91657461985892
 31
0.0
  0
LINE
  5
AC
  8
1
 62
     7
 10
-383.91766272189301
 20
-275.91657461985892
 30
0.0
 11
-383.91766272189301
 21
-270.91657461985892
 31
0.0
  0
LINE
  5
AD
  8
1
 62
     7
 10
-387.86266272189278
 20
-275.91657461985892
 30
0.0
 11
-382.60266272189278
 21
-275.91657461985892
 31
0.0
  0
LINE
  5
AE
  8
1
 62
     7
 10
-384.67903080191581
 20
-275.91657461985892
 30
0.0
 11
-384.67903080191581
 21
-270.91657461985892
 31
0.0
  0
LINE
  5
AF
  8
1
 62
     7
 10
-384.30283950669087
 20
-275.91657461985892
 30
0.0
 11
-384.30283950669087
 21
-270.91657461985892
 31
0.0
  0
LINE
  5
B0
  8
1
 62
     7
 10
-383.15979672504398
 20
-275.91657461985892
 30
0.0
 11
-383.15979672504398
 21
-270.91657461985892
 31
0.0
  0
LINE
  5
B1
  8
1
 62
     7
 10
-383.56492581220982
 20
-275.91657461985892
 30
0.0
 11
-383.56492581220982
 21
-270.91657461985892
 31
0.0
  0
LINE
  5
B2
  8
1
 62
     7
 10
-382.60266272189278
 20
-355.85908690753911
 30
0.0
 11
-382.60266272189278
 21
-275.91657461985892
 31
0.0
  0
LINE
  5
B3
  8
1
 62
     7
 10
-385.23266272189278
 20
-355.8007338248687
 30
0.0
 11
-385.23266272189278
 21
-275.91657461985892
 31
0.0
  0
LINE
  5
B4
  8
1
 62
     7
 10
-926.30566272189265
 20
-270.91657461985892
 30
0.0
 11
-926.30566272189265
 21
-275.91657461985892
 31
0.0
  0
LINE
  5
B5
  8
1
 62
     7
 10
-927.6206627218927
 20
-275.91657461985892
 30
0.0
 11
-924.99066272189259
 21
-275.91657461985881
 31
0.0
  0
LINE
  5
B6
  8
1
 62
     7
 10
-925.54429464186978
 20
-270.91657461985892
 30
0.0
 11
-925.54429464186978
 21
-275.91657461985892
 31
0.0
  0
LINE
  5
B7
  8
1
 62
     7
 10
-925.92048593709478
 20
-270.91657461985892
 30
0.0
 11
-925.92048593709478
 21
-275.91657461985892
 31
0.0
  0
LINE
  5
B8
  8
1
 62
     7
 10
-927.06352871874151
 20
-270.91657461985892
 30
0.0
 11
-927.06352871874151
 21
-275.91657461985892
 31
0.0
  0
LINE
  5
B9
  8
1
 62
     7
 10
-926.65839963157566
 20
-270.91657461985892
 30
0.0
 11
-926.65839963157566
 21
-275.91657461985892
 31
0.0
  0
LINE
  5
BA
  8
1
 62
     7
 10
-927.6206627218927
 20
-275.91657461985892
 30
0.0
 11
-927.6206627218927
 21
-370.4857338248687
 31
0.0
  0
LINE
  5
BB
  8
1
 62
     7
 10
-924.99066272189259
 20
-275.91657461985881
 30
0.0
 11
-924.99066272189259
 21
-370.4857338248687
 31
0.0
  0
LINE
  5
BC
  8
1
  6
DASHDOT
 62
     3
 10
-358.22562388180279
 20
-530.80073382486864
 30
0.0
 11
-412.23970156198283
 21
-530.80073382486864
 31
0.0
  0
LINE
  5
BD
  8
1
  6
DASHDOT
 62
     3
 10
-385.23266272189278
 20
-503.79369498477882
 30
0.0
 11
-385.23266272189278
 21
-557.80777266495875
 31
0.0
  0
LINE
  5
BE
  8
1
 62
     7
 10
-1681.5476627218929
 20
-270.91657461985892
 30
0.0
 11
-1681.5476627218929
 21
-275.91657461985892
 31
0.0
  0
LINE
  5
BF
  8
1
 62
     7
 10
-1680.7862946418691
 20
-270.91657461985892
 30
0.0
 11
-1680.7862946418691
 21
-275.91657461985892
 31
0.0
  0
LINE
  5
C0
  8
1
 62
     7
 10
-1681.162485937095
 20
-270.91657461985892
 30
0.0
 11
-1681.162485937095
 21
-275.91657461985892
 31
0.0
  0
LINE
  5
C1
  8
1
 62
     7
 10
-1682.3055287187419
 20
-270.91657461985892
 30
0.0
 11
-1682.3055287187419
 21
-275.91657461985892
 31
0.0
  0
LINE
  5
C2
  8
1
 62
     7
 10
-1681.900399631576
 20
-270.91657461985892
 30
0.0
 11
-1681.900399631576
 21
-275.91657461985892
 31
0.0
  0
LINE
  5
C3
  8
1
 62
     7
 10
-1678.9176627218931
 20
-275.91657461985892
 30
0.0
 11
-1678.9176627218931
 21
-270.91657461985892
 31
0.0
  0
LINE
  5
C4
  8
1
 62
     7
 10
-1682.862662721893
 20
-275.91657461985892
 30
0.0
 11
-1677.6026627218921
 21
-275.91657461985892
 31
0.0
  0
LINE
  5
C5
  8
1
 62
     7
 10
-1679.6790308019149
 20
-275.91657461985892
 30
0.0
 11
-1679.6790308019149
 21
-270.91657461985892
 31
0.0
  0
LINE
  5
C6
  8
1
 62
     7
 10
-1679.302839506691
 20
-275.91657461985892
 30
0.0
 11
-1679.302839506691
 21
-270.91657461985892
 31
0.0
  0
LINE
  5
C7
  8
1
 62
     7
 10
-1678.159796725043
 20
-275.91657461985892
 30
0.0
 11
-1678.159796725043
 21
-270.91657461985892
 31
0.0
  0
LINE
  5
C8
  8
1
 62
     7
 10
-1678.5649258122089
 20
-275.91657461985892
 30
0.0
 11
-1678.5649258122089
 21
-270.91657461985892
 31
0.0
  0
LINE
  5
C9
  8
1
  6
DASHDOT
 62
     3
 10
-1653.2256238818029
 20
-530.80073382486864
 30
0.0
 11
-1707.2397015619831
 21
-530.80073382486864
 31
0.0
  0
LINE
  5
CA
  8
1
  6
DASHDOT
 62
     3
 10
-1680.232662721892
 20
-503.79369498477882
 30
0.0
 11
-1680.232662721892
 21
-557.80777266495875
 31
0.0
  0
LINE
  5
CB
  8
1
 62
     7
 10
-1682.862662721893
 20
-300.80073382486881
 30
0.0
 11
-1682.862662721893
 21
-275.91657461985892
 31
0.0
  0
LINE
  5
CC
  8
1
 62
     7
 10
-1680.232662721892
 20
-300.80073382486881
 30
0.0
 11
-1680.232662721892
 21
-275.91657461985892
 31
0.0
  0
LINE
  5
CD
  8
1
 62
     7
 10
-1677.6026627218921
 20
-300.80073382486881
 30
0.0
 11
-1677.6026627218921
 21
-275.91657461985892
 31
0.0
  0
LINE
  5
CE
  8
1
 62
     7
 10
-921.9906627218927
 20
-373.4857338248687
 30
0.0
 11
-920.23266272189255
 21
-373.4857338248687
 31
0.0
  0
LINE
  5
CF
  8
1
 62
     7
 10
-921.9906627218927
 20
-376.1157338248687
 30
0.0
 11
-920.23266272189255
 21
-376.1157338248687
 31
0.0
  0
LINE
  5
D0
  8
1
 62
     7
 10
-924.99066272189259
 20
-300.80073382486881
 30
0.0
 11
-920.23266272189255
 21
-300.80073382486881
 31
0.0
  0
LINE
  5
D1
  8
1
 62
     7
 10
-735.23266272189278
 20
-619.00073382486846
 30
0.0
 11
-745.03266272189285
 21
-619.00073382486846
 31
0.0
  0
LINE
  5
D2
  8
1
 62
     7
 10
-885.23266272189267
 20
-605.80073382486864
 30
0.0
 11
-885.23266272189267
 21
-643.30073382486864
 31
0.0
  0
LINE
  5
D3
  8
1
 62
     7
 10
-920.23266272189255
 20
-603.30073382486864
 30
0.0
 11
-920.23266272189255
 21
-648.80073382486864
 31
0.0
  0
LINE
  5
D4
  8
1
 62
     7
 10
-745.03266272189285
 20
-618.30073382486864
 30
0.0
 11
-749.03266272189285
 21
-618.30073382486864
 31
0.0
  0
LINE
  5
D5
  8
1
 62
     7
 10
-823.23266272189255
 20
-662.80073382486864
 30
0.0
 11
-824.23266272189255
 21
-662.80073382486864
 31
0.0
  0
LINE
  5
D6
  8
1
 62
     7
 10
-824.23266272189255
 20
-690.60073382486837
 30
0.0
 11
-806.23266272189255
 21
-690.60073382486837
 31
0.0
  0
LINE
  5
D7
  8
1
 62
     7
 10
-932.23266272189255
 20
-664.80073382486864
 30
0.0
 11
-932.23266272189255
 21
-605.80073382486864
 31
0.0
  0
LINE
  5
D8
  8
1
 62
     7
 10
-920.23266272189255
 20
-665.80073382486864
 30
0.0
 11
-931.23266272189255
 21
-665.80073382486864
 31
0.0
  0
LINE
  5
D9
  8
1
 62
     7
 10
-824.23266272189255
 20
-690.60073382486837
 30
0.0
 11
-824.23266272189255
 21
-662.80073382486864
 31
0.0
  0
LINE
  5
DA
  8
1
 62
     7
 10
-735.23266272189267
 20
-585.80073382486864
 30
0.0
 11
-768.23266272189267
 21
-585.80073382486864
 31
0.0
  0
LINE
  5
DB
  8
1
 62
     7
 10
-858.23266272189267
 20
-585.80073382486864
 30
0.0
 11
-945.23266272189255
 21
-585.80073382486864
 31
0.0
  0
LINE
  5
DC
  8
1
 62
     7
 10
-858.23266272189267
 20
-586.30073382486864
 30
0.0
 11
-838.23266272189255
 21
-586.30073382486864
 31
0.0
  0
LINE
  5
DD
  8
1
 62
     7
 10
-848.23266272189255
 20
-616.80073382486864
 30
0.0
 11
-850.23266272189267
 21
-616.80073382486864
 31
0.0
  0
LINE
  5
DE
  8
1
 62
     7
 10
-848.23266272189255
 20
-633.80073382486864
 30
0.0
 11
-848.23266272189255
 21
-616.80073382486864
 31
0.0
  0
LINE
  5
DF
  8
1
 62
     7
 10
-820.23266272189255
 20
-673.80073382486864
 30
0.0
 11
-820.23266272189255
 21
-633.80073382486864
 31
0.0
  0
LINE
  5
E0
  8
1
 62
     7
 10
-820.23266272189255
 20
-633.80073382486864
 30
0.0
 11
-848.23266272189255
 21
-633.80073382486864
 31
0.0
  0
LINE
  5
E1
  8
1
 62
     7
 10
-822.23266272189255
 20
-673.80073382486864
 30
0.0
 11
-820.23266272189255
 21
-673.80073382486864
 31
0.0
  0
LINE
  5
E2
  8
1
 62
     7
 10
-822.23266272189255
 20
-689.80073382486864
 30
0.0
 11
-822.23266272189255
 21
-673.80073382486864
 31
0.0
  0
LINE
  5
E3
  8
1
 62
     7
 10
-796.13266272189276
 20
-689.80073382486864
 30
0.0
 11
-822.23266272189255
 21
-689.80073382486864
 31
0.0
  0
LINE
  5
E4
  8
1
 62
     7
 10
-796.23266272189255
 20
-633.30073382486876
 30
0.0
 11
-796.13266272189276
 21
-633.30073382486876
 31
0.0
  0
LINE
  5
E5
  8
1
 62
     7
 10
-796.23266272189255
 20
-633.30073382486876
 30
0.0
 11
-796.23266272189255
 21
-609.80073382486864
 31
0.0
  0
LINE
  5
E6
  8
1
 62
     7
 10
-925.23266272189267
 20
-643.30073382486864
 30
0.0
 11
-932.23266272189255
 21
-643.30073382486864
 31
0.0
  0
LINE
  5
E7
  8
1
 62
     7
 10
-925.23266272189267
 20
-634.80073382486864
 30
0.0
 11
-920.23266272189255
 21
-634.80073382486864
 31
0.0
  0
LINE
  5
E8
  8
1
 62
     7
 10
-925.23266272189267
 20
-648.80073382486864
 30
0.0
 11
-925.23266272189267
 21
-620.56112115697874
 31
0.0
  0
LINE
  5
E9
  8
1
 62
     7
 10
-925.23266272189267
 20
-648.80073382486864
 30
0.0
 11
-920.23266272189255
 21
-648.80073382486864
 31
0.0
  0
LINE
  5
EA
  8
1
 62
     7
 10
-924.23266272189267
 20
-603.30073382486864
 30
0.0
 11
-924.23266272189267
 21
-614.90073382486867
 31
0.0
  0
LINE
  5
EB
  8
1
 62
     7
 10
-920.23266272189255
 20
-603.30073382486864
 30
0.0
 11
-924.23266272189267
 21
-603.30073382486864
 31
0.0
  0
LINE
  5
EC
  8
1
 62
     7
 10
-924.23266272189267
 20
-614.90073382486867
 30
0.0
 11
-920.23266272189255
 21
-614.90073382486867
 31
0.0
  0
LINE
  5
ED
  8
1
 62
     7
 10
-908.65896795787216
 20
-634.11323382486864
 30
0.0
 11
-920.23266272189255
 21
-634.11323382486864
 31
0.0
  0
LINE
  5
EE
  8
1
 62
     7
 10
-908.65896795787216
 20
-614.98823382486864
 30
0.0
 11
-920.23266272189255
 21
-614.98823382486864
 31
0.0
  0
LINE
  5
EF
  8
1
 62
     7
 10
-873.65896795787262
 20
-634.11323382486864
 30
0.0
 11
-896.80635748591328
 21
-634.11323382486864
 31
0.0
  0
LINE
  5
F0
  8
1
 62
     7
 10
-861.80635748591328
 20
-634.11323382486864
 30
0.0
 11
-850.23266272189267
 21
-634.11323382486864
 31
0.0
  0
LINE
  5
F1
  8
1
 62
     7
 10
-873.65896795787262
 20
-614.98823382486864
 30
0.0
 11
-896.80635748591328
 21
-614.98823382486864
 31
0.0
  0
LINE
  5
F2
  8
1
 62
     7
 10
-861.80635748591328
 20
-614.98823382486864
 30
0.0
 11
-850.23266272189267
 21
-614.98823382486864
 31
0.0
  0
LINE
  5
F3
  8
1
 62
     7
 10
-920.23266272189255
 20
-605.80073382486864
 30
0.0
 11
-845.23266272189255
 21
-605.80073382486864
 31
0.0
  0
LINE
  5
F4
  8
1
 62
     7
 10
-850.23266272189267
 20
-643.30073382486864
 30
0.0
 11
-920.23266272189255
 21
-643.30073382486864
 31
0.0
  0
LINE
  5
F5
  8
1
 62
     7
 10
-850.23266272189267
 20
-605.80073382486864
 30
0.0
 11
-850.23266272189267
 21
-643.30073382486864
 31
0.0
  0
LINE
  5
F6
  8
1
 62
     7
 10
-816.23266272189267
 20
-705.80073382486864
 30
0.0
 11
-806.23266272189255
 21
-695.80073382486876
 31
0.0
  0
LINE
  5
F7
  8
1
 62
     7
 10
-816.23266272189267
 20
-705.80073382486864
 30
0.0
 11
-919.23266272189267
 21
-705.80073382486864
 31
0.0
  0
LINE
  5
F8
  8
1
 62
     7
 10
-823.23266272189255
 20
-634.60073382486848
 30
0.0
 11
-850.23266272189267
 21
-634.60073382486848
 31
0.0
  0
LINE
  5
F9
  8
1
 62
     7
 10
-823.23266272189255
 20
-662.80073382486864
 30
0.0
 11
-823.23266272189255
 21
-634.60073382486848
 31
0.0
  0
LINE
  5
FA
  8
1
 62
     7
 10
-806.23266272189255
 20
-695.80073382486876
 30
0.0
 11
-806.23266272189255
 21
-690.60073382486837
 31
0.0
  0
LINE
  5
FB
  8
1
 62
     7
 10
-796.23266272189255
 20
-609.80073382486864
 30
0.0
 11
-850.23266272189267
 21
-609.80073382486864
 31
0.0
  0
LINE
  5
FC
  8
1
 62
     7
 10
-845.23266272189255
 20
-609.80073382486864
 30
0.0
 11
-845.23266272189255
 21
-605.80073382486864
 31
0.0
  0
LINE
  5
FD
  8
1
 62
     7
 10
-758.43266272189271
 20
-705.80073382486864
 30
0.0
 11
-758.43266272189271
 21
-619.00073382486846
 31
0.0
  0
LINE
  5
FE
  8
1
  6
DASHDOT
 62
     3
 10
-800.49370641290477
 20
-621.80073382486864
 30
0.0
 11
-744.13266272189264
 21
-621.80073382486864
 31
0.0
  0
LINE
  5
FF
  8
1
 62
     7
 10
-758.43266272189271
 20
-705.80073382486864
 30
0.0
 11
-796.13266272189276
 21
-705.80073382486864
 31
0.0
  0
LINE
  5
100
  8
1
 62
     7
 10
-796.13266272189276
 20
-705.80073382486864
 30
0.0
 11
-796.13266272189276
 21
-619.00073382486846
 31
0.0
  0
LINE
  5
101
  8
1
 62
     7
 10
-758.43266272189271
 20
-689.80073382486864
 30
0.0
 11
-746.43266272189271
 21
-689.80073382486864
 31
0.0
  0
LINE
  5
102
  8
1
 62
     7
 10
-736.43266272189271
 20
-640.80073382486864
 30
0.0
 11
-742.43266272189271
 21
-634.80073382486864
 31
0.0
  0
LINE
  5
103
  8
1
 62
     7
 10
-742.43266272189271
 20
-634.80073382486864
 30
0.0
 11
-746.03266272189285
 21
-634.80073382486864
 31
0.0
  0
LINE
  5
104
  8
1
 62
     7
 10
-749.03266272189285
 20
-631.80073382486864
 30
0.0
 11
-749.03266272189285
 21
-618.30073382486864
 31
0.0
  0
LINE
  5
105
  8
1
 62
     7
 10
-749.03266272189285
 20
-619.00073382486846
 30
0.0
 11
-796.23266272189255
 21
-619.00073382486846
 31
0.0
  0
LINE
  5
106
  8
1
 62
     7
 10
-736.43266272189271
 20
-679.80073382486864
 30
0.0
 11
-746.43266272189271
 21
-689.80073382486864
 31
0.0
  0
LINE
  5
107
  8
1
 62
     7
 10
-735.23266272189278
 20
-620.80073382486876
 30
0.0
 11
-745.03266272189285
 21
-620.80073382486876
 31
0.0
  0
LINE
  5
108
  8
1
 62
     7
 10
-735.23266272189278
 20
-620.80073382486876
 30
0.0
 11
-735.23266272189278
 21
-440.8007338248687
 31
0.0
  0
LINE
  5
109
  8
1
 62
     7
 10
-768.23266272189267
 20
-586.30073382486864
 30
0.0
 11
-788.23266272189255
 21
-586.30073382486864
 31
0.0
  0
LINE
  5
10A
  8
1
 62
     7
 10
-788.23266272189255
 20
-585.80073382486864
 30
0.0
 11
-838.23266272189255
 21
-585.80073382486864
 31
0.0
  0
LINE
  5
10B
  8
1
 62
     3
 10
-758.43266272189271
 20
-619.00073382486846
 30
0.0
 11
-796.13266272189276
 21
-705.80073382486864
 31
0.0
  0
LINE
  5
10C
  8
1
 62
     3
 10
-758.43266272189271
 20
-705.80073382486864
 30
0.0
 11
-796.13266272189276
 21
-619.00073382486846
 31
0.0
  0
LINE
  5
10D
  8
1
 62
     7
 10
-745.03266272189285
 20
-628.70073382486885
 30
0.0
 11
-749.03266272189285
 21
-628.70073382486885
 31
0.0
  0
LINE
  5
10E
  8
1
 62
     7
 10
-745.03266272189285
 20
-628.70073382486885
 30
0.0
 11
-745.03266272189285
 21
-618.30073382486864
 31
0.0
  0
LINE
  5
10F
  8
1
 62
     7
 10
-742.43266272189271
 20
-634.80073382486864
 30
0.0
 11
-742.43266272189271
 21
-626.88119978800864
 31
0.0
  0
LINE
  5
110
  8
1
 62
     7
 10
-736.43266272189271
 20
-679.80073382486864
 30
0.0
 11
-736.43266272189271
 21
-626.88119978800864
 31
0.0
  0
LINE
  5
111
  8
1
 62
     7
 10
-945.23266272189255
 20
-605.80073382486864
 30
0.0
 11
-924.23266272189267
 21
-605.80073382486864
 31
0.0
  0
LINE
  5
112
  8
1
 62
     7
 10
-796.23266272189255
 20
-624.60073382486837
 30
0.0
 11
-749.03266272189285
 21
-624.60073382486837
 31
0.0
  0
LINE
  5
113
  8
1
 62
     7
 10
-888.73266272189267
 20
-613.30073382486864
 30
0.0
 11
-888.73266272189267
 21
-635.80073382486864
 31
0.0
  0
LINE
  5
114
  8
1
 62
     7
 10
-916.73266272189255
 20
-613.30073382486864
 30
0.0
 11
-916.73266272189255
 21
-635.80073382486864
 31
0.0
  0
LINE
  5
115
  8
1
 62
     7
 10
-881.73266272189267
 20
-635.80073382486864
 30
0.0
 11
-881.73266272189267
 21
-613.30073382486864
 31
0.0
  0
LINE
  5
116
  8
1
 62
     7
 10
-853.73266272189289
 20
-635.80073382486864
 30
0.0
 11
-853.73266272189289
 21
-613.30073382486864
 31
0.0
  0
LINE
  5
117
  8
1
 62
     7
 10
-920.23266272189255
 20
-665.80073382486864
 30
0.0
 11
-920.23266272189255
 21
-704.80073382486864
 31
0.0
  0
LINE
  5
118
  8
1
 62
     7
 10
-931.23266272189255
 20
-665.80073382486864
 30
0.0
 11
-932.23266272189255
 21
-664.80073382486864
 31
0.0
  0
LINE
  5
119
  8
1
 62
     7
 10
-920.23266272189255
 20
-704.80073382486864
 30
0.0
 11
-919.23266272189267
 21
-705.80073382486864
 31
0.0
  0
LINE
  5
11A
  8
1
 62
     7
 10
-931.23266272189255
 20
-395.8007338248687
 30
0.0
 11
-932.23266272189255
 21
-396.8007338248687
 31
0.0
  0
LINE
  5
11B
  8
1
 62
     7
 10
-919.23266272189267
 20
-355.8007338248687
 30
0.0
 11
-816.23266272189267
 21
-355.8007338248687
 31
0.0
  0
LINE
  5
11C
  8
1
  6
DASHDOT
 62
     3
 10
-1330.232662721892
 20
-530.80073382486864
 30
0.0
 11
-1340.2326627218929
 21
-530.80073382486864
 31
0.0
  0
LINE
  5
11D
  8
1
  6
DASHDOT
 62
     3
 10
-1120.232662721892
 20
-530.80073382486864
 30
0.0
 11
-1110.2326627218929
 21
-530.80073382486864
 31
0.0
  0
LINE
  5
11E
  8
1
 62
     7
 10
-1316.232662721892
 20
-395.8007338248687
 30
0.0
 11
-1308.4326627218929
 21
-395.8007338248687
 31
0.0
  0
LINE
  5
11F
  8
1
 62
     7
 10
-1320.232662721892
 20
-393.8007338248687
 30
0.0
 11
-1320.232662721892
 21
-300.80073382486881
 31
0.0
  0
LINE
  5
120
  8
1
 62
     7
 10
-1320.232662721892
 20
-393.8007338248687
 30
0.0
 11
-1308.4326627218929
 21
-393.8007338248687
 31
0.0
  0
LINE
  5
121
  8
1
 62
     7
 10
-1191.232662721892
 20
-365.8007338248687
 30
0.0
 11
-1201.232662721892
 21
-355.8007338248687
 31
0.0
  0
LINE
  5
122
  8
1
 62
     7
 10
-1305.2326627218929
 20
-356.80073382486898
 30
0.0
 11
-1304.232662721892
 21
-355.8007338248687
 31
0.0
  0
LINE
  5
123
  8
1
 62
     7
 10
-1191.232662721892
 20
-695.80073382486876
 30
0.0
 11
-1191.232662721892
 21
-365.8007338248687
 31
0.0
  0
LINE
  5
124
  8
1
 62
     7
 10
-1330.232662721892
 20
-605.80073382486864
 30
0.0
 11
-1330.232662721892
 21
-455.80073382486859
 31
0.0
  0
LINE
  5
125
  8
1
 62
     7
 10
-1143.432662721892
 20
-705.80073382486864
 30
0.0
 11
-1143.432662721892
 21
-355.8007338248687
 31
0.0
  0
LINE
  5
126
  8
1
 62
     7
 10
-1181.1326627218921
 20
-355.8007338248687
 30
0.0
 11
-1143.432662721892
 21
-355.8007338248687
 31
0.0
  0
LINE
  5
127
  8
1
 62
     7
 10
-1131.4326627218929
 20
-371.8007338248687
 30
0.0
 11
-1143.432662721892
 21
-371.8007338248687
 31
0.0
  0
LINE
  5
128
  8
1
 62
     7
 10
-1131.4326627218929
 20
-371.8007338248687
 30
0.0
 11
-1121.432662721892
 21
-381.8007338248687
 31
0.0
  0
LINE
  5
129
  8
1
 62
     7
 10
-1121.432662721892
 20
-440.8007338248687
 30
0.0
 11
-1120.232662721892
 21
-440.8007338248687
 31
0.0
  0
LINE
  5
12A
  8
1
 62
     7
 10
-1317.2326627218929
 20
-455.8007338248687
 30
0.0
 11
-1330.232662721892
 21
-455.80073382486859
 31
0.0
  0
LINE
  5
12B
  8
1
 62
     7
 10
-1311.305662721893
 20
-270.91657461985892
 30
0.0
 11
-1311.305662721893
 21
-275.91657461985892
 31
0.0
  0
LINE
  5
12C
  8
1
 62
     7
 10
-1312.620662721893
 20
-275.91657461985892
 30
0.0
 11
-1309.9906627218929
 21
-275.91657461985881
 31
0.0
  0
LINE
  5
12D
  8
1
 62
     7
 10
-1310.54429464187
 20
-270.91657461985892
 30
0.0
 11
-1310.54429464187
 21
-275.91657461985892
 31
0.0
  0
LINE
  5
12E
  8
1
 62
     7
 10
-1310.920485937095
 20
-270.91657461985892
 30
0.0
 11
-1310.920485937095
 21
-275.91657461985892
 31
0.0
  0
LINE
  5
12F
  8
1
 62
     7
 10
-1312.063528718742
 20
-270.91657461985892
 30
0.0
 11
-1312.063528718742
 21
-275.91657461985892
 31
0.0
  0
LINE
  5
130
  8
1
 62
     7
 10
-1311.658399631576
 20
-270.91657461985892
 30
0.0
 11
-1311.658399631576
 21
-275.91657461985892
 31
0.0
  0
LINE
  5
131
  8
1
 62
     7
 10
-1312.620662721893
 20
-275.91657461985892
 30
0.0
 11
-1312.620662721893
 21
-300.80073382486881
 31
0.0
  0
LINE
  5
132
  8
1
 62
     7
 10
-1309.9906627218929
 20
-275.91657461985881
 30
0.0
 11
-1309.9906627218929
 21
-300.80073382486881
 31
0.0
  0
LINE
  5
133
  8
1
 62
     7
 10
-1320.232662721892
 20
-300.80073382486881
 30
0.0
 11
-1305.2326627218929
 21
-300.80073382486881
 31
0.0
  0
LINE
  5
134
  8
1
 62
     7
 10
-1305.2326627218929
 20
-665.80073382486864
 30
0.0
 11
-1316.232662721892
 21
-665.80073382486864
 31
0.0
  0
LINE
  5
135
  8
1
 62
     7
 10
-1181.1326627218921
 20
-689.80073382486864
 30
0.0
 11
-1191.232662721892
 21
-689.80073382486864
 31
0.0
  0
LINE
  5
136
  8
1
 62
     7
 10
-1201.232662721892
 20
-705.80073382486864
 30
0.0
 11
-1191.232662721892
 21
-695.80073382486876
 31
0.0
  0
LINE
  5
137
  8
1
 62
     7
 10
-1201.232662721892
 20
-705.80073382486864
 30
0.0
 11
-1304.232662721892
 21
-705.80073382486864
 31
0.0
  0
LINE
  5
138
  8
1
 62
     7
 10
-1143.432662721892
 20
-705.80073382486864
 30
0.0
 11
-1181.1326627218921
 21
-705.80073382486864
 31
0.0
  0
LINE
  5
139
  8
1
 62
     7
 10
-1181.1326627218921
 20
-705.80073382486864
 30
0.0
 11
-1181.1326627218921
 21
-355.8007338248687
 31
0.0
  0
LINE
  5
13A
  8
1
 62
     7
 10
-1143.432662721892
 20
-689.80073382486864
 30
0.0
 11
-1131.4326627218929
 21
-689.80073382486864
 31
0.0
  0
LINE
  5
13B
  8
1
 62
     7
 10
-1121.432662721892
 20
-679.80073382486864
 30
0.0
 11
-1131.4326627218929
 21
-689.80073382486864
 31
0.0
  0
LINE
  5
13C
  8
1
 62
     7
 10
-1120.232662721892
 20
-620.80073382486876
 30
0.0
 11
-1121.432662721892
 21
-620.80073382486876
 31
0.0
  0
LINE
  5
13D
  8
1
 62
     7
 10
-1120.232662721892
 20
-620.80073382486876
 30
0.0
 11
-1120.232662721892
 21
-440.8007338248687
 31
0.0
  0
LINE
  5
13E
  8
1
 62
     7
 10
-1330.232662721892
 20
-605.80073382486864
 30
0.0
 11
-1317.2326627218929
 21
-605.80073382486864
 31
0.0
  0
LINE
  5
13F
  8
1
 62
     7
 10
-1316.232662721892
 20
-665.80073382486864
 30
0.0
 11
-1317.2326627218929
 21
-664.80073382486864
 31
0.0
  0
LINE
  5
140
  8
1
 62
     7
 10
-1305.2326627218929
 20
-704.80073382486864
 30
0.0
 11
-1304.232662721892
 21
-705.80073382486864
 31
0.0
  0
LINE
  5
141
  8
1
 62
     7
 10
-1316.232662721892
 20
-395.8007338248687
 30
0.0
 11
-1317.2326627218929
 21
-396.8007338248687
 31
0.0
  0
LINE
  5
142
  8
1
 62
     7
 10
-1304.232662721892
 20
-355.8007338248687
 30
0.0
 11
-1201.232662721892
 21
-355.8007338248687
 31
0.0
  0
LINE
  5
143
  8
1
 62
     7
 10
-1191.232662721892
 20
-371.8007338248687
 30
0.0
 11
-1181.1326627218921
 21
-371.8007338248687
 31
0.0
  0
LINE
  5
144
  8
1
 62
     7
 10
-1121.432662721892
 20
-381.8007338248687
 30
0.0
 11
-1121.432662721892
 21
-679.80073382486864
 31
0.0
  0
LINE
  5
145
  8
1
 62
     7
 10
-1131.4326627218929
 20
-689.80073382486864
 30
0.0
 11
-1131.4326627218929
 21
-371.8007338248687
 31
0.0
  0
LINE
  5
146
  8
1
 62
     3
 10
-1181.1326627218921
 20
-705.80073382486864
 30
0.0
 11
-1143.432662721892
 21
-355.8007338248687
 31
0.0
  0
LINE
  5
147
  8
1
 62
     3
 10
-1181.1326627218921
 20
-355.8007338248687
 30
0.0
 11
-1143.432662721892
 21
-705.80073382486864
 31
0.0
  0
LINE
  5
148
  8
1
 62
     7
 10
-1201.232662721892
 20
-705.80073382486864
 30
0.0
 11
-1201.232662721892
 21
-355.8007338248687
 31
0.0
  0
LINE
  5
149
  8
1
 62
     7
 10
-1305.2326627218929
 20
-704.80073382486864
 30
0.0
 11
-1305.2326627218929
 21
-300.80073382486881
 31
0.0
  0
LINE
  5
14A
  8
1
 62
     7
 10
-1304.232662721892
 20
-705.80073382486864
 30
0.0
 11
-1304.232662721892
 21
-355.8007338248687
 31
0.0
  0
LINE
  5
14B
  8
1
 62
     7
 10
-1317.2326627218929
 20
-396.8007338248687
 30
0.0
 11
-1317.2326627218929
 21
-664.80073382486864
 31
0.0
  0
LINE
  5
14C
  8
1
 62
     7
 10
-1316.232662721892
 20
-665.80073382486864
 30
0.0
 11
-1316.232662721892
 21
-395.8007338248687
 31
0.0
  0
LINE
  5
14D
  8
1
 62
     7
 10
-1700.232662721892
 20
-383.64603328648951
 30
0.0
 11
-1702.2326627218929
 21
-382.49133274811021
 31
0.0
  0
LINE
  5
14E
  8
1
 62
     7
 10
-1700.232662721892
 20
-385.95543436324812
 30
0.0
 11
-1700.232662721892
 21
-383.64603328648951
 31
0.0
  0
LINE
  5
14F
  8
1
 62
     7
 10
-1702.2326627218929
 20
-387.1101349016273
 30
0.0
 11
-1700.232662721892
 21
-385.95543436324812
 31
0.0
  0
LINE
  5
150
  8
1
 62
     7
 10
-1704.2326627218929
 20
-385.95543436324812
 30
0.0
 11
-1702.2326627218929
 21
-387.1101349016273
 31
0.0
  0
LINE
  5
151
  8
1
 62
     7
 10
-1704.2326627218929
 20
-383.64603328648951
 30
0.0
 11
-1704.2326627218929
 21
-385.95543436324812
 31
0.0
  0
LINE
  5
152
  8
1
 62
     7
 10
-1702.2326627218929
 20
-382.49133274811021
 30
0.0
 11
-1704.2326627218929
 21
-383.64603328648951
 31
0.0
  0
LINE
  5
153
  8
1
 62
     7
 10
-1656.2326627218929
 20
-383.64603328648951
 30
0.0
 11
-1658.2326627218929
 21
-382.49133274811021
 31
0.0
  0
LINE
  5
154
  8
1
 62
     7
 10
-1656.2326627218929
 20
-385.95543436324812
 30
0.0
 11
-1656.2326627218929
 21
-383.64603328648951
 31
0.0
  0
LINE
  5
155
  8
1
 62
     7
 10
-1658.2326627218929
 20
-387.1101349016273
 30
0.0
 11
-1656.2326627218929
 21
-385.95543436324812
 31
0.0
  0
LINE
  5
156
  8
1
 62
     7
 10
-1660.2326627218929
 20
-385.95543436324812
 30
0.0
 11
-1658.2326627218929
 21
-387.1101349016273
 31
0.0
  0
LINE
  5
157
  8
1
 62
     7
 10
-1660.2326627218929
 20
-383.64603328648951
 30
0.0
 11
-1660.2326627218929
 21
-385.95543436324812
 31
0.0
  0
LINE
  5
158
  8
1
 62
     7
 10
-1658.2326627218929
 20
-382.49133274811021
 30
0.0
 11
-1660.2326627218929
 21
-383.64603328648951
 31
0.0
  0
LINE
  5
159
  8
1
 62
     7
 10
-1314.4326627218929
 20
-389.0507338248687
 30
0.0
 11
-1314.4326627218929
 21
-380.5507338248687
 31
0.0
  0
LINE
  5
15A
  8
1
 62
     7
 10
-1314.4326627218929
 20
-380.5507338248687
 30
0.0
 11
-1309.7326627218929
 21
-380.5507338248687
 31
0.0
  0
LINE
  5
15B
  8
1
 62
     7
 10
-1314.732662721892
 20
-381.07034906713932
 30
0.0
 11
-1314.4326627218929
 21
-380.5507338248687
 31
0.0
  0
LINE
  5
15C
  8
1
 62
     7
 10
-1314.732662721892
 20
-388.53111858259808
 30
0.0
 11
-1314.732662721892
 21
-381.07034906713932
 31
0.0
  0
LINE
  5
15D
  8
1
 62
     7
 10
-1314.4326627218929
 20
-389.0507338248687
 30
0.0
 11
-1314.732662721892
 21
-388.53111858259808
 31
0.0
  0
LINE
  5
15E
  8
1
 62
     7
 10
-1309.7326627218929
 20
-389.0507338248687
 30
0.0
 11
-1314.4326627218929
 21
-389.0507338248687
 31
0.0
  0
LINE
  5
15F
  8
1
 62
     7
 10
-1309.7326627218929
 20
-380.20073382486868
 30
0.0
 11
-1308.4326627218929
 21
-380.20073382486868
 31
0.0
  0
LINE
  5
160
  8
1
 62
     7
 10
-1309.7326627218929
 20
-389.40073382486872
 30
0.0
 11
-1309.7326627218929
 21
-380.20073382486868
 31
0.0
  0
LINE
  5
161
  8
1
 62
     7
 10
-1308.4326627218929
 20
-389.40073382486872
 30
0.0
 11
-1309.7326627218929
 21
-389.40073382486872
 31
0.0
  0
LINE
  5
162
  8
1
 62
     7
 10
-1308.4326627218929
 20
-383.50073382486869
 30
0.0
 11
-1309.7326627218929
 21
-384.8007338248687
 31
0.0
  0
LINE
  5
163
  8
1
 62
     7
 10
-1308.4326627218929
 20
-384.8007338248687
 30
0.0
 11
-1309.7326627218929
 21
-386.10073382486871
 31
0.0
  0
LINE
  5
164
  8
1
 62
     7
 10
-1308.4326627218929
 20
-373.96153606078371
 30
0.0
 11
-1308.4326627218929
 21
-396.1897774978666
 31
0.0
  0
LINE
  5
165
  8
1
 62
     7
 10
-1305.2326627218929
 20
-396.1897774978666
 30
0.0
 11
-1308.4326627218929
 21
-396.1897774978666
 31
0.0
  0
LINE
  5
166
  8
1
 62
     7
 10
-1305.2326627218929
 20
-375.23314526372559
 30
0.0
 11
-1308.4326627218929
 21
-375.23314526372559
 31
0.0
  0
LINE
  5
167
  8
1
 62
     7
 10
-1305.2326627218929
 20
-373.96153606078371
 30
0.0
 11
-1308.4326627218929
 21
-373.96153606078371
 31
0.0
  0
LINE
  5
168
  8
1
 62
     7
 10
-1710.232662721892
 20
-391.1897774978666
 30
0.0
 11
-1710.232662721892
 21
-379.16740441402681
 31
0.0
  0
LINE
  5
169
  8
1
 62
     7
 10
-1650.232662721892
 20
-391.1897774978666
 30
0.0
 11
-1650.232662721892
 21
-379.16740441402681
 31
0.0
  0
LINE
  5
16A
  8
1
 62
     7
 10
-1665.232662721892
 20
-300.80073382486881
 30
0.0
 11
-1695.2326627218929
 21
-300.80073382486881
 31
0.0
  0
LINE
  5
16B
  8
1
 62
     7
 10
-1695.2326627218929
 20
-394.68967166139282
 30
0.0
 11
-1695.2326627218929
 21
-300.80073382486881
 31
0.0
  0
LINE
  5
16C
  8
1
 62
     7
 10
-1665.232662721892
 20
-394.68967166139282
 30
0.0
 11
-1665.232662721892
 21
-300.80073382486881
 31
0.0
  0
LINE
  5
16D
  8
1
 62
     7
 10
-1694.232662721892
 20
-477.61238923697982
 30
0.0
 11
-1694.232662721892
 21
-466.8007338248687
 31
0.0
  0
LINE
  5
16E
  8
1
 62
     7
 10
-1694.232662721892
 20
-466.8007338248687
 30
0.0
 11
-1666.232662721892
 21
-466.8007338248687
 31
0.0
  0
LINE
  5
16F
  8
1
 62
     7
 10
-1666.232662721892
 20
-466.8007338248687
 30
0.0
 11
-1666.232662721892
 21
-477.61238923697982
 31
0.0
  0
ARC
  5
170
  8
1
 62
     7
 10
-385.23266272189278
 20
-530.80073382486864
 30
0.0
 40
55.000000000000071
 50
104.74665287524461
 51
75.253347124755351
  0
ARC
  5
171
  8
1
 62
     7
 10
-385.23266272189278
 20
-530.80073382486864
 30
0.0
 40
175.0
 50
36.562427868634273
 51
83.43757213136584
  0
ARC
  5
172
  8
1
 62
     7
 10
-385.23266272189278
 20
-530.80073382486864
 30
0.0
 40
175.0
 50
156.5624278686341
 51
203.4375721313655
  0
ARC
  5
173
  8
1
 62
     7
 10
-385.23266272189278
 20
-530.80073382486864
 30
0.0
 40
175.0
 50
216.56242786863399
 51
263.43757213136581
  0
ARC
  5
174
  8
1
 62
     7
 10
-385.23266272189278
 20
-530.80073382486864
 30
0.0
 40
174.99999999999949
 50
336.5624278686343
 51
23.437572131365918
  0
ARC
  5
175
  8
1
 62
     7
 10
-385.23266272189278
 20
-530.80073382486864
 30
0.0
 40
175.0
 50
276.56242786863419
 51
323.43757213136581
  0
ARC
  5
176
  8
1
 62
     7
 10
-385.23266272189278
 20
-530.80073382486864
 30
0.0
 40
175.0
 50
96.562427868634146
 51
143.43757213136561
  0
ARC
  5
177
  8
1
 62
     7
 10
-385.23266272189278
 20
-530.80073382486864
 30
0.0
 40
175.0
 50
83.43757213136584
 51
96.562427868634146
  0
ARC
  5
178
  8
1
 62
     7
 10
-385.23266272189278
 20
-530.80073382486864
 30
0.0
 40
175.0
 50
143.43757213136561
 51
156.5624278686341
  0
ARC
  5
179
  8
1
 62
     7
 10
-385.23266272189278
 20
-530.80073382486864
 30
0.0
 40
174.9999999999996
 50
203.4375721313655
 51
216.56242786863399
  0
ARC
  5
17A
  8
1
 62
     7
 10
-385.23266272189278
 20
-530.80073382486864
 30
0.0
 40
175.0
 50
263.43757213136581
 51
276.56242786863419
  0
ARC
  5
17B
  8
1
 62
     7
 10
-385.23266272189278
 20
-530.80073382486864
 30
0.0
 40
174.99999999999989
 50
323.43757213136581
 51
336.5624278686343
  0
ARC
  5
17C
  8
1
 62
     7
 10
-385.23266272189278
 20
-530.80073382486864
 30
0.0
 40
175.0
 50
23.437572131365918
 51
36.562427868634273
  0
ARC
  5
17D
  8
1
 62
     7
 10
-921.9906627218927
 20
-370.4857338248687
 30
0.0
 40
3.0
 50
180.0
 51
270.0
  0
ARC
  5
17E
  8
1
 62
     7
 10
-921.9906627218927
 20
-370.4857338248687
 30
0.0
 40
5.6299999999999963
 50
180.0
 51
270.0
  0
ARC
  5
17F
  8
1
 62
     7
 10
-1680.232662721892
 20
-520.80073382486842
 30
0.0
 40
126.9999999999999
 50
79.08258268418632
 51
100.91741731581369
  0
ARC
  5
180
  8
1
 62
     7
 10
-1680.232662721892
 20
-520.80073382486842
 30
0.0
 40
148.0
 50
97.180755781458302
 51
100.40212100895189
  0
ARC
  5
181
  8
1
 62
     7
 10
-1680.232662721892
 20
-520.80073382486842
 30
0.0
 40
147.99999999999989
 50
79.597878991048233
 51
82.819244218541741
  0
ARC
  5
182
  8
1
 62
     7
 10
-1680.232662721892
 20
-530.80073382486864
 30
0.0
 40
55.000000000000071
 50
104.74665287524461
 51
75.253347124755351
  0
ARC
  5
183
  8
1
 62
     7
 10
-1680.232662721892
 20
-530.80073382486864
 30
0.0
 40
175.0
 50
94.917100335528801
 51
85.082899664471199
  0
CIRCLE
  5
184
  8
1
 62
     7
 10
-902.73266272189255
 20
-437.0507338248687
 30
0.0
 40
11.25
  0
CIRCLE
  5
185
  8
1
 62
     7
 10
-867.73266272189255
 20
-437.0507338248687
 30
0.0
 40
11.25
  0
CIRCLE
  5
186
  8
1
 62
     7
 10
-385.23266272189278
 20
-530.80073382486864
 30
0.0
 40
159.0
  0
CIRCLE
  5
187
  8
1
 62
     7
 10
-385.23266272189278
 20
-530.80073382486864
 30
0.0
 40
149.0
  0
CIRCLE
  5
188
  8
1
 62
     7
 10
-385.23266272189278
 20
-530.80073382486864
 30
0.0
 40
104.0
  0
CIRCLE
  5
189
  8
1
 62
     7
 10
-385.23266272189278
 20
-530.80073382486864
 30
0.0
 40
90.0
  0
CIRCLE
  5
18A
  8
1
 62
     7
 10
-902.73266272189255
 20
-624.55073382486864
 30
0.0
 40
11.25
  0
CIRCLE
  5
18B
  8
1
 62
     7
 10
-867.73266272189255
 20
-624.55073382486864
 30
0.0
 40
11.25
  0
CIRCLE
  5
18C
  8
1
 62
     7
 10
-1702.2326627218929
 20
-384.8007338248687
 30
0.0
 40
4.6000000000001364
  0
CIRCLE
  5
18D
  8
1
 62
     7
 10
-1658.2326627218929
 20
-384.8007338248687
 30
0.0
 40
4.6000000000001364
  0
CIRCLE
  5
18E
  8
1
 62
     7
 10
-1702.2326627218929
 20
-384.8007338248687
 30
0.0
 40
4.25
  0
CIRCLE
  5
18F
  8
1
 62
     7
 10
-1658.2326627218929
 20
-384.8007338248687
 30
0.0
 40
4.25
  0
CIRCLE
  5
190
  8
1
 62
     7
 10
-1680.232662721892
 20
-530.80073382486864
 30
0.0
 40
75.0
  0
CIRCLE
  5
191
  8
1
 62
     7
 10
-1680.232662721892
 20
-530.80073382486864
 30
0.0
 40
135.0
  0
CIRCLE
  5
192
  8
1
 62
     7
 10
-1680.232662721892
 20
-530.80073382486864
 30
0.0
 40
112.5
  0
ARC
  5
193
  8
1
 62
     7
 10
-746.03266272189285
 20
-429.8007338248687
 30
0.0
 40
3.0
 50
90.0
 51
180.0
  0
ARC
  5
194
  8
1
 62
     7
 10
-746.03266272189285
 20
-631.80073382486864
 30
0.0
 40
3.0
 50
180.0
 51
270.0
  0
ARC
  5
195
  8
1
 62
     7
 10
-1705.232662721892
 20
-391.1897774978666
 30
0.0
 40
5.0
 50
180.0
 51
280.91741731581732
  0
ARC
  5
196
  8
1
 62
     7
 10
-1655.232662721892
 20
-391.1897774978666
 30
0.0
 40
4.9999999999999574
 50
259.08258268418012
 51
0.0
  0
ARC
  5
197
  8
1
 62
     7
 10
-1706.2326627218929
 20
-379.16740441402681
 30
0.0
 40
3.9999999999999352
 50
100.4021210089512
 51
180.0
  0
ARC
  5
198
  8
1
 62
     7
 10
-1654.2326627218929
 20
-379.16740441402681
 30
0.0
 40
4.0
 50
0.0
 51
79.5978789910519
  0
ARC
  5
199
  8
1
 62
     7
 10
-1699.232662721892
 20
-369.99290909418681
 30
0.0
 40
3.999999999999901
 50
277.1807557814584
 51
0.0
  0
ARC
  5
19A
  8
1
 62
     7
 10
-1661.2326627218929
 20
-369.99290909418681
 30
0.0
 40
4.0
 50
180.0
 51
262.81924421854143
  0
TEXT
  5
19C
  8
1
 62
     7
 10
-1846.60798880992
 20
-168.7332060291269
 30
0.0
 40
20.0
  1
MDC 320
 41
0.9
  7
SIMPLEX
  0
ENDSEC
  0
EOF
