  0
SECTION
  2
HEADER
  9
$ACADVER
  1
AC1009
  9
$INSBASE
 10
0
 20
0
  9
$EXTMIN
 10
-1054.65862025661
 20
-427.2130455822848
  9
$EXTMAX
 10
-156.3158972808509
 20
-100.8863331255132
  9
$LIMMIN
 10
-1054.65862025661
 20
-427.2130455822848
  9
$LIMMAX
 10
-156.3158972808509
 20
-100.8863331255132
  9
$VIEWCTR
 10
10
 20
10
  9
$VIEWSIZE
 40
10
  9
$SNAPMODE
 70
0
  9
$SNAPUNIT
 10
1
 20
1
  9
$SNAPBASE
 10
0
 20
0
  9
$SNAPANG
 50
0
  9
$SNAPSTYLE
 70
0
  9
$SNAPISOPAIR
 70
0
  9
$GRIDMODE
 70
0
  9
$GRIDUNIT
 10
0
 20
0
  9
$ORTHOMODE
 70
0
  9
$REGENMODE
 70
1
  9
$FILLMODE
 70
1
  9
$QTEXTMODE
 70
0
  9
$DRAGMODE
 70
2
  9
$LTSCALE
 40
1
  9
$OSMODE
 70
0
  9
$ATTMODE
 70
1
  9
$TEXTSIZE
 40
3.5
  9
$TRACEWID
 40
0.5
  9
$TEXTSTYLE
  7
STANDARD
  9
$CLAYER
  8
0
  9
$CELTYPE
  6
BYLAYER
  9
$CECOLOR
 62
256
  9
$DIMSCALE
 40
1
  9
$DIMASZ
 40
0.18
  9
$DIMEXO
 40
0.0625
  9
$DIMDLI
 40
0.38
  9
$DIMRND
 40
0
  9
$DIMDLE
 40
0
  9
$DIMEXE
 40
0.18
  9
$DIMTP
 40
0
  9
$DIMTM
 40
0
  9
$DIMTXT
 40
0.18
  9
$DIMCEN
 40
0.09
  9
$DIMTSZ
 40
0
  9
$DIMTOL
 70
0
  9
$DIMLIM
 70
0
  9
$DIMTIH
 70
1
  9
$DIMTOH
 70
1
  9
$DIMSE1
 70
0
  9
$DIMSE2
 70
0
  9
$DIMTAD
 70
0
  9
$DIMZIN
 70
0
  9
$DIMBLK
  1

  9
$DIMASO
 70
1
  9
$DIMSHO
 70
1
  9
$DIMPOST
  1

  9
$DIMAPOST
  1

  9
$DIMALT
 70
0
  9
$DIMALTD
 70
2
  9
$DIMALTF
 40
25.4
  9
$DIMLFAC
 40
1
  9
$DIMTOFL
 70
0
  9
$DIMTVP
 40
0
  9
$DIMTIX
 70
0
  9
$DIMSOXD
 70
0
  9
$DIMSAH
 70
0
  9
$DIMBLK1
  1

  9
$DIMBLK2
  1

  9
$DIMSTYLE
  2
*UNNAMED
  9
$DIMCLRD
 70
0
  9
$DIMCLRE
 70
0
  9
$DIMCLRT
 70
0
  9
$DIMTFAC
 40
1
  9
$DIMGAP
 40
0.09
  9
$LUNITS
 70
2
  9
$LUPREC
 70
4
  9
$AXISMODE
 70
0
  9
$AXISUNIT
 10
0
 20
0
  9
$SKETCHINC
 40
0.1
  9
$FILLETRAD
 40
2
  9
$AUNITS
 70
0
  9
$AUPREC
 70
0
  9
$MENU
  1
ACAD
  9
$ELEVATION
 40
0
  9
$THICKNESS
 40
0
  9
$VIEWDIR
 10
0
 20
0
 30
1
  9
$LIMCHECK
 70
0
  9
$BLIPMODE
 70
1
  9
$CHAMFERA
 40
0
  9
$CHAMFERB
 40
0
  9
$FASTZOOM
 70
1
  9
$SKPOLY
 70
0
  9
$ANGBASE
 50
0
  9
$ANGDIR
 70
0
  9
$PDMODE
 70
0
  9
$PDSIZE
 40
0
  9
$PLINEWID
 40
0
  9
$COORDS
 70
2
  0
ENDSEC
  0
SECTION
  2
TABLES
  0
TABLE
  2
DIMSTYLE
 70
0
  0
ENDTAB
  0
TABLE
  2
LTYPE
 70
9
  0
LTYPE
  2
CONTINUOUS
 70
64
  3
Solid line
 72
65
 73
0
 40
0
  0
LTYPE
  2
BORDER
 70
64
  3
__ __ . __ __ .
 72
65
 73
6
 40
41.37104645283102
 49
11.82029898652315
 49
-5.910149493261574
 49
11.82029898652315
 49
-5.910149493261574
 49
0
 49
-5.910149493261574
  0
LTYPE
  2
CENTER
 70
64
  3
____ _ ____ _
 72
65
 73
4
 40
47.28119594609259
 49
29.55074746630787
 49
-5.910149493261574
 49
5.910149493261574
 49
-5.910149493261574
  0
LTYPE
  2
DASHDOT
 70
64
  3
__ . __ . __ .
 72
65
 73
4
 40
23.64059797304629
 49
11.82029898652315
 49
-5.910149493261574
 49
0
 49
-5.910149493261574
  0
LTYPE
  2
DASHED
 70
64
  3
__ __ __ __ __
 72
65
 73
2
 40
17.73044847978472
 49
11.82029898652315
 49
-5.910149493261574
  0
LTYPE
  2
DIVIDE
 70
64
  3
__ . . __ . . 
 72
65
 73
6
 40
29.55074746630787
 49
11.82029898652315
 49
-5.910149493261574
 49
0
 49
-5.910149493261574
 49
0
 49
-5.910149493261574
  0
LTYPE
  2
DOT
 70
64
  3
..............
 72
65
 73
4
 40
11.82029898652315
 49
0
 49
-5.910149493261574
 49
0
 49
-5.910149493261574
  0
LTYPE
  2
HIDDEN
 70
64
  3
_ _ _ _ _ _ _
 72
65
 73
2
 40
8.86522423989236
 49
5.910149493261574
 49
-2.955074746630787
  0
LTYPE
  2
PHANTOM
 70
64
  3
_____ _ _ _____ _ _ 
 72
65
 73
6
 40
59.10149493261574
 49
29.55074746630787
 49
-5.910149493261574
 49
5.910149493261574
 49
-5.910149493261574
 49
5.910149493261574
 49
-5.910149493261574
  0
ENDTAB
  0
TABLE
  2
LAYER
 70
3
  0
LAYER
  2
1
 70
0
 62
7
  6
CONTINUOUS
  0
LAYER
  2
0
 70
0
 62
7
  6
CONTINUOUS
  0
ENDTAB
  0
TABLE
  2
STYLE
 70
4
  0
STYLE
  2
STANDARD
 70
0
 40
0
 41
1
 50
0
 71
0
 42
3.5
  3
txt
  4

  0
STYLE
  2
SIMPLEX
 70
0
 40
0
 41
1
 50
0
 71
0
 42
3.5
  3
simplex
  4

  0
STYLE
  2
COMPLEX
 70
0
 40
0
 41
1
 50
0
 71
0
 42
3.5
  3
complex
  4

  0
STYLE
  2
ITALIC
 70
0
 40
0
 41
1
 50
0
 71
0
 42
3.5
  3
italic
  4

  0
ENDTAB
  0
TABLE
  2
VIEW
 70
0
  0
ENDTAB
  0
ENDSEC
  0
SECTION
  2
BLOCKS
  0
ENDSEC
  0
SECTION
  2
ENTITIES
  0
LINE
  8
1
 62
3
  6
DASHDOT
 10
-253.8158972808509
 20
-223.2824216349483
 30
0
 11
-253.8158972808509
 21
-241.287336735418
 31
0
  0
LINE
  8
1
 62
3
  6
DASHDOT
 10
-253.8158972808508
 20
-400.2775065344787
 30
0
 11
-253.8158972808508
 21
-427.2130455822848
 31
0
  0
LINE
  8
1
 62
7
 10
-549.8158972808509
 20
-263.2824216349483
 30
0
 11
-554.8158972808509
 21
-263.2824216349483
 31
0
  0
LINE
  8
1
 62
7
 10
-549.8158972808509
 20
-261.2824216349483
 30
0
 11
-549.8158972808509
 21
-275.8913520018785
 31
0
  0
LINE
  8
1
 62
7
 10
-549.8158972808509
 20
-270.7824216349483
 30
0
 11
-545.8158972808509
 21
-270.7824216349483
 31
0
  0
LINE
  8
1
 62
7
 10
-545.8158972808509
 20
-261.2824216349483
 30
0
 11
-549.8158972808509
 21
-261.2824216349483
 31
0
  0
LINE
  8
1
 62
7
 10
-527.8158972808509
 20
-279.6074216349483
 30
0
 11
-527.8158972808509
 21
-266.9574216349482
 31
0
  0
LINE
  8
1
 62
7
 10
-543.8158972808509
 20
-279.6074216349483
 30
0
 11
-543.8158972808509
 21
-266.9574216349482
 31
0
  0
LINE
  8
1
 62
7
 10
-545.8158972808509
 20
-268.1824216349482
 30
0
 11
-538.9765934067068
 21
-268.1824216349482
 31
0
  0
LINE
  8
1
 62
7
 10
-518.9765934067068
 20
-268.1824216349482
 30
0
 11
-532.6552011549951
 21
-268.1824216349482
 31
0
  0
LINE
  8
1
 62
7
 10
-545.8158972808509
 20
-278.3824216349483
 30
0
 11
-538.9765934067068
 21
-278.3824216349483
 31
0
  0
LINE
  8
1
 62
7
 10
-518.9765934067068
 20
-278.3824216349483
 30
0
 11
-532.6552011549951
 21
-278.3824216349483
 31
0
  0
LINE
  8
1
 62
7
 10
-507.8158972808509
 20
-279.6074216349483
 30
0
 11
-507.8158972808509
 21
-266.9574216349482
 31
0
  0
LINE
  8
1
 62
7
 10
-523.8158972808509
 20
-279.6074216349483
 30
0
 11
-523.8158972808509
 21
-266.9574216349482
 31
0
  0
LINE
  8
1
 62
7
 10
-505.8158972808509
 20
-268.1824216349482
 30
0
 11
-512.6552011549951
 21
-268.1824216349482
 31
0
  0
LINE
  8
1
 62
7
 10
-505.8158972808509
 20
-278.3824216349483
 30
0
 11
-512.6552011549951
 21
-278.3824216349483
 31
0
  0
LINE
  8
1
 62
7
 10
-553.8158972808509
 20
-175.7824216349483
 30
0
 11
-550.0774046965197
 21
-175.7824216349483
 31
0
  0
LINE
  8
1
 62
7
 10
-553.8158972808509
 20
-246.7824216349483
 30
0
 11
-543.8158972808509
 21
-246.7824216349483
 31
0
  0
LINE
  8
1
 62
7
 10
-553.8158972808509
 20
-175.7824216349483
 30
0
 11
-553.8158972808509
 21
-246.7824216349483
 31
0
  0
LINE
  8
1
 62
7
 10
-551.8158972808509
 20
-246.7824216349483
 30
0
 11
-551.8158972808509
 21
-175.7824216349483
 31
0
  0
LINE
  8
1
 62
7
 10
-553.8158972808509
 20
-250.2824216349483
 30
0
 11
-543.8158972808509
 21
-250.2824216349483
 31
0
  0
LINE
  8
1
 62
7
 10
-554.8158972808509
 20
-283.2824216349483
 30
0
 11
-554.8158972808509
 21
-251.2824216349483
 31
0
  0
LINE
  8
1
 62
7
 10
-494.0158972808509
 20
-253.2824216349483
 30
0
 11
-494.0158972808509
 21
-231.7824216349483
 31
0
  0
LINE
  8
1
 62
7
 10
-489.5158972808509
 20
-223.2824216349483
 30
0
 11
-482.0158972808509
 21
-230.7824216349483
 31
0
  0
LINE
  8
1
 62
7
 10
-492.5158972808509
 20
-253.2824216349483
 30
0
 11
-492.0158972808509
 21
-253.7824216349483
 31
0
  0
LINE
  8
1
 62
7
 10
-482.0158972808509
 20
-231.7824216349483
 30
0
 11
-482.0158972808509
 21
-230.7824216349483
 31
0
  0
LINE
  8
1
 62
7
 10
-492.0158972808509
 20
-267.7824216349483
 30
0
 11
-492.0158972808509
 21
-253.7824216349483
 31
0
  0
LINE
  8
1
 62
7
 10
-492.0158972808509
 20
-267.7824216349483
 30
0
 11
-505.8158972808509
 21
-267.7824216349483
 31
0
  0
LINE
  8
1
 62
7
 10
-543.8158972808509
 20
-224.2824216349483
 30
0
 11
-542.8158972808509
 21
-223.2824216349483
 31
0
  0
LINE
  8
1
 62
3
 10
-479.0158972808509
 20
-277.8824216349483
 30
0
 11
-460.3158972808509
 21
-223.2824216349483
 31
0
  0
LINE
  8
1
 62
3
 10
-479.0158972808509
 20
-223.2824216349483
 30
0
 11
-460.3158972808509
 21
-277.8824216349483
 31
0
  0
LINE
  8
1
 62
7
 10
-479.0158972808509
 20
-223.2824216349483
 30
0
 11
-460.3158972808509
 21
-223.2824216349483
 31
0
  0
LINE
  8
1
 62
7
 10
-460.3158972808509
 20
-277.8824216349483
 30
0
 11
-460.3158972808509
 21
-223.2824216349483
 31
0
  0
LINE
  8
1
 62
7
 10
-479.0158972808509
 20
-281.7824216349483
 30
0
 11
-479.0158972808509
 21
-223.2824216349483
 31
0
  0
LINE
  8
1
 62
7
 10
-452.3158972808509
 20
-231.7824216349483
 30
0
 11
-449.3158972808509
 21
-234.7824216349483
 31
0
  0
LINE
  8
1
 62
7
 10
-449.3158972808509
 20
-272.7824216349483
 30
0
 11
-449.3158972808509
 21
-234.7824216349483
 31
0
  0
LINE
  8
1
 62
7
 10
-451.3158972808509
 20
-269.4885488579387
 30
0
 11
-451.3158972808509
 21
-266.7824216349483
 31
0
  0
LINE
  8
1
 62
7
 10
-451.3158972808509
 20
-266.7824216349483
 30
0
 11
-449.3158972808509
 21
-264.7824216349483
 31
0
  0
LINE
  8
1
 62
7
 10
-460.3158972808509
 20
-231.7824216349483
 30
0
 11
-452.3158972808509
 21
-231.7824216349483
 31
0
  0
LINE
  8
1
 62
7
 10
-555.8158972808509
 20
-358.2824216349483
 30
0
 11
-555.8158972808509
 21
-283.2824216349483
 31
0
  0
LINE
  8
1
 62
7
 10
-555.8158972808509
 20
-283.2824216349483
 30
0
 11
-548.3158972808509
 21
-283.2824216349483
 31
0
  0
LINE
  8
1
 62
7
 10
-505.0158972808509
 20
-283.2824216349483
 30
0
 11
-505.0158972808509
 21
-281.7824216349483
 31
0
  0
LINE
  8
1
 62
7
 10
-545.8158972808509
 20
-284.7824216349483
 30
0
 11
-548.3158972808509
 21
-284.7824216349483
 31
0
  0
LINE
  8
1
 62
7
 10
-548.3158972808509
 20
-284.7824216349483
 30
0
 11
-548.3158972808509
 21
-277.7824216349483
 31
0
  0
LINE
  8
1
 62
7
 10
-548.3158972808509
 20
-277.7824216349483
 30
0
 11
-545.8158972808509
 21
-277.7824216349483
 31
0
  0
LINE
  8
1
 62
7
 10
-490.0158972808509
 20
-268.1324216349483
 30
0
 11
-490.0158972808509
 21
-242.2824216349483
 31
0
  0
LINE
  8
1
 62
7
 10
-492.0158972808509
 20
-242.2824216349483
 30
0
 11
-492.0158972808509
 21
-232.1324216349483
 31
0
  0
LINE
  8
1
 62
7
 10
-492.0158972808509
 20
-232.1324216349483
 30
0
 11
-479.0158972808509
 21
-232.1324216349483
 31
0
  0
LINE
  8
1
 62
7
 10
-490.0158972808509
 20
-268.1324216349483
 30
0
 11
-504.8158972808509
 21
-268.1324216349483
 31
0
  0
LINE
  8
1
 62
7
 10
-504.8158972808509
 20
-276.7824216349483
 30
0
 11
-505.8158972808509
 21
-276.7824216349483
 31
0
  0
LINE
  8
1
 62
7
 10
-479.0158972808509
 20
-281.7824216349483
 30
0
 11
-505.8158972808509
 21
-281.7824216349483
 31
0
  0
LINE
  8
1
 62
7
 10
-504.8158972808509
 20
-276.7824216349483
 30
0
 11
-504.8158972808509
 21
-268.1324216349483
 31
0
  0
LINE
  8
1
 62
3
  6
DASHDOT
 10
-480.4008981662458
 20
-275.7824216349483
 30
0
 11
-452.4748570078419
 21
-275.7824216349483
 31
0
  0
LINE
  8
1
 62
7
 10
-448.8158972808509
 20
-364.7824216349483
 30
0
 11
-448.8158972808509
 21
-276.7824216349483
 31
0
  0
LINE
  8
1
 62
7
 10
-451.3158972808509
 20
-276.7824216349483
 30
0
 11
-448.8158972808509
 21
-276.7824216349483
 31
0
  0
LINE
  8
1
 62
7
 10
-454.3158972808509
 20
-267.7824216349483
 30
0
 11
-454.3158972808509
 21
-278.5324216349483
 31
0
  0
LINE
  8
1
 62
7
 10
-451.3158972808509
 20
-278.5324216349483
 30
0
 11
-451.3158972808509
 21
-270.5324216349483
 31
0
  0
LINE
  8
1
 62
7
 10
-451.3158972808509
 20
-270.5324216349483
 30
0
 11
-454.3158972808509
 21
-270.5324216349483
 31
0
  0
LINE
  8
1
 62
7
 10
-508.8158972808509
 20
-351.7824216349483
 30
0
 11
-508.8158972808509
 21
-289.7824216349483
 31
0
  0
LINE
  8
1
 62
7
 10
-500.8158972808509
 20
-351.7824216349483
 30
0
 11
-500.8158972808509
 21
-289.7824216349483
 31
0
  0
LINE
  8
1
 62
7
 10
-474.8158972808509
 20
-351.7824216349483
 30
0
 11
-474.8158972808509
 21
-289.7824216349483
 31
0
  0
LINE
  8
1
 62
7
 10
-466.8158972808509
 20
-351.7824216349483
 30
0
 11
-466.8158972808509
 21
-289.7824216349483
 31
0
  0
LINE
  8
1
 62
7
 10
-474.8158972808509
 20
-289.7824216349483
 30
0
 11
-466.8158972808509
 21
-289.7824216349483
 31
0
  0
LINE
  8
1
 62
7
 10
-508.8158972808509
 20
-289.7824216349483
 30
0
 11
-500.8158972808509
 21
-289.7824216349483
 31
0
  0
LINE
  8
1
 62
7
 10
-500.8158972808509
 20
-290.7824216349483
 30
0
 11
-474.8158972808509
 21
-290.7824216349483
 31
0
  0
LINE
  8
1
 62
7
 10
-555.8158972808509
 20
-290.7824216349483
 30
0
 11
-508.8158972808509
 21
-290.7824216349483
 31
0
  0
LINE
  8
1
 62
7
 10
-547.0774046965197
 20
-234.6524216349483
 30
0
 11
-547.0774046965197
 21
-162.1129067877196
 31
0
  0
LINE
  8
1
 62
7
 10
-550.0774046965197
 20
-162.1129067877196
 30
0
 11
-550.0774046965197
 21
-234.6524216349483
 31
0
  0
LINE
  8
1
 62
7
 10
-550.0774046965197
 20
-162.1129067877196
 30
0
 11
-547.0774046965197
 21
-162.1129067877196
 31
0
  0
LINE
  8
1
 62
7
 10
-548.2180104792955
 20
-157.9940118312767
 30
0
 11
-548.2180104792955
 21
-162.1129067877196
 31
0
  0
LINE
  8
1
 62
7
 10
-548.4614710780603
 20
-157.9940118312767
 30
0
 11
-548.4614710780603
 21
-162.1129067877196
 31
0
  0
LINE
  8
1
 62
7
 10
-548.9367989137439
 20
-162.1129067877196
 30
0
 11
-548.9367989137439
 21
-157.9940118312767
 31
0
  0
LINE
  8
1
 62
7
 10
-548.6933383149791
 20
-162.1129067877196
 30
0
 11
-548.6933383149791
 21
-157.9940118312767
 31
0
  0
LINE
  8
1
 62
7
 10
-543.8158972808509
 20
-250.2824216349483
 30
0
 11
-543.8158972808509
 21
-175.7824216349483
 31
0
  0
LINE
  8
1
 62
7
 10
-261.8158972808509
 20
-417.9536622362703
 30
0
 11
-261.8158972808509
 21
-410.7824216349483
 31
0
  0
LINE
  8
1
 62
7
 10
-261.8158972808509
 20
-410.7824216349483
 30
0
 11
-245.8158972808509
 21
-410.7824216349483
 31
0
  0
LINE
  8
1
 62
7
 10
-245.8158972808509
 20
-410.7824216349483
 30
0
 11
-245.8158972808509
 21
-417.9536622362703
 31
0
  0
LINE
  8
1
 62
7
 10
-173.6631344028563
 20
-376.2962451658848
 30
0
 11
-179.8736109402514
 21
-372.7106248652237
 31
0
  0
LINE
  8
1
 62
7
 10
-179.8736109402514
 20
-372.7106248652237
 30
0
 11
-171.8736109402514
 21
-358.8542184046728
 31
0
  0
LINE
  8
1
 62
7
 10
-179.8736109402514
 20
-372.7106248652237
 30
0
 11
-171.8736109402514
 21
-358.8542184046728
 31
0
  0
LINE
  8
1
 62
7
 10
-171.8736109402514
 20
-358.8542184046728
 30
0
 11
-165.6631344028563
 21
-362.4398387053337
 31
0
  0
LINE
  8
1
 62
7
 10
-171.8736109402514
 20
-282.7106248652239
 30
0
 11
-179.8736109402514
 21
-268.8542184046728
 31
0
  0
LINE
  8
1
 62
7
 10
-171.8736109402514
 20
-282.7106248652239
 30
0
 11
-179.8736109402514
 21
-268.8542184046728
 31
0
  0
LINE
  8
1
 62
7
 10
-171.8736109402514
 20
-282.7106248652239
 30
0
 11
-179.8736109402514
 21
-268.8542184046728
 31
0
  0
LINE
  8
1
 62
7
 10
-179.8736109402514
 20
-268.8542184046728
 30
0
 11
-173.6631344028563
 21
-265.2685981040119
 31
0
  0
LINE
  8
1
 62
7
 10
-165.6631344028563
 20
-279.1250045645628
 30
0
 11
-171.8736109402514
 21
-282.7106248652239
 31
0
  0
LINE
  8
1
 62
7
 10
-245.8158972808508
 20
-230.7824216349483
 30
0
 11
-261.8158972808508
 21
-230.7824216349483
 31
0
  0
LINE
  8
1
 62
7
 10
-245.8158972808508
 20
-230.7824216349483
 30
0
 11
-261.8158972808508
 21
-230.7824216349483
 31
0
  0
LINE
  8
1
 62
7
 10
-245.8158972808508
 20
-230.7824216349483
 30
0
 11
-261.8158972808508
 21
-230.7824216349483
 31
0
  0
LINE
  8
1
 62
7
 10
-245.8158972808509
 20
-223.6111810336264
 30
0
 11
-245.8158972808508
 21
-230.7824216349483
 31
0
  0
LINE
  8
1
 62
7
 10
-261.8158972808508
 20
-230.7824216349483
 30
0
 11
-261.8158972808508
 21
-223.6111810336264
 31
0
  0
LINE
  8
1
 62
7
 10
-327.7581836214504
 20
-268.8542184046727
 30
0
 11
-335.7581836214504
 21
-282.7106248652237
 31
0
  0
LINE
  8
1
 62
7
 10
-327.7581836214504
 20
-268.8542184046727
 30
0
 11
-335.7581836214504
 21
-282.7106248652237
 31
0
  0
LINE
  8
1
 62
7
 10
-327.7581836214504
 20
-268.8542184046727
 30
0
 11
-335.7581836214504
 21
-282.7106248652237
 31
0
  0
LINE
  8
1
 62
7
 10
-333.9686601588455
 20
-265.2685981040117
 30
0
 11
-327.7581836214504
 21
-268.8542184046727
 31
0
  0
LINE
  8
1
 62
7
 10
-335.7581836214504
 20
-282.7106248652237
 30
0
 11
-341.9686601588455
 21
-279.1250045645628
 31
0
  0
LINE
  8
1
 62
7
 10
-335.7581836214504
 20
-358.8542184046727
 30
0
 11
-327.7581836214504
 21
-372.7106248652236
 31
0
  0
LINE
  8
1
 62
7
 10
-335.7581836214504
 20
-358.8542184046727
 30
0
 11
-327.7581836214504
 21
-372.7106248652236
 31
0
  0
LINE
  8
1
 62
7
 10
-335.7581836214504
 20
-358.8542184046727
 30
0
 11
-327.7581836214504
 21
-372.7106248652236
 31
0
  0
LINE
  8
1
 62
7
 10
-341.9686601588456
 20
-362.4398387053336
 30
0
 11
-335.7581836214504
 21
-358.8542184046727
 31
0
  0
LINE
  8
1
 62
7
 10
-335.7581836214504
 20
-358.8542184046727
 30
0
 11
-327.7581836214504
 21
-372.7106248652236
 31
0
  0
LINE
  8
1
 62
7
 10
-335.7581836214504
 20
-358.8542184046727
 30
0
 11
-327.7581836214504
 21
-372.7106248652236
 31
0
  0
LINE
  8
1
 62
7
 10
-335.7581836214504
 20
-358.8542184046727
 30
0
 11
-327.7581836214504
 21
-372.7106248652236
 31
0
  0
LINE
  8
1
 62
7
 10
-327.7581836214504
 20
-372.7106248652236
 30
0
 11
-333.9686601588456
 21
-376.2962451658847
 31
0
  0
LINE
  8
1
 62
7
 10
-262.8158972808509
 20
-292.1642455924399
 30
0
 11
-262.8158972808509
 21
-287.7824216349483
 31
0
  0
LINE
  8
1
 62
7
 10
-262.8158972808509
 20
-287.7824216349483
 30
0
 11
-244.8158972808509
 21
-287.7824216349483
 31
0
  0
LINE
  8
1
 62
7
 10
-244.8158972808509
 20
-287.7824216349483
 30
0
 11
-244.8158972808509
 21
-292.1642455924399
 31
0
  0
LINE
  8
1
 62
7
 10
-263.8158972808509
 20
-223.7965979285941
 30
0
 11
-263.8158972808509
 21
-175.7824216349483
 31
0
  0
LINE
  8
1
 62
7
 10
-263.8158972808509
 20
-175.7824216349483
 30
0
 11
-256.8158972808509
 21
-175.7824216349483
 31
0
  0
LINE
  8
1
 62
7
 10
-243.8158972808509
 20
-175.7824216349483
 30
0
 11
-243.8158972808509
 21
-223.7965979285941
 31
0
  0
LINE
  8
1
 62
7
 10
-261.8158972808509
 20
-175.7824216349483
 30
0
 11
-261.8158972808509
 21
-223.6406262219168
 31
0
  0
LINE
  8
1
 62
7
 10
-245.8158972808509
 20
-175.7824216349483
 30
0
 11
-245.8158972808509
 21
-223.6111810336264
 31
0
  0
LINE
  8
1
 62
7
 10
-250.8158972808509
 20
-175.7824216349483
 30
0
 11
-243.8158972808509
 21
-175.7824216349483
 31
0
  0
LINE
  8
1
 62
7
 10
-256.8158972808509
 20
-162.1129067877196
 30
0
 11
-250.8158972808509
 21
-162.1129067877196
 31
0
  0
LINE
  8
1
 62
7
 10
-256.8158972808509
 20
-223.3285864102635
 30
0
 11
-256.8158972808509
 21
-162.1129067877196
 31
0
  0
LINE
  8
1
 62
7
 10
-250.8158972808509
 20
-223.3285864102635
 30
0
 11
-250.8158972808509
 21
-162.1129067877196
 31
0
  0
LINE
  8
1
 62
7
 10
-255.1867897090159
 20
-162.1129067877196
 30
0
 11
-255.1867897090159
 21
-157.9940118312767
 31
0
  0
LINE
  8
1
 62
7
 10
-255.4738661963779
 20
-162.1129067877196
 30
0
 11
-255.4738661963779
 21
-157.9940118312767
 31
0
  0
LINE
  8
1
 62
7
 10
-255.7609426837399
 20
-162.1129067877196
 30
0
 11
-255.7609426837399
 21
-157.9940118312767
 31
0
  0
LINE
  8
1
 62
7
 10
-254.9148225104619
 20
-162.1129067877196
 30
0
 11
-254.9148225104619
 21
-157.9940118312767
 31
0
  0
LINE
  8
1
 62
7
 10
-252.1867897090159
 20
-162.1129067877196
 30
0
 11
-252.1867897090159
 21
-157.9940118312767
 31
0
  0
LINE
  8
1
 62
7
 10
-252.4738661963779
 20
-162.1129067877196
 30
0
 11
-252.4738661963779
 21
-157.9940118312767
 31
0
  0
LINE
  8
1
 62
7
 10
-252.7609426837399
 20
-162.1129067877196
 30
0
 11
-252.7609426837399
 21
-157.9940118312767
 31
0
  0
LINE
  8
1
 62
7
 10
-251.9148225104619
 20
-162.1129067877196
 30
0
 11
-251.9148225104619
 21
-157.9940118312767
 31
0
  0
LINE
  8
1
 62
3
  6
DASHDOT
 10
-184.9711342818569
 20
-281.0348791851831
 30
0
 11
-161.644273201829
 21
-267.56710966128
 31
0
  0
LINE
  8
1
 62
3
  6
DASHDOT
 10
-161.644273201829
 20
-373.9977336086166
 30
0
 11
-184.9711342818569
 21
-360.5299640847135
 31
0
  0
LINE
  8
1
 62
3
  6
DASHDOT
 10
-322.6606602798449
 20
-360.5299640847135
 30
0
 11
-345.9875213598727
 21
-373.9977336086166
 31
0
  0
LINE
  8
1
 62
3
  6
DASHDOT
 10
-345.9875213598727
 20
-267.56710966128
 30
0
 11
-322.6606602798449
 21
-281.0348791851831
 31
0
  0
LINE
  8
1
 62
7
 10
-482.0158972808509
 20
-231.7824216349483
 30
0
 11
-494.0158972808509
 21
-231.7824216349483
 31
0
  0
LINE
  8
1
 62
7
 10
-492.5158972808509
 20
-253.2824216349483
 30
0
 11
-494.0158972808509
 21
-253.2824216349483
 31
0
  0
LINE
  8
1
 62
7
 10
-453.3158972808509
 20
-266.7824216349483
 30
0
 11
-451.3158972808509
 21
-266.7824216349483
 31
0
  0
LINE
  8
1
 62
7
 10
-454.3158972808509
 20
-278.5324216349483
 30
0
 11
-451.3158972808509
 21
-278.5324216349483
 31
0
  0
LINE
  8
1
 62
7
 10
-479.0158972808509
 20
-277.8824216349483
 30
0
 11
-454.3158972808509
 21
-277.8824216349483
 31
0
  0
LINE
  8
1
 62
7
 10
-555.8158972808509
 20
-287.7824216349483
 30
0
 11
-448.8158972808509
 21
-287.7824216349483
 31
0
  0
LINE
  8
1
 62
7
 10
-466.8158972808509
 20
-290.7824216349483
 30
0
 11
-448.8158972808509
 21
-290.7824216349483
 31
0
  0
LINE
  8
1
 62
3
  6
DASHDOT
 10
-253.8158972808509
 20
-331.1749111634177
 30
0
 11
-253.8158972808509
 21
-310.3899321064788
 31
0
  0
LINE
  8
1
 62
3
  6
DASHDOT
 10
-243.4234077523815
 20
-320.7824216349483
 30
0
 11
-264.2083868093203
 21
-320.7824216349483
 31
0
  0
LINE
  8
1
 62
7
 10
-253.8158972808509
 20
-162.1129067877196
 30
0
 11
-253.8158972808509
 21
-223.2824216349483
 31
0
  0
LINE
  8
1
 62
7
 10
-544.4474046965197
 20
-240.2824216349483
 30
0
 11
-543.8158972808509
 21
-240.2824216349483
 31
0
  0
LINE
  8
1
 62
7
 10
-543.8158972808509
 20
-237.2824216349483
 30
0
 11
-544.4474046965197
 21
-237.2824216349483
 31
0
  0
LINE
  8
1
 62
7
 10
-547.0774046965197
 20
-175.7824216349483
 30
0
 11
-543.8158972808509
 21
-175.7824216349483
 31
0
  0
LINE
  8
1
 62
3
  6
DASHDOT
 10
-448.8158972808509
 20
-320.7824216349483
 30
0
 11
-443.8158972808509
 21
-320.7824216349483
 31
0
  0
LINE
  8
1
 62
3
  6
DASHDOT
 10
-560.8158972808509
 20
-320.7824216349483
 30
0
 11
-555.8158972808509
 21
-320.7824216349483
 31
0
  0
LINE
  8
1
 62
7
 10
-479.0158972808509
 20
-273.3824216349483
 30
0
 11
-454.3158972808509
 21
-273.3824216349483
 31
0
  0
LINE
  8
1
 62
7
 10
-545.8158972808509
 20
-263.2824216349483
 30
0
 11
-505.8158972808509
 21
-263.2824216349483
 31
0
  0
LINE
  8
1
 62
7
 10
-505.8158972808509
 20
-263.2824216349483
 30
0
 11
-505.8158972808509
 21
-283.2824216349483
 31
0
  0
LINE
  8
1
 62
7
 10
-505.0158972808509
 20
-283.2824216349483
 30
0
 11
-545.8158972808509
 21
-283.2824216349483
 31
0
  0
LINE
  8
1
 62
7
 10
-525.8158972808509
 20
-263.2824216349483
 30
0
 11
-525.8158972808509
 21
-283.2824216349483
 31
0
  0
LINE
  8
1
 62
7
 10
-545.8158972808509
 20
-261.2824216349483
 30
0
 11
-545.8158972808509
 21
-284.7824216349483
 31
0
  0
LINE
  8
1
 62
7
 10
-554.8158972808509
 20
-378.2824216349483
 30
0
 11
-549.8158972808509
 21
-378.2824216349483
 31
0
  0
LINE
  8
1
 62
7
 10
-549.8158972808509
 20
-365.673491268018
 30
0
 11
-549.8158972808509
 21
-380.2824216349483
 31
0
  0
LINE
  8
1
 62
7
 10
-545.8158972808509
 20
-370.7824216349483
 30
0
 11
-549.8158972808509
 21
-370.7824216349483
 31
0
  0
LINE
  8
1
 62
7
 10
-549.8158972808509
 20
-380.2824216349483
 30
0
 11
-545.8158972808509
 21
-380.2824216349483
 31
0
  0
LINE
  8
1
 62
7
 10
-527.8158972808509
 20
-374.6074216349483
 30
0
 11
-527.8158972808509
 21
-361.9574216349482
 31
0
  0
LINE
  8
1
 62
7
 10
-543.8158972808509
 20
-374.6074216349483
 30
0
 11
-543.8158972808509
 21
-361.9574216349482
 31
0
  0
LINE
  8
1
 62
7
 10
-538.9765934067068
 20
-373.3824216349483
 30
0
 11
-545.8158972808509
 21
-373.3824216349483
 31
0
  0
LINE
  8
1
 62
7
 10
-532.6552011549951
 20
-373.3824216349483
 30
0
 11
-518.9765934067068
 21
-373.3824216349483
 31
0
  0
LINE
  8
1
 62
7
 10
-538.9765934067068
 20
-363.1824216349482
 30
0
 11
-545.8158972808509
 21
-363.1824216349482
 31
0
  0
LINE
  8
1
 62
7
 10
-532.6552011549951
 20
-363.1824216349482
 30
0
 11
-518.9765934067068
 21
-363.1824216349482
 31
0
  0
LINE
  8
1
 62
7
 10
-507.8158972808509
 20
-374.6074216349483
 30
0
 11
-507.8158972808509
 21
-361.9574216349482
 31
0
  0
LINE
  8
1
 62
7
 10
-523.8158972808509
 20
-374.6074216349483
 30
0
 11
-523.8158972808509
 21
-361.9574216349482
 31
0
  0
LINE
  8
1
 62
7
 10
-512.6552011549951
 20
-373.3824216349483
 30
0
 11
-505.8158972808509
 21
-373.3824216349483
 31
0
  0
LINE
  8
1
 62
7
 10
-512.6552011549951
 20
-363.1824216349482
 30
0
 11
-505.8158972808509
 21
-363.1824216349482
 31
0
  0
LINE
  8
1
 62
7
 10
-543.8158972808509
 20
-391.2824216349483
 30
0
 11
-553.8158972808509
 21
-391.2824216349483
 31
0
  0
LINE
  8
1
 62
7
 10
-554.8158972808509
 20
-390.2824216349483
 30
0
 11
-554.8158972808509
 21
-358.2824216349483
 31
0
  0
LINE
  8
1
 62
7
 10
-494.0158972808509
 20
-409.7824216349483
 30
0
 11
-494.0158972808509
 21
-388.2824216349483
 31
0
  0
LINE
  8
1
 62
7
 10
-482.0158972808509
 20
-410.7824216349483
 30
0
 11
-489.5158972808509
 21
-418.2824216349483
 31
0
  0
LINE
  8
1
 62
7
 10
-492.0158972808509
 20
-387.7824216349483
 30
0
 11
-492.5158972808509
 21
-388.2824216349483
 31
0
  0
LINE
  8
1
 62
7
 10
-482.0158972808509
 20
-410.7824216349483
 30
0
 11
-482.0158972808509
 21
-409.7824216349483
 31
0
  0
LINE
  8
1
 62
7
 10
-492.0158972808509
 20
-387.7824216349483
 30
0
 11
-492.0158972808509
 21
-373.7824216349483
 31
0
  0
LINE
  8
1
 62
7
 10
-505.8158972808509
 20
-373.7824216349483
 30
0
 11
-492.0158972808509
 21
-373.7824216349483
 31
0
  0
LINE
  8
1
 62
7
 10
-489.5158972808509
 20
-418.2824216349483
 30
0
 11
-542.8158972808509
 21
-418.2824216349483
 31
0
  0
LINE
  8
1
 62
3
 10
-460.3158972808509
 20
-418.2824216349483
 30
0
 11
-479.0158972808509
 21
-363.6824216349482
 31
0
  0
LINE
  8
1
 62
3
 10
-460.3158972808509
 20
-363.6824216349482
 30
0
 11
-479.0158972808509
 21
-418.2824216349483
 31
0
  0
LINE
  8
1
 62
7
 10
-460.3158972808509
 20
-418.2824216349483
 30
0
 11
-479.0158972808509
 21
-418.2824216349483
 31
0
  0
LINE
  8
1
 62
7
 10
-460.3158972808509
 20
-418.2824216349483
 30
0
 11
-460.3158972808509
 21
-363.6824216349482
 31
0
  0
LINE
  8
1
 62
7
 10
-479.0158972808509
 20
-418.2824216349483
 30
0
 11
-479.0158972808509
 21
-359.7824216349483
 31
0
  0
LINE
  8
1
 62
7
 10
-449.3158972808509
 20
-406.7824216349483
 30
0
 11
-452.3158972808509
 21
-409.7824216349483
 31
0
  0
LINE
  8
1
 62
7
 10
-449.3158972808509
 20
-406.7824216349483
 30
0
 11
-449.3158972808509
 21
-368.7824216349483
 31
0
  0
LINE
  8
1
 62
7
 10
-451.3158972808509
 20
-374.7824216349483
 30
0
 11
-451.3158972808509
 21
-372.0762944119579
 31
0
  0
LINE
  8
1
 62
7
 10
-449.3158972808509
 20
-376.7824216349483
 30
0
 11
-451.3158972808509
 21
-374.7824216349483
 31
0
  0
LINE
  8
1
 62
7
 10
-452.3158972808509
 20
-409.7824216349483
 30
0
 11
-460.3158972808509
 21
-409.7824216349483
 31
0
  0
LINE
  8
1
 62
7
 10
-548.3158972808509
 20
-358.2824216349483
 30
0
 11
-555.8158972808509
 21
-358.2824216349483
 31
0
  0
LINE
  8
1
 62
7
 10
-505.0158972808509
 20
-359.7824216349483
 30
0
 11
-505.0158972808509
 21
-358.2824216349483
 31
0
  0
LINE
  8
1
 62
7
 10
-548.3158972808509
 20
-356.7824216349483
 30
0
 11
-545.8158972808509
 21
-356.7824216349483
 31
0
  0
LINE
  8
1
 62
7
 10
-548.3158972808509
 20
-363.7824216349483
 30
0
 11
-548.3158972808509
 21
-356.7824216349483
 31
0
  0
LINE
  8
1
 62
7
 10
-545.8158972808509
 20
-363.7824216349483
 30
0
 11
-548.3158972808509
 21
-363.7824216349483
 31
0
  0
LINE
  8
1
 62
7
 10
-490.0158972808509
 20
-399.2824216349483
 30
0
 11
-490.0158972808509
 21
-373.4324216349482
 31
0
  0
LINE
  8
1
 62
7
 10
-492.0158972808509
 20
-409.4324216349482
 30
0
 11
-492.0158972808509
 21
-399.2824216349483
 31
0
  0
LINE
  8
1
 62
7
 10
-479.0158972808509
 20
-409.4324216349482
 30
0
 11
-492.0158972808509
 21
-409.4324216349482
 31
0
  0
LINE
  8
1
 62
7
 10
-504.8158972808509
 20
-373.4324216349482
 30
0
 11
-490.0158972808509
 21
-373.4324216349482
 31
0
  0
LINE
  8
1
 62
7
 10
-505.8158972808509
 20
-364.7824216349483
 30
0
 11
-504.8158972808509
 21
-364.7824216349483
 31
0
  0
LINE
  8
1
 62
7
 10
-505.8158972808509
 20
-359.7824216349483
 30
0
 11
-479.0158972808509
 21
-359.7824216349483
 31
0
  0
LINE
  8
1
 62
7
 10
-504.8158972808509
 20
-373.4324216349482
 30
0
 11
-504.8158972808509
 21
-364.7824216349483
 31
0
  0
LINE
  8
1
 62
3
  6
DASHDOT
 10
-452.4748570078419
 20
-365.7824216349483
 30
0
 11
-480.4008981662458
 21
-365.7824216349483
 31
0
  0
LINE
  8
1
 62
7
 10
-448.8158972808509
 20
-364.7824216349483
 30
0
 11
-451.3158972808509
 21
-364.7824216349483
 31
0
  0
LINE
  8
1
 62
7
 10
-454.3158972808509
 20
-363.0324216349483
 30
0
 11
-454.3158972808509
 21
-373.7824216349483
 31
0
  0
LINE
  8
1
 62
7
 10
-451.3158972808509
 20
-371.0324216349483
 30
0
 11
-451.3158972808509
 21
-363.0324216349483
 31
0
  0
LINE
  8
1
 62
7
 10
-454.3158972808509
 20
-371.0324216349483
 30
0
 11
-451.3158972808509
 21
-371.0324216349483
 31
0
  0
LINE
  8
1
 62
7
 10
-466.8158972808509
 20
-351.7824216349483
 30
0
 11
-474.8158972808509
 21
-351.7824216349483
 31
0
  0
LINE
  8
1
 62
7
 10
-500.8158972808509
 20
-351.7824216349483
 30
0
 11
-508.8158972808509
 21
-351.7824216349483
 31
0
  0
LINE
  8
1
 62
7
 10
-474.8158972808509
 20
-350.7824216349483
 30
0
 11
-500.8158972808509
 21
-350.7824216349483
 31
0
  0
LINE
  8
1
 62
7
 10
-508.8158972808509
 20
-350.7824216349483
 30
0
 11
-555.8158972808509
 21
-350.7824216349483
 31
0
  0
LINE
  8
1
 62
7
 10
-494.0158972808509
 20
-409.7824216349483
 30
0
 11
-482.0158972808509
 21
-409.7824216349483
 31
0
  0
LINE
  8
1
 62
7
 10
-494.0158972808509
 20
-388.2824216349483
 30
0
 11
-492.5158972808509
 21
-388.2824216349483
 31
0
  0
LINE
  8
1
 62
7
 10
-451.3158972808509
 20
-374.7824216349483
 30
0
 11
-453.3158972808509
 21
-374.7824216349483
 31
0
  0
LINE
  8
1
 62
7
 10
-451.3158972808509
 20
-363.0324216349483
 30
0
 11
-454.3158972808509
 21
-363.0324216349483
 31
0
  0
LINE
  8
1
 62
7
 10
-454.3158972808509
 20
-363.6824216349482
 30
0
 11
-479.0158972808509
 21
-363.6824216349482
 31
0
  0
LINE
  8
1
 62
7
 10
-448.8158972808509
 20
-350.7824216349483
 30
0
 11
-466.8158972808509
 21
-350.7824216349483
 31
0
  0
LINE
  8
1
 62
7
 10
-454.3158972808509
 20
-368.1824216349482
 30
0
 11
-479.0158972808509
 21
-368.1824216349482
 31
0
  0
LINE
  8
1
 62
7
 10
-505.8158972808509
 20
-378.2824216349483
 30
0
 11
-545.8158972808509
 21
-378.2824216349483
 31
0
  0
LINE
  8
1
 62
7
 10
-505.8158972808509
 20
-358.2824216349483
 30
0
 11
-505.8158972808509
 21
-378.2824216349483
 31
0
  0
LINE
  8
1
 62
7
 10
-545.8158972808509
 20
-358.2824216349483
 30
0
 11
-505.0158972808509
 21
-358.2824216349483
 31
0
  0
LINE
  8
1
 62
7
 10
-525.8158972808509
 20
-358.2824216349483
 30
0
 11
-525.8158972808509
 21
-378.2824216349483
 31
0
  0
LINE
  8
1
 62
7
 10
-545.8158972808509
 20
-356.7824216349483
 30
0
 11
-545.8158972808509
 21
-380.2824216349483
 31
0
  0
LINE
  8
1
 62
7
 10
-543.8158972808509
 20
-391.2824216349483
 30
0
 11
-543.8158972808509
 21
-417.2824216349483
 31
0
  0
LINE
  8
1
 62
7
 10
-758.3158972808509
 20
-246.7824216349483
 30
0
 11
-750.3158972808509
 21
-246.7824216349483
 31
0
  0
LINE
  8
1
 62
7
 10
-758.3158972808509
 20
-175.7824216349483
 30
0
 11
-758.3158972808509
 21
-246.7824216349483
 31
0
  0
LINE
  8
1
 62
7
 10
-758.3158972808509
 20
-250.2824216349483
 30
0
 11
-748.3158972808509
 21
-250.2824216349483
 31
0
  0
LINE
  8
1
 62
7
 10
-759.3158972808509
 20
-390.2824216349483
 30
0
 11
-759.3158972808509
 21
-251.2824216349483
 31
0
  0
LINE
  8
1
 62
7
 10
-694.0158972808509
 20
-223.2824216349483
 30
0
 11
-686.5158972808509
 21
-230.7824216349483
 31
0
  0
LINE
  8
1
 62
7
 10
-686.5158972808509
 20
-410.7824216349483
 30
0
 11
-686.5158972808509
 21
-230.7824216349483
 31
0
  0
LINE
  8
1
 62
7
 10
-748.3158972808509
 20
-224.2824216349483
 30
0
 11
-747.3158972808509
 21
-223.2824216349483
 31
0
  0
LINE
  8
1
 62
7
 10
-683.5158972808509
 20
-223.2824216349483
 30
0
 11
-664.8158972808509
 21
-223.2824216349483
 31
0
  0
LINE
  8
1
 62
7
 10
-664.8158972808509
 20
-418.2824216349483
 30
0
 11
-664.8158972808509
 21
-223.2824216349483
 31
0
  0
LINE
  8
1
 62
7
 10
-656.8158972808509
 20
-231.7824216349483
 30
0
 11
-653.8158972808509
 21
-234.7824216349483
 31
0
  0
LINE
  8
1
 62
7
 10
-653.8158972808509
 20
-406.7824216349483
 30
0
 11
-653.8158972808509
 21
-234.7824216349483
 31
0
  0
LINE
  8
1
 62
7
 10
-664.8158972808509
 20
-231.7824216349483
 30
0
 11
-656.8158972808509
 21
-231.7824216349483
 31
0
  0
LINE
  8
1
 62
7
 10
-760.3158972808509
 20
-358.2824216349483
 30
0
 11
-760.3158972808509
 21
-283.2824216349483
 31
0
  0
LINE
  8
1
 62
7
 10
-760.3158972808509
 20
-283.2824216349483
 30
0
 11
-759.3158972808509
 21
-283.2824216349483
 31
0
  0
LINE
  8
1
 62
7
 10
-653.3158972808509
 20
-364.7824216349483
 30
0
 11
-653.3158972808509
 21
-276.7824216349483
 31
0
  0
LINE
  8
1
 62
7
 10
-751.5774046965197
 20
-175.7824216349483
 30
0
 11
-751.5774046965197
 21
-162.1129067877196
 31
0
  0
LINE
  8
1
 62
7
 10
-754.5774046965197
 20
-162.1129067877196
 30
0
 11
-754.5774046965197
 21
-175.7824216349483
 31
0
  0
LINE
  8
1
 62
7
 10
-754.5774046965197
 20
-162.1129067877196
 30
0
 11
-751.5774046965197
 21
-162.1129067877196
 31
0
  0
LINE
  8
1
 62
7
 10
-752.7180104792955
 20
-157.9940118312767
 30
0
 11
-752.7180104792955
 21
-162.1129067877196
 31
0
  0
LINE
  8
1
 62
7
 10
-752.9614710780603
 20
-157.9940118312767
 30
0
 11
-752.9614710780603
 21
-162.1129067877196
 31
0
  0
LINE
  8
1
 62
7
 10
-753.4367989137439
 20
-162.1129067877196
 30
0
 11
-753.4367989137439
 21
-157.9940118312767
 31
0
  0
LINE
  8
1
 62
7
 10
-753.1933383149791
 20
-162.1129067877196
 30
0
 11
-753.1933383149791
 21
-157.9940118312767
 31
0
  0
LINE
  8
1
 62
7
 10
-758.3158972808509
 20
-175.7824216349483
 30
0
 11
-748.3158972808509
 21
-175.7824216349483
 31
0
  0
LINE
  8
1
 62
3
  6
DASHDOT
 10
-653.3158972808509
 20
-320.7824216349483
 30
0
 11
-648.3158972808509
 21
-320.7824216349483
 31
0
  0
LINE
  8
1
 62
3
  6
DASHDOT
 10
-765.3158972808509
 20
-320.7824216349483
 30
0
 11
-760.3158972808509
 21
-320.7824216349483
 31
0
  0
LINE
  8
1
 62
7
 10
-748.3158972808509
 20
-391.2824216349483
 30
0
 11
-758.3158972808509
 21
-391.2824216349483
 31
0
  0
LINE
  8
1
 62
7
 10
-686.5158972808509
 20
-410.7824216349483
 30
0
 11
-694.0158972808509
 21
-418.2824216349483
 31
0
  0
LINE
  8
1
 62
7
 10
-694.0158972808509
 20
-418.2824216349483
 30
0
 11
-747.3158972808509
 21
-418.2824216349483
 31
0
  0
LINE
  8
1
 62
7
 10
-664.8158972808509
 20
-418.2824216349483
 30
0
 11
-683.5158972808509
 21
-418.2824216349483
 31
0
  0
LINE
  8
1
 62
7
 10
-653.8158972808509
 20
-406.7824216349483
 30
0
 11
-656.8158972808509
 21
-409.7824216349483
 31
0
  0
LINE
  8
1
 62
7
 10
-656.8158972808509
 20
-409.7824216349483
 30
0
 11
-664.8158972808509
 21
-409.7824216349483
 31
0
  0
LINE
  8
1
 62
7
 10
-683.5158972808509
 20
-409.4324216349482
 30
0
 11
-686.5158972808509
 21
-409.4324216349482
 31
0
  0
LINE
  8
1
 62
7
 10
-653.3158972808509
 20
-364.7824216349483
 30
0
 11
-653.8158972808509
 21
-364.7824216349483
 31
0
  0
LINE
  8
1
 62
7
 10
-759.3158972808509
 20
-358.2824216349483
 30
0
 11
-760.3158972808509
 21
-358.2824216349483
 31
0
  0
LINE
  8
1
 62
7
 10
-748.3158972808509
 20
-175.7824216349483
 30
0
 11
-748.3158972808509
 21
-417.2824216349483
 31
0
  0
LINE
  8
1
 62
7
 10
-694.0158972808509
 20
-223.2824216349483
 30
0
 11
-694.0158972808509
 21
-418.2824216349483
 31
0
  0
LINE
  8
1
 62
7
 10
-686.5158972808509
 20
-232.1324216349483
 30
0
 11
-683.5158972808509
 21
-232.1324216349483
 31
0
  0
LINE
  8
1
 62
7
 10
-653.8158972808509
 20
-276.7824216349483
 30
0
 11
-653.3158972808509
 21
-276.7824216349483
 31
0
  0
LINE
  8
1
 62
7
 10
-683.5158972808509
 20
-223.2824216349483
 30
0
 11
-683.5158972808509
 21
-418.2824216349483
 31
0
  0
LINE
  8
1
 62
3
 10
-683.5158972808509
 20
-223.2824216349483
 30
0
 11
-664.8158972808509
 21
-418.2824216349483
 31
0
  0
LINE
  8
1
 62
3
 10
-683.5158972808509
 20
-418.2824216349483
 30
0
 11
-664.8158972808509
 21
-223.2824216349483
 31
0
  0
LINE
  8
1
 62
7
 10
-750.3158972808509
 20
-230.9970817932839
 30
0
 11
-750.3158972808509
 21
-249.0687214032147
 31
0
  0
LINE
  8
1
 62
7
 10
-750.3158972808509
 20
-230.9970817932839
 30
0
 11
-748.3158972808509
 21
-230.9970817932839
 31
0
  0
LINE
  8
1
 62
7
 10
-750.3158972808509
 20
-232.2825175999844
 30
0
 11
-748.3158972808509
 21
-232.2825175999844
 31
0
  0
LINE
  8
1
 62
7
 10
-750.3158972808509
 20
-249.0687214032147
 30
0
 11
-748.3158972808509
 21
-249.0687214032147
 31
0
  0
LINE
  8
1
 62
3
  6
DASHDOT
 10
-955.3158972808509
 20
-331.1749111634177
 30
0
 11
-955.3158972808509
 21
-310.3899321064788
 31
0
  0
LINE
  8
1
 62
3
  6
DASHDOT
 10
-944.9234077523815
 20
-320.7824216349483
 30
0
 11
-965.7083868093203
 21
-320.7824216349483
 31
0
  0
LINE
  8
1
 62
7
 10
-931.3158972808509
 20
-243.0687214032147
 30
0
 11
-931.3158972808509
 21
-237.1319094093196
 31
0
  0
LINE
  8
1
 62
7
 10
-979.3158972808509
 20
-243.0687214032147
 30
0
 11
-979.3158972808509
 21
-237.1319094093195
 31
0
  0
LINE
  8
1
 62
7
 10
-965.3158972808509
 20
-175.7824216349483
 30
0
 11
-945.3158972808509
 21
-175.7824216349483
 31
0
  0
LINE
  8
1
 62
7
 10
-945.3158972808509
 20
-175.7824216349483
 30
0
 11
-945.3158972808509
 21
-247.5443959137479
 31
0
  0
LINE
  8
1
 62
7
 10
-965.3158972808509
 20
-247.5443959137479
 30
0
 11
-965.3158972808509
 21
-175.7824216349483
 31
0
  0
LINE
  8
1
 62
7
 10
-750.3158972808509
 20
-240.7824216349483
 30
0
 11
-751.6158972808509
 21
-242.0824216349483
 31
0
  0
LINE
  8
1
 62
7
 10
-750.3158972808509
 20
-239.4824216349483
 30
0
 11
-751.6158972808509
 21
-240.7824216349483
 31
0
  0
LINE
  8
1
 62
7
 10
-750.3158972808509
 20
-245.3824216349483
 30
0
 11
-751.6158972808509
 21
-245.3824216349483
 31
0
  0
LINE
  8
1
 62
7
 10
-751.6158972808509
 20
-245.3824216349483
 30
0
 11
-751.6158972808509
 21
-236.1824216349483
 31
0
  0
LINE
  8
1
 62
7
 10
-751.6158972808509
 20
-236.1824216349483
 30
0
 11
-750.3158972808509
 21
-236.1824216349483
 31
0
  0
LINE
  8
1
 62
7
 10
-751.6158972808509
 20
-245.0324216349483
 30
0
 11
-756.3158972808509
 21
-245.0324216349483
 31
0
  0
LINE
  8
1
 62
7
 10
-756.3158972808509
 20
-245.0324216349483
 30
0
 11
-756.6158972808509
 21
-244.5128063926776
 31
0
  0
LINE
  8
1
 62
7
 10
-756.6158972808509
 20
-244.5128063926776
 30
0
 11
-756.6158972808509
 21
-237.0520368772189
 31
0
  0
LINE
  8
1
 62
7
 10
-756.6158972808509
 20
-237.0520368772189
 30
0
 11
-756.3158972808509
 21
-236.5324216349483
 31
0
  0
LINE
  8
1
 62
7
 10
-756.3158972808509
 20
-236.5324216349483
 30
0
 11
-751.6158972808509
 21
-236.5324216349483
 31
0
  0
LINE
  8
1
 62
7
 10
-756.3158972808509
 20
-245.0324216349483
 30
0
 11
-756.3158972808509
 21
-236.5324216349483
 31
0
  0
LINE
  8
1
 62
7
 10
-656.8158972808509
 20
-231.7824216349483
 30
0
 11
-656.8158972808509
 21
-409.7824216349483
 31
0
  0
LINE
  8
1
 62
7
 10
-964.3158972808509
 20
-292.1642455924399
 30
0
 11
-964.3158972808509
 21
-287.7824216349483
 31
0
  0
LINE
  8
1
 62
7
 10
-964.3158972808509
 20
-287.7824216349483
 30
0
 11
-946.3158972808509
 21
-287.7824216349483
 31
0
  0
LINE
  8
1
 62
7
 10
-946.3158972808509
 20
-287.7824216349483
 30
0
 11
-946.3158972808509
 21
-292.1642455924399
 31
0
  0
LINE
  8
1
 62
7
 10
-958.3158972808509
 20
-162.1129067877196
 30
0
 11
-952.3158972808509
 21
-162.1129067877196
 31
0
  0
LINE
  8
1
 62
7
 10
-956.6867897090159
 20
-162.1129067877196
 30
0
 11
-956.6867897090159
 21
-157.9940118312767
 31
0
  0
LINE
  8
1
 62
7
 10
-956.9738661963779
 20
-162.1129067877196
 30
0
 11
-956.9738661963779
 21
-157.9940118312767
 31
0
  0
LINE
  8
1
 62
7
 10
-957.2609426837399
 20
-162.1129067877196
 30
0
 11
-957.2609426837399
 21
-157.9940118312767
 31
0
  0
LINE
  8
1
 62
7
 10
-956.4148225104619
 20
-162.1129067877196
 30
0
 11
-956.4148225104619
 21
-157.9940118312767
 31
0
  0
LINE
  8
1
 62
7
 10
-953.6867897090159
 20
-162.1129067877196
 30
0
 11
-953.6867897090159
 21
-157.9940118312767
 31
0
  0
LINE
  8
1
 62
7
 10
-953.9738661963779
 20
-162.1129067877196
 30
0
 11
-953.9738661963779
 21
-157.9940118312767
 31
0
  0
LINE
  8
1
 62
7
 10
-954.2609426837399
 20
-162.1129067877196
 30
0
 11
-954.2609426837399
 21
-157.9940118312767
 31
0
  0
LINE
  8
1
 62
7
 10
-953.4148225104619
 20
-162.1129067877196
 30
0
 11
-953.4148225104619
 21
-157.9940118312767
 31
0
  0
LINE
  8
1
 62
7
 10
-952.3158972808509
 20
-162.1129067877196
 30
0
 11
-952.3158972808509
 21
-175.7824216349483
 31
0
  0
LINE
  8
1
 62
7
 10
-955.3158972808509
 20
-162.1129067877196
 30
0
 11
-955.3158972808509
 21
-175.7824216349483
 31
0
  0
LINE
  8
1
 62
7
 10
-958.3158972808509
 20
-162.1129067877196
 30
0
 11
-958.3158972808509
 21
-175.7824216349483
 31
0
  0
LINE
  8
1
 62
7
 10
-938.3158972808509
 20
-238.4730205581898
 30
0
 11
-940.3158972808509
 21
-239.627721096569
 31
0
  0
LINE
  8
1
 62
7
 10
-940.3158972808509
 20
-239.627721096569
 30
0
 11
-940.3158972808509
 21
-241.9371221733275
 31
0
  0
LINE
  8
1
 62
7
 10
-940.3158972808509
 20
-241.9371221733275
 30
0
 11
-938.3158972808509
 21
-243.0918227117068
 31
0
  0
LINE
  8
1
 62
7
 10
-938.3158972808509
 20
-243.0918227117068
 30
0
 11
-936.3158972808509
 21
-241.9371221733275
 31
0
  0
LINE
  8
1
 62
7
 10
-936.3158972808509
 20
-241.9371221733275
 30
0
 11
-936.3158972808509
 21
-239.627721096569
 31
0
  0
LINE
  8
1
 62
7
 10
-936.3158972808509
 20
-239.627721096569
 30
0
 11
-938.3158972808509
 21
-238.4730205581898
 31
0
  0
LINE
  8
1
 62
7
 10
-979.3158972808509
 20
-237.1319094093195
 30
0
 11
-979.3158972808509
 21
-243.0687214032147
 31
0
  0
LINE
  8
1
 62
7
 10
-970.3158972808509
 20
-239.627721096569
 30
0
 11
-972.3158972808509
 21
-238.4730205581898
 31
0
  0
LINE
  8
1
 62
7
 10
-970.3158972808509
 20
-241.9371221733275
 30
0
 11
-970.3158972808509
 21
-239.627721096569
 31
0
  0
LINE
  8
1
 62
7
 10
-972.3158972808509
 20
-243.0918227117068
 30
0
 11
-970.3158972808509
 21
-241.9371221733275
 31
0
  0
LINE
  8
1
 62
7
 10
-974.3158972808509
 20
-241.9371221733275
 30
0
 11
-972.3158972808509
 21
-243.0918227117068
 31
0
  0
LINE
  8
1
 62
7
 10
-974.3158972808509
 20
-239.627721096569
 30
0
 11
-974.3158972808509
 21
-241.9371221733275
 31
0
  0
LINE
  8
1
 62
7
 10
-972.3158972808509
 20
-238.4730205581898
 30
0
 11
-974.3158972808509
 21
-239.627721096569
 31
0
  0
LINE
  8
1
 62
7
 10
-543.8158972808509
 20
-417.2824216349483
 30
0
 11
-542.8158972808509
 21
-418.2824216349483
 31
0
  0
LINE
  8
1
 62
7
 10
-554.8158972808509
 20
-390.2824216349483
 30
0
 11
-553.8158972808509
 21
-391.2824216349483
 31
0
  0
LINE
  8
1
 62
7
 10
-748.3158972808509
 20
-417.2824216349483
 30
0
 11
-747.3158972808509
 21
-418.2824216349483
 31
0
  0
LINE
  8
1
 62
7
 10
-758.3158972808509
 20
-391.2824216349483
 30
0
 11
-759.3158972808509
 21
-390.2824216349483
 31
0
  0
LINE
  8
1
 62
7
 10
-759.3158972808509
 20
-251.2824216349483
 30
0
 11
-758.3158972808509
 21
-250.2824216349483
 31
0
  0
LINE
  8
1
 62
7
 10
-747.3158972808509
 20
-418.2824216349483
 30
0
 11
-747.3158972808509
 21
-223.2824216349483
 31
0
  0
LINE
  8
1
 62
7
 10
-758.3158972808509
 20
-391.2824216349483
 30
0
 11
-758.3158972808509
 21
-250.2824216349483
 31
0
  0
LINE
  8
1
 62
7
 10
-747.3158972808509
 20
-223.2824216349483
 30
0
 11
-694.0158972808509
 21
-223.2824216349483
 31
0
  0
LINE
  8
1
 62
7
 10
-542.8158972808509
 20
-223.2824216349483
 30
0
 11
-489.5158972808509
 21
-223.2824216349483
 31
0
  0
LINE
  8
1
 62
7
 10
-554.8158972808509
 20
-251.2824216349483
 30
0
 11
-553.8158972808509
 21
-250.2824216349483
 31
0
  0
LINE
  8
1
 62
7
 10
-490.0158972808509
 20
-242.2824216349483
 30
0
 11
-492.0158972808509
 21
-242.2824216349483
 31
0
  0
LINE
  8
1
 62
7
 10
-490.0158972808509
 20
-399.2824216349483
 30
0
 11
-492.0158972808509
 21
-399.2824216349483
 31
0
  0
ARC
  8
1
 62
7
 10
-544.4474046965197
 20
-234.6524216349483
 30
0
 40
5.629999999999996
 50
180
 51
270
  0
ARC
  8
1
 62
7
 10
-544.4474046965197
 20
-234.6524216349483
 30
0
 40
2.629999999999996
 50
180
 51
270
  0
ARC
  8
1
 62
7
 10
-955.3158972808509
 20
-312.7824216349483
 30
0
 40
83.00000000000006
 50
99.81424833293237
 51
104.0985072708121
  0
ARC
  8
1
 62
7
 10
-955.3158972808509
 20
-312.7824216349483
 30
0
 40
66.00000000000004
 50
75.52248781407009
 51
104.4775121859299
  0
ARC
  8
1
 62
7
 10
-955.3158972808509
 20
-312.7824216349483
 30
0
 40
83.00000000000003
 50
75.90149272918791
 51
80.18575166706762
  0
ARC
  8
1
 62
7
 10
-955.3158972808509
 20
-320.7824216349483
 30
0
 40
97.50000000000001
 50
95.88684213870772
 51
84.11315786129228
  0
ARC
  8
1
 62
7
 10
-955.3158972808509
 20
-320.7824216349483
 30
0
 40
30.00000000000005
 50
107.4576031237221
 51
72.54239687627795
  0
ARC
  8
1
 62
7
 10
-253.8158972808509
 20
-320.7824216349483
 30
0
 40
30.00000000000005
 50
107.4576031237221
 51
72.54239687627795
  0
CIRCLE
  8
1
 62
7
 10
-535.8158972808509
 20
-273.2824216349483
 30
0
 40
6
  0
CIRCLE
  8
1
 62
7
 10
-515.8158972808509
 20
-273.2824216349483
 30
0
 40
6
  0
CIRCLE
  8
1
 62
7
 10
-253.8158972808509
 20
-320.7824216349483
 30
0
 40
97.5
  0
CIRCLE
  8
1
 62
7
 10
-253.8158972808509
 20
-320.7824216349483
 30
0
 40
89
  0
CIRCLE
  8
1
 62
7
 10
-253.8158972808509
 20
-320.7824216349483
 30
0
 40
86
  0
CIRCLE
  8
1
 62
7
 10
-253.8158972808509
 20
-320.7824216349483
 30
0
 40
54
  0
CIRCLE
  8
1
 62
7
 10
-253.8158972808509
 20
-320.7824216349483
 30
0
 40
44
  0
CIRCLE
  8
1
 62
7
 10
-253.8158972808509
 20
-320.7824216349483
 30
0
 40
44
  0
CIRCLE
  8
1
 62
7
 10
-535.8158972808509
 20
-368.2824216349483
 30
0
 40
6
  0
CIRCLE
  8
1
 62
7
 10
-515.8158972808509
 20
-368.2824216349483
 30
0
 40
6
  0
CIRCLE
  8
1
 62
7
 10
-955.3158972808509
 20
-320.7824216349483
 30
0
 40
37.5
  0
CIRCLE
  8
1
 62
7
 10
-955.3158972808509
 20
-320.7824216349483
 30
0
 40
70.5
  0
CIRCLE
  8
1
 62
7
 10
-955.3158972808509
 20
-320.7824216349483
 30
0
 40
57.50000000000011
  0
CIRCLE
  8
1
 62
7
 10
-938.3158972808509
 20
-240.7824216349483
 30
0
 40
4.25
  0
CIRCLE
  8
1
 62
7
 10
-938.3158972808509
 20
-240.7824216349483
 30
0
 40
4.600000000000023
  0
CIRCLE
  8
1
 62
7
 10
-972.3158972808509
 20
-240.7824216349483
 30
0
 40
4.25
  0
CIRCLE
  8
1
 62
7
 10
-972.3158972808509
 20
-240.7824216349483
 30
0
 40
4.600000000000023
  0
ARC
  8
1
 62
7
 10
-453.3158972808509
 20
-267.7824216349483
 30
0
 40
1
 50
90
 51
180
  0
ARC
  8
1
 62
7
 10
-453.3158972808509
 20
-373.7824216349483
 30
0
 40
1
 50
180
 51
270
  0
ARC
  8
1
 62
7
 10
-970.3158972808509
 20
-226.0702540919788
 30
0
 40
5.000000000000036
 50
279.8142483329326
 51
0
  0
ARC
  8
1
 62
7
 10
-974.3158972808509
 20
-237.1319094093195
 30
0
 40
4.99999999999992
 50
104.0985072708125
 51
180
  0
ARC
  8
1
 62
7
 10
-940.3158972808509
 20
-226.0702540919788
 30
0
 40
5
 50
180
 51
260.1857516670675
  0
ARC
  8
1
 62
7
 10
-936.3158972808509
 20
-237.1319094093196
 30
0
 40
5
 50
0
 51
75.90149272918785
  0
ARC
  8
1
 62
7
 10
-937.3158972808509
 20
-243.0687214032147
 30
0
 40
6.000000000000052
 50
255.5224878140702
 51
0
  0
ARC
  8
1
 62
7
 10
-973.3158972808509
 20
-243.0687214032147
 30
0
 40
6
 50
180
 51
284.4775121859298
  0
TEXT
  8
1
 62
7
 10
-1054.65862025661
 20
-112.8863331255132
 30
0
 40
12
  1
MDC 40
 41
0.9
  7
SIMPLEX
  0
TEXT
  8
1
 62
7
 10
-1053.66257449986
 20
-132.8744703957682
 30
0
 40
12
  1
DC4126
 41
0.9
  7
SIMPLEX
  0
ENDSEC
  0
EOF
