  0
SECTION
  2
HEADER
  9
$ACADVER
  1
AC1009
  9
$INSBASE
 10
0.0
 20
0.0
 30
0.0
  9
$EXTMIN
 10
-2671.2485321481099
 20
-907.81696175360617
 30
0.0
  9
$EXTMAX
 10
-794.49269595464978
 20
-337.06125307469807
 30
0.0
  9
$LIMMIN
 10
-2671.2485321481099
 20
-907.81696175360617
  9
$LIMMAX
 10
-794.49269595464966
 20
-337.06125307469807
  9
$ORTHOMODE
 70
     0
  9
$REGENMODE
 70
     1
  9
$FILLMODE
 70
     1
  9
$QTEXTMODE
 70
     0
  9
$MIRRTEXT
 70
     1
  9
$DRAGMODE
 70
     2
  9
$LTSCALE
 40
1.0
  9
$OSMODE
 70
    37
  9
$ATTMODE
 70
     1
  9
$TEXTSIZE
 40
3.5
  9
$TRACEWID
 40
0.5
  9
$TEXTSTYLE
  7
STANDARD
  9
$CLAYER
  8
0
  9
$CELTYPE
  6
BYLAYER
  9
$CECOLOR
 62
   256
  9
$DIMSCALE
 40
1.0
  9
$DIMASZ
 40
0.18
  9
$DIMEXO
 40
0.0625
  9
$DIMDLI
 40
0.38
  9
$DIMRND
 40
0.0
  9
$DIMDLE
 40
0.0
  9
$DIMEXE
 40
0.18
  9
$DIMTP
 40
0.0
  9
$DIMTM
 40
0.0
  9
$DIMTXT
 40
0.18
  9
$DIMCEN
 40
0.09
  9
$DIMTSZ
 40
0.0
  9
$DIMTOL
 70
     0
  9
$DIMLIM
 70
     0
  9
$DIMTIH
 70
     1
  9
$DIMTOH
 70
     1
  9
$DIMSE1
 70
     0
  9
$DIMSE2
 70
     0
  9
$DIMTAD
 70
     0
  9
$DIMZIN
 70
     0
  9
$DIMBLK
  1

  9
$DIMASO
 70
     1
  9
$DIMSHO
 70
     1
  9
$DIMPOST
  1

  9
$DIMAPOST
  1

  9
$DIMALT
 70
     0
  9
$DIMALTD
 70
     2
  9
$DIMALTF
 40
25.399999999999999
  9
$DIMLFAC
 40
1.0
  9
$DIMTOFL
 70
     0
  9
$DIMTVP
 40
0.0
  9
$DIMTIX
 70
     0
  9
$DIMSOXD
 70
     0
  9
$DIMSAH
 70
     0
  9
$DIMBLK1
  1

  9
$DIMBLK2
  1

  9
$DIMSTYLE
  2
STANDARD
  9
$DIMCLRD
 70
     0
  9
$DIMCLRE
 70
     0
  9
$DIMCLRT
 70
     0
  9
$DIMTFAC
 40
1.0
  9
$DIMGAP
 40
0.09
  9
$LUNITS
 70
     2
  9
$LUPREC
 70
     4
  9
$SKETCHINC
 40
0.1
  9
$FILLETRAD
 40
2.0
  9
$AUNITS
 70
     0
  9
$AUPREC
 70
     0
  9
$MENU
  1
ACAD
  9
$ELEVATION
 40
0.0
  9
$PELEVATION
 40
0.0
  9
$THICKNESS
 40
0.0
  9
$LIMCHECK
 70
     0
  9
$BLIPMODE
 70
     0
  9
$CHAMFERA
 40
0.0
  9
$CHAMFERB
 40
0.0
  9
$SKPOLY
 70
     0
  9
$TDCREATE
 40
2452095.022220023
  9
$TDUPDATE
 40
2452095.0228480319
  9
$TDINDWG
 40
0.0006523148
  9
$TDUSRTIMER
 40
0.0006523148
  9
$USRTIMER
 70
     1
  9
$ANGBASE
 50
0.0
  9
$ANGDIR
 70
     0
  9
$PDMODE
 70
     0
  9
$PDSIZE
 40
0.0
  9
$PLINEWID
 40
0.0
  9
$COORDS
 70
     1
  9
$SPLFRAME
 70
     0
  9
$SPLINETYPE
 70
     6
  9
$SPLINESEGS
 70
     8
  9
$ATTDIA
 70
     0
  9
$ATTREQ
 70
     1
  9
$HANDLING
 70
 10241
  9
$HANDSEED
  5
1B4
  9
$SURFTAB1
 70
     6
  9
$SURFTAB2
 70
     6
  9
$SURFTYPE
 70
     6
  9
$SURFU
 70
     6
  9
$SURFV
 70
     6
  9
$UCSNAME
  2

  9
$UCSORG
 10
0.0
 20
0.0
 30
0.0
  9
$UCSXDIR
 10
1.0
 20
0.0
 30
0.0
  9
$UCSYDIR
 10
0.0
 20
1.0
 30
0.0
  9
$PUCSNAME
  2

  9
$PUCSORG
 10
0.0
 20
0.0
 30
0.0
  9
$PUCSXDIR
 10
1.0
 20
0.0
 30
0.0
  9
$PUCSYDIR
 10
0.0
 20
1.0
 30
0.0
  9
$USERI1
 70
     0
  9
$USERI2
 70
     0
  9
$USERI3
 70
     0
  9
$USERI4
 70
     0
  9
$USERI5
 70
     0
  9
$USERR1
 40
0.0
  9
$USERR2
 40
0.0
  9
$USERR3
 40
0.0
  9
$USERR4
 40
0.0
  9
$USERR5
 40
0.0
  9
$WORLDVIEW
 70
     1
  9
$SHADEDGE
 70
     3
  9
$SHADEDIF
 70
    70
  9
$TILEMODE
 70
     1
  9
$MAXACTVP
 70
    64
  9
$PLIMCHECK
 70
     0
  9
$PEXTMIN
 10
1.0000000000000000E+020
 20
1.0000000000000000E+020
 30
1.0000000000000000E+020
  9
$PEXTMAX
 10
-1.0000000000000000E+020
 20
-1.0000000000000000E+020
 30
-1.0000000000000000E+020
  9
$PLIMMIN
 10
0.0
 20
0.0
  9
$PLIMMAX
 10
12.0
 20
9.0
  9
$UNITMODE
 70
     0
  9
$VISRETAIN
 70
     1
  9
$PLINEGEN
 70
     0
  9
$PSLTSCALE
 70
     1
  0
ENDSEC
  0
SECTION
  2
TABLES
  0
TABLE
  2
VPORT
 70
     2
  0
VPORT
  2
*ACTIVE
 70
     0
 10
0.0
 20
0.0
 11
1.0
 21
1.0
 12
-2660.626457155895
 22
-383.08344029886712
 13
0.0
 23
0.0
 14
1.0
 24
1.0
 15
0.0
 25
0.0
 16
0.0
 26
0.0
 36
1.0
 17
0.0
 27
0.0
 37
0.0
 40
8.9999995733251126
 41
2.4144144144144142
 42
50.0
 43
0.0
 44
0.0
 50
0.0
 51
0.0
 71
     0
 72
   100
 73
     1
 74
     1
 75
     0
 76
     0
 77
     0
 78
     0
  0
ENDTAB
  0
TABLE
  2
LTYPE
 70
     9
  0
LTYPE
  2
CONTINUOUS
 70
     0
  3
Solid line
 72
    65
 73
     0
 40
0.0
  0
LTYPE
  2
BORDER
 70
     0
  3
__ __ . __ __ .
 72
    65
 73
     6
 40
86.429545087856695
 49
24.694155739387622
 49
-12.34707786969382
 49
24.694155739387622
 49
-12.34707786969382
 49
0.0
 49
-12.34707786969382
  0
LTYPE
  2
CENTER
 70
     0
  3
____ _ ____ _
 72
    65
 73
     4
 40
98.776622957550515
 49
61.735389348469077
 49
-12.34707786969382
 49
12.34707786969382
 49
-12.34707786969382
  0
LTYPE
  2
DASHDOT
 70
     0
  3
__ . __ . __ .
 72
    65
 73
     4
 40
49.388311478775272
 49
24.694155739387622
 49
-12.34707786969382
 49
0.0
 49
-12.34707786969382
  0
LTYPE
  2
DASHED
 70
     0
  3
__ __ __ __ __
 72
    65
 73
     2
 40
37.041233609081452
 49
24.694155739387622
 49
-12.34707786969382
  0
LTYPE
  2
DIVIDE
 70
     0
  3
__ . . __ . . 
 72
    65
 73
     6
 40
61.735389348469077
 49
24.694155739387622
 49
-12.34707786969382
 49
0.0
 49
-12.34707786969382
 49
0.0
 49
-12.34707786969382
  0
LTYPE
  2
DOT
 70
     0
  3
..............
 72
    65
 73
     4
 40
24.694155739387622
 49
0.0
 49
-12.34707786969382
 49
0.0
 49
-12.34707786969382
  0
LTYPE
  2
HIDDEN
 70
     0
  3
_ _ _ _ _ _ _
 72
    65
 73
     2
 40
18.520616804540708
 49
12.34707786969382
 49
-6.1735389348469063
  0
LTYPE
  2
PHANTOM
 70
     0
  3
_____ _ _ _____ _ _ 
 72
    65
 73
     6
 40
123.4707786969382
 49
61.735389348469077
 49
-12.34707786969382
 49
12.34707786969382
 49
-12.34707786969382
 49
12.34707786969382
 49
-12.34707786969382
  0
ENDTAB
  0
TABLE
  2
LAYER
 70
     2
  0
LAYER
  2
0
 70
     0
 62
     7
  6
CONTINUOUS
  0
LAYER
  2
1
 70
     0
 62
     7
  6
CONTINUOUS
  0
ENDTAB
  0
TABLE
  2
STYLE
 70
     4
  0
STYLE
  2
STANDARD
 70
     0
 40
0.0
 41
1.0
 50
0.0
 71
     0
 42
3.5
  3
txt
  4

  0
STYLE
  2
SIMPLEX
 70
     0
 40
0.0
 41
1.0
 50
0.0
 71
     0
 42
3.5
  3
simplex
  4

  0
STYLE
  2
COMPLEX
 70
     0
 40
0.0
 41
1.0
 50
0.0
 71
     0
 42
3.5
  3
complex
  4

  0
STYLE
  2
ITALIC
 70
     0
 40
0.0
 41
1.0
 50
0.0
 71
     0
 42
3.5
  3
italic
  4

  0
ENDTAB
  0
TABLE
  2
VIEW
 70
     0
  0
ENDTAB
  0
TABLE
  2
UCS
 70
     0
  0
ENDTAB
  0
TABLE
  2
APPID
 70
     1
  0
APPID
  2
ACAD
 70
     0
  0
ENDTAB
  0
TABLE
  2
DIMSTYLE
 70
     1
  0
DIMSTYLE
  2
STANDARD
 70
     0
  3

  4

  5

  6

  7

 40
1.0
 41
0.18
 42
0.0625
 43
0.38
 44
0.18
 45
0.0
 46
0.0
 47
0.0
 48
0.0
140
0.18
141
0.09
142
0.0
143
25.399999999999999
144
1.0
145
0.0
146
1.0
147
0.09
 71
     0
 72
     0
 73
     1
 74
     1
 75
     0
 76
     0
 77
     0
 78
     0
170
     0
171
     2
172
     0
173
     0
174
     0
175
     0
176
     0
177
     0
178
     0
  0
ENDTAB
  0
ENDSEC
  0
SECTION
  2
BLOCKS
  0
BLOCK
  8
0
  2
$MODEL_SPACE
 70
     0
 10
0.0
 20
0.0
 30
0.0
  3
$MODEL_SPACE
  1

  0
ENDBLK
  5
20
  8
0
  0
BLOCK
 67
     1
  8
0
  2
$PAPER_SPACE
 70
     0
 10
0.0
 20
0.0
 30
0.0
  3
$PAPER_SPACE
  1

  0
ENDBLK
  5
1C
 67
     1
  8
0
  0
ENDSEC
  0
SECTION
  2
ENTITIES
  0
LINE
  5
33
  8
1
 62
     7
 10
-1976.2968755889001
 20
-494.53415815298592
 30
0.0
 11
-1872.2968755889001
 21
-494.53415815298592
 31
0.0
  0
LINE
  5
34
  8
1
 62
     7
 10
-1999.2968755889001
 20
-544.53415815298604
 30
0.0
 11
-1998.2968755889001
 21
-543.53415815298604
 31
0.0
  0
LINE
  5
35
  8
1
 62
     7
 10
-1976.2968755889001
 20
-886.53415815298592
 30
0.0
 11
-1977.296875588899
 21
-885.53415815298592
 31
0.0
  0
LINE
  5
36
  8
1
 62
     7
 10
-1999.2968755889001
 20
-836.53415815298592
 30
0.0
 11
-1998.2968755889001
 21
-837.53415815298615
 31
0.0
  0
LINE
  5
37
  8
1
 62
     7
 10
-1872.2968755889001
 20
-886.53415815298592
 30
0.0
 11
-1976.2968755889001
 21
-886.53415815298592
 31
0.0
  0
LINE
  5
38
  8
1
 62
     7
 10
-1862.2968755889001
 20
-876.53415815298604
 30
0.0
 11
-1872.2968755889001
 21
-886.53415815298592
 31
0.0
  0
LINE
  5
39
  8
1
 62
     7
 10
-1862.2968755889001
 20
-870.53415815298615
 30
0.0
 11
-1852.296875588899
 21
-870.53415815298615
 31
0.0
  0
LINE
  5
3A
  8
1
 62
     7
 10
-1999.2968755889001
 20
-770.53415815298604
 30
0.0
 11
-2009.2968755889001
 21
-770.53415815298581
 31
0.0
  0
LINE
  5
3B
  8
1
 62
     7
 10
-1977.296875588899
 20
-837.53415815298615
 30
0.0
 11
-1998.2968755889001
 21
-837.53415815298615
 31
0.0
  0
LINE
  5
3C
  8
1
 62
     7
 10
-1791.9968755888999
 20
-790.53415815298604
 30
0.0
 11
-1789.2968755889001
 21
-790.53415815298604
 31
0.0
  0
LINE
  5
3D
  8
1
 62
     7
 10
-1815.9968755888999
 20
-890.53415815298604
 30
0.0
 11
-1852.296875588899
 21
-890.53415815298604
 31
0.0
  0
LINE
  5
3E
  8
1
 62
     7
 10
-1815.9968755888999
 20
-870.53415815298615
 30
0.0
 11
-1801.9968755888999
 21
-870.53415815298615
 31
0.0
  0
LINE
  5
3F
  8
1
 62
     7
 10
-1791.9968755888999
 20
-860.53415815298592
 30
0.0
 11
-1801.9968755888999
 21
-870.53415815298615
 31
0.0
  0
LINE
  5
40
  8
1
 62
     7
 10
-1992.2968755889001
 20
-440.53415815298581
 30
0.0
 11
-1977.296875588899
 21
-440.53415815298581
 31
0.0
  0
LINE
  5
41
  8
1
 62
     7
 10
-1999.2968755889001
 20
-544.53415815298604
 30
0.0
 11
-1999.2968755889001
 21
-836.53415815298592
 31
0.0
  0
LINE
  5
42
  8
1
  6
DASHDOT
 62
     3
 10
-2009.2968755889001
 20
-690.53415815298604
 30
0.0
 11
-2019.2968755889001
 21
-690.53415815298604
 31
0.0
  0
LINE
  5
43
  8
1
  6
DASHDOT
 62
     3
 10
-1789.2968755889001
 20
-690.53415815298604
 30
0.0
 11
-1779.2968755889001
 21
-690.53415815298604
 31
0.0
  0
LINE
  5
44
  8
1
 62
     7
 10
-1977.296875588899
 20
-495.53415815298581
 30
0.0
 11
-1976.2968755889001
 21
-494.53415815298592
 31
0.0
  0
LINE
  5
45
  8
1
 62
     7
 10
-1872.2968755889001
 20
-494.53415815298592
 30
0.0
 11
-1862.2968755889001
 21
-504.53415815298598
 31
0.0
  0
LINE
  5
46
  8
1
 62
     7
 10
-1852.296875588899
 20
-510.53415815298592
 30
0.0
 11
-1862.2968755889001
 21
-510.53415815298592
 31
0.0
  0
LINE
  5
47
  8
1
 62
     7
 10
-2009.2968755889001
 20
-610.53415815298615
 30
0.0
 11
-1999.2968755889001
 21
-610.53415815298604
 31
0.0
  0
LINE
  5
48
  8
1
 62
     7
 10
-2009.2968755889001
 20
-770.53415815298581
 30
0.0
 11
-2009.2968755889001
 21
-610.53415815298615
 31
0.0
  0
LINE
  5
49
  8
1
 62
     7
 10
-1998.2968755889001
 20
-543.53415815298604
 30
0.0
 11
-1977.296875588899
 21
-543.53415815298604
 31
0.0
  0
LINE
  5
4A
  8
1
 62
     7
 10
-1977.296875588899
 20
-885.53415815298592
 30
0.0
 11
-1977.296875588899
 21
-440.53415815298581
 31
0.0
  0
LINE
  5
4B
  8
1
 62
     7
 10
-1992.2968755889001
 20
-533.53415815298604
 30
0.0
 11
-1980.4968755888999
 21
-533.53415815298604
 31
0.0
  0
LINE
  5
4C
  8
1
 62
     7
 10
-1992.2968755889001
 20
-533.53415815298604
 30
0.0
 11
-1992.2968755889001
 21
-440.53415815298581
 31
0.0
  0
LINE
  5
4D
  8
1
 62
     7
 10
-1789.2968755889001
 20
-590.53415815298604
 30
0.0
 11
-1791.9968755888999
 21
-590.53415815298604
 31
0.0
  0
LINE
  5
4E
  8
1
 62
     7
 10
-1789.2968755889001
 20
-790.53415815298604
 30
0.0
 11
-1789.2968755889001
 21
-590.53415815298604
 31
0.0
  0
LINE
  5
4F
  8
1
 62
     7
 10
-1815.9968755888999
 20
-490.53415815298592
 30
0.0
 11
-1815.9968755888999
 21
-890.53415815298604
 31
0.0
  0
LINE
  5
50
  8
1
 62
     7
 10
-1852.296875588899
 20
-490.53415815298592
 30
0.0
 11
-1815.9968755888999
 21
-490.53415815298592
 31
0.0
  0
LINE
  5
51
  8
1
 62
     7
 10
-1801.9968755888999
 20
-510.53415815298592
 30
0.0
 11
-1815.9968755888999
 21
-510.53415815298592
 31
0.0
  0
LINE
  5
52
  8
1
 62
     7
 10
-1801.9968755888999
 20
-510.53415815298592
 30
0.0
 11
-1791.9968755888999
 21
-520.53415815298604
 31
0.0
  0
LINE
  5
53
  8
1
 62
     7
 10
-1982.6678755889
 20
-415.64999894797609
 30
0.0
 11
-1982.6678755889
 21
-440.53415815298581
 31
0.0
  0
LINE
  5
54
  8
1
 62
     7
 10
-1985.2978755889001
 20
-415.64999894797609
 30
0.0
 11
-1985.2978755889001
 21
-440.53415815298581
 31
0.0
  0
LINE
  5
55
  8
1
 62
     7
 10
-1984.335612498583
 20
-410.64999894797609
 30
0.0
 11
-1984.335612498583
 21
-415.64999894797609
 31
0.0
  0
LINE
  5
56
  8
1
 62
     7
 10
-1984.7407415857481
 20
-410.64999894797609
 30
0.0
 11
-1984.7407415857481
 21
-415.64999894797609
 31
0.0
  0
LINE
  5
57
  8
1
 62
     7
 10
-1983.597698804102
 20
-410.64999894797609
 30
0.0
 11
-1983.597698804102
 21
-415.64999894797609
 31
0.0
  0
LINE
  5
58
  8
1
 62
     7
 10
-1983.221507508877
 20
-410.64999894797609
 30
0.0
 11
-1983.221507508877
 21
-415.64999894797609
 31
0.0
  0
LINE
  5
59
  8
1
 62
     7
 10
-1985.2978755889001
 20
-415.64999894797609
 30
0.0
 11
-1982.6678755889
 21
-415.64999894797609
 31
0.0
  0
LINE
  5
5A
  8
1
 62
     7
 10
-1983.9828755889
 20
-410.64999894797609
 30
0.0
 11
-1983.9828755889
 21
-415.64999894797609
 31
0.0
  0
LINE
  5
5B
  8
1
 62
     7
 10
-1568.3665498003099
 20
-494.53415815298592
 30
0.0
 11
-1464.3665498003099
 21
-494.53415815298592
 31
0.0
  0
LINE
  5
5C
  8
1
 62
     7
 10
-1591.3665498003099
 20
-544.53415815298604
 30
0.0
 11
-1590.3665498003099
 21
-543.53415815298604
 31
0.0
  0
LINE
  5
5D
  8
1
 62
     7
 10
-1568.3665498003099
 20
-886.53415815298592
 30
0.0
 11
-1569.3665498003099
 21
-885.53415815298592
 31
0.0
  0
LINE
  5
5E
  8
1
 62
     7
 10
-1591.3665498003099
 20
-836.53415815298592
 30
0.0
 11
-1590.3665498003099
 21
-837.53415815298615
 31
0.0
  0
LINE
  5
5F
  8
1
 62
     7
 10
-1474.3665498003099
 20
-832.53415815298604
 30
0.0
 11
-1473.3665498003099
 21
-832.53415815298604
 31
0.0
  0
LINE
  5
60
  8
1
 62
     7
 10
-1474.3665498003099
 20
-871.33415815298645
 30
0.0
 11
-1454.3665498003099
 21
-871.33415815298645
 31
0.0
  0
LINE
  5
61
  8
1
 62
     7
 10
-1591.3665498003099
 20
-770.53415815298604
 30
0.0
 11
-1591.3665498003099
 21
-836.53415815298592
 31
0.0
  0
LINE
  5
62
  8
1
 62
     7
 10
-1579.3665498003099
 20
-768.03415815298604
 30
0.0
 11
-1579.3665498003099
 21
-813.53415815298615
 31
0.0
  0
LINE
  5
63
  8
1
 62
     7
 10
-1579.3665498003099
 20
-770.53415815298604
 30
0.0
 11
-1497.1665498003099
 21
-770.53415815298604
 31
0.0
  0
LINE
  5
64
  8
1
 62
     7
 10
-1579.3665498003099
 20
-810.53415815298592
 30
0.0
 11
-1503.3665498003099
 21
-810.53415815298592
 31
0.0
  0
LINE
  5
65
  8
1
 62
     7
 10
-1464.3665498003099
 20
-886.53415815298592
 30
0.0
 11
-1568.3665498003099
 21
-886.53415815298592
 31
0.0
  0
LINE
  5
66
  8
1
 62
     7
 10
-1454.3665498003099
 20
-876.53415815298604
 30
0.0
 11
-1454.3665498003099
 21
-871.33415815298645
 31
0.0
  0
LINE
  5
67
  8
1
 62
     7
 10
-1473.3665498003099
 20
-832.53415815298604
 30
0.0
 11
-1473.3665498003099
 21
-802.33415815298622
 31
0.0
  0
LINE
  5
68
  8
1
 62
     7
 10
-1473.3665498003099
 20
-802.33415815298622
 30
0.0
 11
-1503.3665498003099
 21
-802.33415815298622
 31
0.0
  0
LINE
  5
69
  8
1
 62
     7
 10
-1583.3665498003099
 20
-780.23415815298608
 30
0.0
 11
-1579.3665498003099
 21
-780.23415815298608
 31
0.0
  0
LINE
  5
6A
  8
1
 62
     7
 10
-1579.3665498003099
 20
-768.03415815298604
 30
0.0
 11
-1583.3665498003099
 21
-768.03415815298604
 31
0.0
  0
LINE
  5
6B
  8
1
 62
     7
 10
-1583.3665498003099
 20
-768.03415815298604
 30
0.0
 11
-1583.3665498003099
 21
-780.23415815298608
 31
0.0
  0
LINE
  5
6C
  8
1
 62
     7
 10
-1454.3665498003099
 20
-876.53415815298604
 30
0.0
 11
-1464.3665498003099
 21
-886.53415815298592
 31
0.0
  0
LINE
  5
6D
  8
1
 62
     7
 10
-1501.3665498003099
 20
-782.53415815298604
 30
0.0
 11
-1503.3665498003099
 21
-782.53415815298604
 31
0.0
  0
LINE
  5
6E
  8
1
 62
     7
 10
-1501.3665498003099
 20
-801.53415815298604
 30
0.0
 11
-1470.3665498003099
 21
-801.53415815298604
 31
0.0
  0
LINE
  5
6F
  8
1
 62
     7
 10
-1501.3665498003099
 20
-801.53415815298604
 30
0.0
 11
-1501.3665498003099
 21
-782.53415815298604
 31
0.0
  0
LINE
  5
70
  8
1
 62
     7
 10
-1470.3665498003099
 20
-801.53415815298604
 30
0.0
 11
-1470.3665498003099
 21
-852.53415815298592
 31
0.0
  0
LINE
  5
71
  8
1
 62
     7
 10
-1470.3665498003099
 20
-852.53415815298592
 30
0.0
 11
-1472.3665498003099
 21
-852.53415815298592
 31
0.0
  0
LINE
  5
72
  8
1
 62
     7
 10
-1472.3665498003099
 20
-852.53415815298592
 30
0.0
 11
-1472.3665498003099
 21
-870.53415815298615
 31
0.0
  0
LINE
  5
73
  8
1
 62
     7
 10
-1472.3665498003099
 20
-870.53415815298615
 30
0.0
 11
-1444.3665498003099
 21
-870.53415815298615
 31
0.0
  0
LINE
  5
74
  8
1
 62
     7
 10
-1444.3665498003099
 20
-890.53415815298604
 30
0.0
 11
-1444.3665498003099
 21
-786.53415815298604
 31
0.0
  0
LINE
  5
75
  8
1
 62
     7
 10
-1444.56654980031
 20
-773.53415815298604
 30
0.0
 11
-1503.3665498003099
 21
-773.53415815298604
 31
0.0
  0
LINE
  5
76
  8
1
 62
     7
 10
-1497.1665498003099
 20
-773.53415815298604
 30
0.0
 11
-1497.1665498003099
 21
-770.53415815298604
 31
0.0
  0
LINE
  5
77
  8
1
 62
     7
 10
-1583.3665498003099
 20
-770.53415815298604
 30
0.0
 11
-1601.3665498003099
 21
-770.53415815298581
 31
0.0
  0
LINE
  5
78
  8
1
 62
     7
 10
-1381.3665498003099
 20
-750.53415815298604
 30
0.0
 11
-1416.3665498003099
 21
-750.53415815298604
 31
0.0
  0
LINE
  5
79
  8
1
 62
     7
 10
-1510.3665498003099
 20
-750.53415815298604
 30
0.0
 11
-1601.3665498003099
 21
-750.53415815298604
 31
0.0
  0
LINE
  5
7A
  8
1
 62
     7
 10
-1490.3665498003099
 20
-752.53415815298604
 30
0.0
 11
-1510.3665498003099
 21
-752.53415815298604
 31
0.0
  0
LINE
  5
7B
  8
1
 62
     7
 10
-1591.3665498003099
 20
-810.53415815298592
 30
0.0
 11
-1584.3665498003099
 21
-810.53415815298592
 31
0.0
  0
LINE
  5
7C
  8
1
 62
     7
 10
-1579.3665498003099
 20
-813.53415815298615
 30
0.0
 11
-1584.3665498003099
 21
-813.53415815298615
 31
0.0
  0
LINE
  5
7D
  8
1
 62
     7
 10
-1584.3665498003099
 20
-799.53415815298604
 30
0.0
 11
-1579.3665498003099
 21
-799.53415815298604
 31
0.0
  0
LINE
  5
7E
  8
1
 62
     7
 10
-1584.3665498003099
 20
-813.53415815298615
 30
0.0
 11
-1584.3665498003099
 21
-785.75893145426608
 31
0.0
  0
LINE
  5
7F
  8
1
 62
     7
 10
-1569.3665498003099
 20
-837.53415815298615
 30
0.0
 11
-1590.3665498003099
 21
-837.53415815298615
 31
0.0
  0
LINE
  5
80
  8
1
 62
     7
 10
-1569.3665498003099
 20
-885.53415815298592
 30
0.0
 11
-1569.3665498003099
 21
-837.53415815298615
 31
0.0
  0
LINE
  5
81
  8
1
 62
     7
 10
-1474.3665498003099
 20
-871.33415815298645
 30
0.0
 11
-1474.3665498003099
 21
-832.53415815298604
 31
0.0
  0
LINE
  5
82
  8
1
 62
     7
 10
-1396.1665498003099
 20
-788.03415815298604
 30
0.0
 11
-1392.1665498003099
 21
-788.03415815298604
 31
0.0
  0
LINE
  5
83
  8
1
  6
DASHDOT
 62
     3
 10
-1446.907988210221
 20
-790.53415815298604
 30
0.0
 11
-1393.6962662484721
 21
-790.53415815298604
 31
0.0
  0
LINE
  5
84
  8
1
 62
     7
 10
-1444.56654980031
 20
-786.53415815298604
 30
0.0
 11
-1381.3665498003099
 21
-786.53415815298604
 31
0.0
  0
LINE
  5
85
  8
1
 62
     7
 10
-1392.1665498003099
 20
-790.53415815298604
 30
0.0
 11
-1381.3665498003099
 21
-790.53415815298604
 31
0.0
  0
LINE
  5
86
  8
1
 62
     7
 10
-1416.3665498003099
 20
-752.53415815298604
 30
0.0
 11
-1436.3665498003099
 21
-752.53415815298604
 31
0.0
  0
LINE
  5
87
  8
1
 62
     7
 10
-1436.3665498003099
 20
-750.53415815298604
 30
0.0
 11
-1490.3665498003099
 21
-750.53415815298604
 31
0.0
  0
LINE
  5
88
  8
1
 62
     7
 10
-1444.56654980031
 20
-794.53415815298604
 30
0.0
 11
-1396.1665498003099
 21
-794.53415815298604
 31
0.0
  0
LINE
  5
89
  8
1
 62
     7
 10
-1408.0665498003091
 20
-786.5341581529857
 30
0.0
 11
-1408.0665498003091
 21
-890.53415815298604
 31
0.0
  0
LINE
  5
8A
  8
1
 62
     7
 10
-1408.0665498003091
 20
-890.53415815298604
 30
0.0
 11
-1444.3665498003099
 21
-890.53415815298604
 31
0.0
  0
LINE
  5
8B
  8
1
 62
     3
 10
-1408.0665498003091
 20
-890.53415815298604
 30
0.0
 11
-1444.3665498003099
 21
-786.53415815298604
 31
0.0
  0
LINE
  5
8C
  8
1
 62
     3
 10
-1408.0665498003091
 20
-786.5341581529857
 30
0.0
 11
-1444.3665498003099
 21
-890.53415815298604
 31
0.0
  0
LINE
  5
8D
  8
1
 62
     7
 10
-1408.0665498003091
 20
-870.53415815298615
 30
0.0
 11
-1394.0665498003091
 21
-870.53415815298615
 31
0.0
  0
LINE
  5
8E
  8
1
 62
     7
 10
-1384.0665498003091
 20
-860.53415815298592
 30
0.0
 11
-1394.0665498003091
 21
-870.53415815298615
 31
0.0
  0
LINE
  5
8F
  8
1
 62
     7
 10
-1389.06654980031
 20
-805.03415815298604
 30
0.0
 11
-1394.1665498003099
 21
-805.03415815298604
 31
0.0
  0
LINE
  5
90
  8
1
 62
     7
 10
-1389.06654980031
 20
-805.03415815298604
 30
0.0
 11
-1384.0665498003091
 21
-810.03415815298604
 31
0.0
  0
LINE
  5
91
  8
1
 62
     7
 10
-1384.0665498003091
 20
-860.53415815298592
 30
0.0
 11
-1384.0665498003091
 21
-797.09592941953611
 31
0.0
  0
LINE
  5
92
  8
1
 62
     7
 10
-1389.06654980031
 20
-805.03415815298604
 30
0.0
 11
-1389.06654980031
 21
-797.09592941953611
 31
0.0
  0
LINE
  5
93
  8
1
 62
     7
 10
-1396.1665498003099
 20
-786.53415815298604
 30
0.0
 11
-1396.1665498003099
 21
-803.03415815298604
 31
0.0
  0
LINE
  5
94
  8
1
 62
     7
 10
-1516.3665498003099
 20
-800.92646299839953
 30
0.0
 11
-1503.3665498003099
 21
-800.92646299839919
 31
0.0
  0
LINE
  5
95
  8
1
 62
     7
 10
-1516.3665498003099
 20
-780.14185330757266
 30
0.0
 11
-1503.3665498003099
 21
-780.14185330757289
 31
0.0
  0
LINE
  5
96
  8
1
 62
     7
 10
-1503.3665498003099
 20
-810.53415815298592
 30
0.0
 11
-1503.3665498003099
 21
-770.53415815298604
 31
0.0
  0
LINE
  5
97
  8
1
 62
     7
 10
-1566.3665498003099
 20
-800.92646299839953
 30
0.0
 11
-1579.3665498003099
 21
-800.92646299839919
 31
0.0
  0
LINE
  5
98
  8
1
 62
     7
 10
-1554.3665498003099
 20
-800.92646299839953
 30
0.0
 11
-1528.3665498003099
 21
-800.92646299839953
 31
0.0
  0
LINE
  5
99
  8
1
 62
     7
 10
-1554.3665498003099
 20
-780.14185330757266
 30
0.0
 11
-1528.3665498003099
 21
-780.14185330757266
 31
0.0
  0
LINE
  5
9A
  8
1
 62
     7
 10
-1566.3665498003099
 20
-780.14185330757266
 30
0.0
 11
-1579.3665498003099
 21
-780.14185330757289
 31
0.0
  0
LINE
  5
9B
  8
1
 62
     7
 10
-1541.3665498003099
 20
-810.53415815298592
 30
0.0
 11
-1541.3665498003099
 21
-770.53415815298604
 31
0.0
  0
LINE
  5
9C
  8
1
 62
     7
 10
-1392.1665498003099
 20
-802.03415815298604
 30
0.0
 11
-1392.1665498003099
 21
-788.03415815298604
 31
0.0
  0
LINE
  5
9D
  8
1
 62
     7
 10
-1392.1665498003099
 20
-802.03415815298604
 30
0.0
 11
-1396.1665498003099
 21
-802.03415815298604
 31
0.0
  0
LINE
  5
9E
  8
1
 62
     7
 10
-1444.3665498003099
 20
-805.53415815298615
 30
0.0
 11
-1444.56654980031
 21
-805.53415815298615
 31
0.0
  0
LINE
  5
9F
  8
1
 62
     7
 10
-1444.56654980031
 20
-805.53415815298615
 30
0.0
 11
-1444.56654980031
 21
-773.53415815298604
 31
0.0
  0
LINE
  5
A0
  8
1
 62
     7
 10
-1545.1665498003099
 20
-778.53415815298604
 30
0.0
 11
-1545.1665498003099
 21
-802.53415815298592
 31
0.0
  0
LINE
  5
A1
  8
1
 62
     7
 10
-1575.56654980031
 20
-778.53415815298604
 30
0.0
 11
-1575.56654980031
 21
-802.53415815298592
 31
0.0
  0
LINE
  5
A2
  8
1
 62
     7
 10
-1537.56654980031
 20
-802.53415815298592
 30
0.0
 11
-1537.56654980031
 21
-778.53415815298604
 31
0.0
  0
LINE
  5
A3
  8
1
 62
     7
 10
-1507.1665498003099
 20
-802.53415815298592
 30
0.0
 11
-1507.1665498003099
 21
-778.53415815298604
 31
0.0
  0
LINE
  5
A4
  8
1
 62
     7
 10
-1574.7375498003089
 20
-440.53415815298581
 30
0.0
 11
-1569.3665498003099
 21
-440.53415815298581
 31
0.0
  0
LINE
  5
A5
  8
1
 62
     7
 10
-1473.3665498003099
 20
-548.53415815298604
 30
0.0
 11
-1474.3665498003099
 21
-548.53415815298604
 31
0.0
  0
LINE
  5
A6
  8
1
 62
     7
 10
-1454.3665498003099
 20
-509.73415815298591
 30
0.0
 11
-1474.3665498003099
 21
-509.73415815298591
 31
0.0
  0
LINE
  5
A7
  8
1
 62
     7
 10
-1591.3665498003099
 20
-544.53415815298604
 30
0.0
 11
-1591.3665498003099
 21
-610.53415815298604
 31
0.0
  0
LINE
  5
A8
  8
1
 62
     7
 10
-1579.3665498003099
 20
-567.53415815298604
 30
0.0
 11
-1579.3665498003099
 21
-613.03415815298604
 31
0.0
  0
LINE
  5
A9
  8
1
 62
     7
 10
-1497.1665498003099
 20
-610.53415815298604
 30
0.0
 11
-1579.3665498003099
 21
-610.53415815298604
 31
0.0
  0
LINE
  5
AA
  8
1
 62
     7
 10
-1503.3665498003099
 20
-570.53415815298604
 30
0.0
 11
-1579.3665498003099
 21
-570.53415815298604
 31
0.0
  0
LINE
  5
AB
  8
1
  6
DASHDOT
 62
     3
 10
-1601.3665498003099
 20
-690.53415815298604
 30
0.0
 11
-1611.3665498003099
 21
-690.53415815298604
 31
0.0
  0
LINE
  5
AC
  8
1
  6
DASHDOT
 62
     3
 10
-1381.3665498003099
 20
-690.53415815298604
 30
0.0
 11
-1371.3665498003099
 21
-690.53415815298604
 31
0.0
  0
LINE
  5
AD
  8
1
  6
DASHDOT
 62
     3
 10
-994.49269595465046
 20
-514.66333212268967
 30
0.0
 11
-994.49269595464989
 21
-494.53415815298609
 31
0.0
  0
LINE
  5
AE
  8
1
 62
     7
 10
-997.12269595465
 20
-415.64999894797609
 30
0.0
 11
-997.12269595465
 21
-494.55398083830909
 31
0.0
  0
LINE
  5
AF
  8
1
 62
     7
 10
-995.80769595464994
 20
-410.64999894797609
 30
0.0
 11
-995.80769595464994
 21
-415.64999894797609
 31
0.0
  0
LINE
  5
B0
  8
1
 62
     7
 10
-996.09010900363398
 20
-410.64999894797609
 30
0.0
 11
-996.09010900363398
 21
-415.64999894797609
 31
0.0
  0
LINE
  5
B1
  8
1
 62
     7
 10
-996.374638570108
 20
-410.64999894797609
 30
0.0
 11
-996.374638570108
 21
-415.64999894797609
 31
0.0
  0
LINE
  5
B2
  8
1
 62
     7
 10
-995.53685706882322
 20
-410.64999894797609
 30
0.0
 11
-995.53685706882322
 21
-415.64999894797609
 31
0.0
  0
LINE
  5
B3
  8
1
 62
     7
 10
-995.23652030421204
 20
-410.64999894797609
 30
0.0
 11
-995.23652030421204
 21
-415.64999894797609
 31
0.0
  0
LINE
  5
B4
  8
1
 62
     7
 10
-993.17769595464995
 20
-415.64999894797609
 30
0.0
 11
-993.17769595464995
 21
-410.64999894797609
 31
0.0
  0
LINE
  5
B5
  8
1
 62
     7
 10
-992.89528290566602
 20
-415.64999894797609
 30
0.0
 11
-992.89528290566602
 21
-410.64999894797609
 31
0.0
  0
LINE
  5
B6
  8
1
 62
     7
 10
-992.610753339192
 20
-415.64999894797609
 30
0.0
 11
-992.610753339192
 21
-410.64999894797609
 31
0.0
  0
LINE
  5
B7
  8
1
 62
     7
 10
-993.44853484047735
 20
-415.64999894797609
 30
0.0
 11
-993.44853484047735
 21
-410.64999894797609
 31
0.0
  0
LINE
  5
B8
  8
1
 62
     7
 10
-993.74887160508797
 20
-415.64999894797609
 30
0.0
 11
-993.74887160508797
 21
-410.64999894797609
 31
0.0
  0
LINE
  5
B9
  8
1
 62
     7
 10
-997.12269595465
 20
-415.64999894797609
 30
0.0
 11
-991.86269595465001
 21
-415.64999894797609
 31
0.0
  0
LINE
  5
BA
  8
1
 62
     7
 10
-994.49269595464989
 20
-415.64999894797609
 30
0.0
 11
-994.49269595464989
 21
-494.53415815298609
 31
0.0
  0
LINE
  5
BB
  8
1
 62
     7
 10
-991.86269595465001
 20
-494.5434039434183
 30
0.0
 11
-991.86269595465001
 21
-415.64999894797609
 31
0.0
  0
LINE
  5
BC
  8
1
  6
DASHDOT
 62
     3
 10
-960.64407417969028
 20
-690.53415815298604
 30
0.0
 11
-1028.341317729609
 21
-690.53415815298604
 31
0.0
  0
LINE
  5
BD
  8
1
  6
DASHDOT
 62
     3
 10
-994.49269595464989
 20
-656.68553637802631
 30
0.0
 11
-994.49269595464989
 21
-724.38277992794576
 31
0.0
  0
LINE
  5
BE
  8
1
 62
     7
 10
-1569.3665498003099
 20
-495.53415815298581
 30
0.0
 11
-1568.3665498003099
 21
-494.53415815298592
 31
0.0
  0
LINE
  5
BF
  8
1
 62
     7
 10
-1454.3665498003099
 20
-509.73415815298591
 30
0.0
 11
-1454.3665498003099
 21
-504.53415815298598
 31
0.0
  0
LINE
  5
C0
  8
1
 62
     7
 10
-1473.3665498003099
 20
-578.73415815298586
 30
0.0
 11
-1473.3665498003099
 21
-548.53415815298604
 31
0.0
  0
LINE
  5
C1
  8
1
 62
     7
 10
-1503.3665498003099
 20
-578.73415815298586
 30
0.0
 11
-1473.3665498003099
 21
-578.73415815298586
 31
0.0
  0
LINE
  5
C2
  8
1
 62
     7
 10
-1579.3665498003099
 20
-600.83415815298599
 30
0.0
 11
-1583.3665498003099
 21
-600.83415815298599
 31
0.0
  0
LINE
  5
C3
  8
1
 62
     7
 10
-1583.3665498003099
 20
-613.03415815298604
 30
0.0
 11
-1579.3665498003099
 21
-613.03415815298604
 31
0.0
  0
LINE
  5
C4
  8
1
 62
     7
 10
-1583.3665498003099
 20
-600.83415815298599
 30
0.0
 11
-1583.3665498003099
 21
-613.03415815298604
 31
0.0
  0
LINE
  5
C5
  8
1
 62
     7
 10
-1464.3665498003099
 20
-494.53415815298592
 30
0.0
 11
-1454.3665498003099
 21
-504.53415815298598
 31
0.0
  0
LINE
  5
C6
  8
1
 62
     7
 10
-1503.3665498003099
 20
-598.53415815298604
 30
0.0
 11
-1501.3665498003099
 21
-598.53415815298604
 31
0.0
  0
LINE
  5
C7
  8
1
 62
     7
 10
-1470.3665498003099
 20
-579.53415815298604
 30
0.0
 11
-1501.3665498003099
 21
-579.53415815298604
 31
0.0
  0
LINE
  5
C8
  8
1
 62
     7
 10
-1501.3665498003099
 20
-598.53415815298604
 30
0.0
 11
-1501.3665498003099
 21
-579.53415815298604
 31
0.0
  0
LINE
  5
C9
  8
1
 62
     7
 10
-1470.3665498003099
 20
-528.53415815298604
 30
0.0
 11
-1470.3665498003099
 21
-579.53415815298604
 31
0.0
  0
LINE
  5
CA
  8
1
 62
     7
 10
-1472.3665498003099
 20
-528.53415815298604
 30
0.0
 11
-1470.3665498003099
 21
-528.53415815298604
 31
0.0
  0
LINE
  5
CB
  8
1
 62
     7
 10
-1472.3665498003099
 20
-510.53415815298592
 30
0.0
 11
-1472.3665498003099
 21
-528.53415815298604
 31
0.0
  0
LINE
  5
CC
  8
1
 62
     7
 10
-1444.3665498003099
 20
-510.53415815298592
 30
0.0
 11
-1472.3665498003099
 21
-510.53415815298592
 31
0.0
  0
LINE
  5
CD
  8
1
 62
     7
 10
-1444.3665498003099
 20
-594.53415815298604
 30
0.0
 11
-1444.3665498003099
 21
-490.53415815298592
 31
0.0
  0
LINE
  5
CE
  8
1
 62
     7
 10
-1503.3665498003099
 20
-607.53415815298604
 30
0.0
 11
-1444.56654980031
 21
-607.53415815298604
 31
0.0
  0
LINE
  5
CF
  8
1
 62
     7
 10
-1497.1665498003099
 20
-610.53415815298604
 30
0.0
 11
-1497.1665498003099
 21
-607.53415815298604
 31
0.0
  0
LINE
  5
D0
  8
1
 62
     7
 10
-1601.3665498003099
 20
-610.53415815298615
 30
0.0
 11
-1583.3665498003099
 21
-610.53415815298604
 31
0.0
  0
LINE
  5
D1
  8
1
 62
     7
 10
-1601.3665498003099
 20
-770.53415815298581
 30
0.0
 11
-1601.3665498003099
 21
-610.53415815298615
 31
0.0
  0
LINE
  5
D2
  8
1
 62
     7
 10
-1601.3665498003099
 20
-620.53415815298604
 30
0.0
 11
-1381.3665498003099
 21
-620.53415815298604
 31
0.0
  0
LINE
  5
D3
  8
1
 62
     7
 10
-1416.3665498003099
 20
-630.53415815298604
 30
0.0
 11
-1381.3665498003099
 21
-630.53415815298604
 31
0.0
  0
LINE
  5
D4
  8
1
 62
     7
 10
-1601.3665498003099
 20
-630.53415815298604
 30
0.0
 11
-1510.3665498003099
 21
-630.53415815298604
 31
0.0
  0
LINE
  5
D5
  8
1
 62
     7
 10
-1510.3665498003099
 20
-628.53415815298604
 30
0.0
 11
-1490.3665498003099
 21
-628.53415815298604
 31
0.0
  0
LINE
  5
D6
  8
1
 62
     7
 10
-1510.3665498003099
 20
-752.53415815298604
 30
0.0
 11
-1510.3665498003099
 21
-628.53415815298604
 31
0.0
  0
LINE
  5
D7
  8
1
 62
     7
 10
-1490.3665498003099
 20
-752.53415815298604
 30
0.0
 11
-1490.3665498003099
 21
-628.53415815298604
 31
0.0
  0
LINE
  5
D8
  8
1
 62
     7
 10
-1584.3665498003099
 20
-570.53415815298604
 30
0.0
 11
-1591.3665498003099
 21
-570.53415815298604
 31
0.0
  0
LINE
  5
D9
  8
1
 62
     7
 10
-1584.3665498003099
 20
-567.53415815298604
 30
0.0
 11
-1579.3665498003099
 21
-567.53415815298604
 31
0.0
  0
LINE
  5
DA
  8
1
 62
     7
 10
-1579.3665498003099
 20
-581.53415815298604
 30
0.0
 11
-1584.3665498003099
 21
-581.53415815298604
 31
0.0
  0
LINE
  5
DB
  8
1
 62
     7
 10
-1584.3665498003099
 20
-595.309384851706
 30
0.0
 11
-1584.3665498003099
 21
-567.53415815298604
 31
0.0
  0
LINE
  5
DC
  8
1
 62
     7
 10
-1590.3665498003099
 20
-543.53415815298604
 30
0.0
 11
-1569.3665498003099
 21
-543.53415815298604
 31
0.0
  0
LINE
  5
DD
  8
1
 62
     7
 10
-1569.3665498003099
 20
-543.53415815298604
 30
0.0
 11
-1569.3665498003099
 21
-440.53415815298581
 31
0.0
  0
LINE
  5
DE
  8
1
 62
     7
 10
-1584.3665498003099
 20
-440.53415815298581
 30
0.0
 11
-1577.3675498003099
 21
-440.53415815298581
 31
0.0
  0
LINE
  5
DF
  8
1
 62
     7
 10
-1584.3665498003099
 20
-533.53415815298604
 30
0.0
 11
-1569.3665498003099
 21
-533.53415815298604
 31
0.0
  0
LINE
  5
E0
  8
1
 62
     7
 10
-1584.3665498003099
 20
-533.53415815298604
 30
0.0
 11
-1584.3665498003099
 21
-440.53415815298581
 31
0.0
  0
LINE
  5
E1
  8
1
 62
     7
 10
-1581.1665498003099
 20
-533.53415815298604
 30
0.0
 11
-1581.1665498003099
 21
-440.53415815298581
 31
0.0
  0
LINE
  5
E2
  8
1
 62
     7
 10
-1474.3665498003099
 20
-548.53415815298604
 30
0.0
 11
-1474.3665498003099
 21
-509.73415815298591
 31
0.0
  0
LINE
  5
E3
  8
1
 62
     7
 10
-1392.1665498003099
 20
-593.03415815298604
 30
0.0
 11
-1396.1665498003099
 21
-593.03415815298604
 31
0.0
  0
LINE
  5
E4
  8
1
  6
DASHDOT
 62
     3
 10
-1393.6962662484721
 20
-590.53415815298604
 30
0.0
 11
-1446.907988210221
 21
-590.53415815298604
 31
0.0
  0
LINE
  5
E5
  8
1
 62
     7
 10
-1381.3665498003099
 20
-594.53415815298604
 30
0.0
 11
-1444.56654980031
 21
-594.53415815298604
 31
0.0
  0
LINE
  5
E6
  8
1
 62
     7
 10
-1381.3665498003099
 20
-590.53415815298604
 30
0.0
 11
-1392.1665498003099
 21
-590.53415815298604
 31
0.0
  0
LINE
  5
E7
  8
1
 62
     7
 10
-1381.3665498003099
 20
-790.53415815298604
 30
0.0
 11
-1381.3665498003099
 21
-590.53415815298604
 31
0.0
  0
LINE
  5
E8
  8
1
 62
     7
 10
-1416.3665498003099
 20
-628.53415815298604
 30
0.0
 11
-1416.3665498003099
 21
-752.53415815298604
 31
0.0
  0
LINE
  5
E9
  8
1
 62
     7
 10
-1436.3665498003099
 20
-628.53415815298604
 30
0.0
 11
-1416.3665498003099
 21
-628.53415815298604
 31
0.0
  0
LINE
  5
EA
  8
1
 62
     7
 10
-1436.3665498003099
 20
-752.53415815298604
 30
0.0
 11
-1436.3665498003099
 21
-628.53415815298604
 31
0.0
  0
LINE
  5
EB
  8
1
 62
     7
 10
-1490.3665498003099
 20
-630.53415815298604
 30
0.0
 11
-1436.3665498003099
 21
-630.53415815298604
 31
0.0
  0
LINE
  5
EC
  8
1
 62
     7
 10
-1396.1665498003099
 20
-586.53415815298604
 30
0.0
 11
-1444.56654980031
 21
-586.53415815298604
 31
0.0
  0
LINE
  5
ED
  8
1
 62
     7
 10
-1408.0665498003091
 20
-490.53415815298592
 30
0.0
 11
-1408.0665498003091
 21
-594.53415815298615
 31
0.0
  0
LINE
  5
EE
  8
1
 62
     7
 10
-1444.3665498003099
 20
-490.53415815298592
 30
0.0
 11
-1408.0665498003091
 21
-490.53415815298592
 31
0.0
  0
LINE
  5
EF
  8
1
 62
     3
 10
-1444.3665498003099
 20
-594.53415815298604
 30
0.0
 11
-1408.0665498003091
 21
-490.53415815298592
 31
0.0
  0
LINE
  5
F0
  8
1
 62
     3
 10
-1444.3665498003099
 20
-490.53415815298592
 30
0.0
 11
-1408.0665498003091
 21
-594.53415815298615
 31
0.0
  0
LINE
  5
F1
  8
1
 62
     7
 10
-1394.0665498003091
 20
-510.53415815298592
 30
0.0
 11
-1408.0665498003091
 21
-510.53415815298592
 31
0.0
  0
LINE
  5
F2
  8
1
 62
     7
 10
-1394.0665498003091
 20
-510.53415815298592
 30
0.0
 11
-1384.0665498003091
 21
-520.53415815298604
 31
0.0
  0
LINE
  5
F3
  8
1
 62
     7
 10
-1394.1665498003099
 20
-576.03415815298604
 30
0.0
 11
-1389.06654980031
 21
-576.03415815298604
 31
0.0
  0
LINE
  5
F4
  8
1
 62
     7
 10
-1384.0665498003091
 20
-571.03415815298604
 30
0.0
 11
-1389.06654980031
 21
-576.03415815298604
 31
0.0
  0
LINE
  5
F5
  8
1
 62
     7
 10
-1384.0665498003091
 20
-583.97238688643597
 30
0.0
 11
-1384.0665498003091
 21
-520.53415815298604
 31
0.0
  0
LINE
  5
F6
  8
1
 62
     7
 10
-1389.06654980031
 20
-583.97238688643597
 30
0.0
 11
-1389.06654980031
 21
-576.03415815298604
 31
0.0
  0
LINE
  5
F7
  8
1
 62
     7
 10
-1396.1665498003099
 20
-578.03415815298604
 30
0.0
 11
-1396.1665498003099
 21
-594.53415815298604
 31
0.0
  0
LINE
  5
F8
  8
1
 62
     7
 10
-1503.3665498003099
 20
-580.14185330757266
 30
0.0
 11
-1516.3665498003099
 21
-580.14185330757255
 31
0.0
  0
LINE
  5
F9
  8
1
 62
     7
 10
-1503.3665498003099
 20
-600.92646299839907
 30
0.0
 11
-1516.3665498003099
 21
-600.92646299839919
 31
0.0
  0
LINE
  5
FA
  8
1
 62
     7
 10
-1503.3665498003099
 20
-610.53415815298604
 30
0.0
 11
-1503.3665498003099
 21
-570.53415815298604
 31
0.0
  0
LINE
  5
FB
  8
1
 62
     7
 10
-1579.3665498003099
 20
-580.14185330757266
 30
0.0
 11
-1566.3665498003099
 21
-580.14185330757255
 31
0.0
  0
LINE
  5
FC
  8
1
 62
     7
 10
-1528.3665498003099
 20
-580.14185330757255
 30
0.0
 11
-1554.3665498003099
 21
-580.14185330757255
 31
0.0
  0
LINE
  5
FD
  8
1
 62
     7
 10
-1528.3665498003099
 20
-600.92646299839919
 30
0.0
 11
-1554.3665498003099
 21
-600.92646299839919
 31
0.0
  0
LINE
  5
FE
  8
1
 62
     7
 10
-1579.3665498003099
 20
-600.92646299839907
 30
0.0
 11
-1566.3665498003099
 21
-600.92646299839919
 31
0.0
  0
LINE
  5
FF
  8
1
 62
     7
 10
-1541.3665498003099
 20
-610.53415815298604
 30
0.0
 11
-1541.3665498003099
 21
-570.53415815298604
 31
0.0
  0
LINE
  5
100
  8
1
 62
     7
 10
-1392.1665498003099
 20
-593.03415815298604
 30
0.0
 11
-1392.1665498003099
 21
-579.03415815298604
 31
0.0
  0
LINE
  5
101
  8
1
 62
     7
 10
-1396.1665498003099
 20
-579.03415815298604
 30
0.0
 11
-1392.1665498003099
 21
-579.03415815298604
 31
0.0
  0
LINE
  5
102
  8
1
 62
     7
 10
-1444.56654980031
 20
-575.53415815298604
 30
0.0
 11
-1444.3665498003099
 21
-575.53415815298604
 31
0.0
  0
LINE
  5
103
  8
1
 62
     7
 10
-1444.56654980031
 20
-607.53415815298604
 30
0.0
 11
-1444.56654980031
 21
-575.53415815298604
 31
0.0
  0
LINE
  5
104
  8
1
 62
     7
 10
-1010.49269595465
 20
-632.70682897378231
 30
0.0
 11
-1010.49269595465
 21
-620.53415815298604
 31
0.0
  0
LINE
  5
105
  8
1
 62
     7
 10
-1010.49269595465
 20
-620.53415815298604
 30
0.0
 11
-978.49269595464989
 21
-620.53415815298604
 31
0.0
  0
LINE
  5
106
  8
1
 62
     7
 10
-978.49269595464989
 20
-620.53415815298604
 30
0.0
 11
-978.49269595464989
 21
-632.70682897378231
 31
0.0
  0
LINE
  5
107
  8
1
 62
     7
 10
-1019.492695954649
 20
-492.10280982314163
 30
0.0
 11
-1019.492695954649
 21
-508.78415815298592
 31
0.0
  0
LINE
  5
108
  8
1
 62
     7
 10
-1019.492695954649
 20
-508.78415815298592
 30
0.0
 11
-969.49269595464989
 21
-508.78415815298592
 31
0.0
  0
LINE
  5
109
  8
1
 62
     7
 10
-969.49269595464989
 20
-508.78415815298592
 30
0.0
 11
-969.49269595464989
 21
-492.10280982314163
 31
0.0
  0
LINE
  5
10A
  8
1
 62
     7
 10
-1178.839284515494
 20
-612.96911908267452
 30
0.0
 11
-1164.392813092471
 21
-621.30979324759664
 31
0.0
  0
LINE
  5
10B
  8
1
 62
     7
 10
-1164.392813092471
 20
-621.30979324759664
 30
0.0
 11
-1139.392813092471
 21
-578.00852305837475
 31
0.0
  0
LINE
  5
10C
  8
1
 62
     7
 10
-1139.392813092471
 20
-578.00852305837475
 30
0.0
 11
-1153.839284515494
 21
-569.66784889345286
 31
0.0
  0
LINE
  5
10D
  8
1
 62
     7
 10
-1153.8392845154949
 20
-811.40046741251865
 30
0.0
 11
-1139.392813092471
 21
-803.05979324759664
 31
0.0
  0
LINE
  5
10E
  8
1
 62
     7
 10
-1139.392813092471
 20
-803.05979324759664
 30
0.0
 11
-1164.392813092471
 21
-759.75852305837452
 31
0.0
  0
LINE
  5
10F
  8
1
 62
     7
 10
-1164.392813092471
 20
-759.75852305837452
 30
0.0
 11
-1178.839284515494
 21
-768.09919722329664
 31
0.0
  0
LINE
  5
110
  8
1
 62
     7
 10
-969.49269595465046
 20
-888.96550648283016
 30
0.0
 11
-969.49269595465046
 21
-872.2841581529857
 31
0.0
  0
LINE
  5
111
  8
1
 62
     7
 10
-969.49269595465046
 20
-872.2841581529857
 30
0.0
 11
-1019.492695954651
 21
-872.2841581529857
 31
0.0
  0
LINE
  5
112
  8
1
 62
     7
 10
-1019.492695954651
 20
-872.2841581529857
 30
0.0
 11
-1019.492695954651
 21
-888.96550648283016
 31
0.0
  0
LINE
  5
113
  8
1
 62
     7
 10
-810.14610739380635
 20
-768.09919722329755
 30
0.0
 11
-824.59257881682868
 21
-759.75852305837543
 31
0.0
  0
LINE
  5
114
  8
1
 62
     7
 10
-824.59257881682868
 20
-759.75852305837543
 30
0.0
 11
-849.59257881682868
 21
-803.05979324759721
 31
0.0
  0
LINE
  5
115
  8
1
 62
     7
 10
-849.59257881682868
 20
-803.05979324759721
 30
0.0
 11
-835.14610739380635
 21
-811.40046741251956
 31
0.0
  0
LINE
  5
116
  8
1
 62
     7
 10
-835.14610739380555
 20
-569.6678488934532
 30
0.0
 11
-849.59257881682777
 21
-578.00852305837509
 31
0.0
  0
LINE
  5
117
  8
1
 62
     7
 10
-849.59257881682777
 20
-578.00852305837509
 30
0.0
 11
-824.59257881682777
 21
-621.3097932475971
 31
0.0
  0
LINE
  5
118
  8
1
 62
     7
 10
-824.59257881682777
 20
-621.3097932475971
 30
0.0
 11
-810.14610739380555
 21
-612.96911908267498
 31
0.0
  0
LINE
  5
119
  8
1
  6
DASHDOT
 62
     3
 10
-851.56962740733434
 20
-608.01748605378589
 30
0.0
 11
-806.32026823100784
 21
-581.89275635267575
 31
0.0
  0
LINE
  5
11A
  8
1
  6
DASHDOT
 62
     3
 10
-1182.6651236782909
 20
-581.89275635267575
 30
0.0
 11
-1137.4157645019659
 21
-608.01748605378589
 31
0.0
  0
LINE
  5
11B
  8
1
  6
DASHDOT
 62
     3
 10
-806.32026823100784
 20
-799.17555995329622
 30
0.0
 11
-851.56962740733434
 21
-773.0508302521863
 31
0.0
  0
LINE
  5
11C
  8
1
  6
DASHDOT
 62
     3
 10
-1137.4157645019659
 20
-773.0508302521863
 30
0.0
 11
-1182.6651236782909
 21
-799.17555995329622
 31
0.0
  0
LINE
  5
11D
  8
1
 62
     7
 10
-1009.492695954649
 20
-495.10898065530512
 30
0.0
 11
-1009.492695954649
 21
-440.53415815298581
 31
0.0
  0
LINE
  5
11E
  8
1
 62
     7
 10
-1009.492695954649
 20
-440.53415815298581
 30
0.0
 11
-997.09269595464991
 21
-440.53415815298581
 31
0.0
  0
LINE
  5
11F
  8
1
 62
     7
 10
-979.49269595464989
 20
-440.53415815298581
 30
0.0
 11
-979.49269595464989
 21
-495.10898065530512
 31
0.0
  0
LINE
  5
120
  8
1
 62
     7
 10
-1006.29269595465
 20
-440.53415815298581
 30
0.0
 11
-1006.29269595465
 21
-494.88968468133379
 31
0.0
  0
LINE
  5
121
  8
1
 62
     7
 10
-982.69269595464993
 20
-440.53415815298581
 30
0.0
 11
-982.69269595464993
 21
-494.88968468133379
 31
0.0
  0
LINE
  5
122
  8
1
 62
     7
 10
-991.86269595465001
 20
-440.53415815298581
 30
0.0
 11
-979.49269595464989
 21
-440.53415815298581
 31
0.0
  0
LINE
  5
123
  8
1
 62
     7
 10
-1545.1665498003099
 20
-578.53415815298604
 30
0.0
 11
-1545.1665498003099
 21
-602.53415815298604
 31
0.0
  0
LINE
  5
124
  8
1
 62
     7
 10
-1575.56654980031
 20
-578.53415815298604
 30
0.0
 11
-1575.56654980031
 21
-602.53415815298604
 31
0.0
  0
LINE
  5
125
  8
1
 62
     7
 10
-1537.56654980031
 20
-602.53415815298604
 30
0.0
 11
-1537.56654980031
 21
-578.53415815298604
 31
0.0
  0
LINE
  5
126
  8
1
 62
     7
 10
-1507.1665498003099
 20
-602.53415815298604
 30
0.0
 11
-1507.1665498003099
 21
-578.53415815298604
 31
0.0
  0
LINE
  5
127
  8
1
  6
DASHDOT
 62
     3
 10
-2404.5326729705898
 20
-656.68553637802631
 30
0.0
 11
-2404.5326729705898
 21
-724.38277992794576
 31
0.0
  0
LINE
  5
128
  8
1
  6
DASHDOT
 62
     3
 10
-2370.6840511956302
 20
-690.53415815298604
 30
0.0
 11
-2438.3812947455481
 21
-690.53415815298604
 31
0.0
  0
LINE
  5
129
  8
1
 62
     7
 10
-1571.73754980031
 20
-514.84915815298598
 30
0.0
 11
-1569.3665498003099
 21
-514.84915815298598
 31
0.0
  0
LINE
  5
12A
  8
1
 62
     7
 10
-1571.73754980031
 20
-512.21915815298598
 30
0.0
 11
-1569.3665498003099
 21
-512.21915815298598
 31
0.0
  0
LINE
  5
12B
  8
1
 62
     7
 10
-1574.7375498003089
 20
-415.64999894797609
 30
0.0
 11
-1574.7375498003089
 21
-509.2191581529861
 31
0.0
  0
LINE
  5
12C
  8
1
 62
     7
 10
-1577.3675498003099
 20
-415.64999894797609
 30
0.0
 11
-1577.3675498003099
 21
-509.21915815298593
 31
0.0
  0
LINE
  5
12D
  8
1
 62
     7
 10
-1576.405286709992
 20
-410.64999894797609
 30
0.0
 11
-1576.405286709992
 21
-415.64999894797609
 31
0.0
  0
LINE
  5
12E
  8
1
 62
     7
 10
-1576.8104157971591
 20
-410.64999894797609
 30
0.0
 11
-1576.8104157971591
 21
-415.64999894797609
 31
0.0
  0
LINE
  5
12F
  8
1
 62
     7
 10
-1575.6673730155121
 20
-410.64999894797609
 30
0.0
 11
-1575.6673730155121
 21
-415.64999894797609
 31
0.0
  0
LINE
  5
130
  8
1
 62
     7
 10
-1575.291181720286
 20
-410.64999894797609
 30
0.0
 11
-1575.291181720286
 21
-415.64999894797609
 31
0.0
  0
LINE
  5
131
  8
1
 62
     7
 10
-1577.3675498003099
 20
-415.64999894797609
 30
0.0
 11
-1574.7375498003089
 21
-415.64999894797609
 31
0.0
  0
LINE
  5
132
  8
1
 62
     7
 10
-1576.0525498003101
 20
-410.64999894797609
 30
0.0
 11
-1576.0525498003101
 21
-415.64999894797609
 31
0.0
  0
LINE
  5
133
  8
1
 62
     7
 10
-1791.9968755888999
 20
-520.53415815298604
 30
0.0
 11
-1791.9968755888999
 21
-860.53415815298592
 31
0.0
  0
LINE
  5
134
  8
1
 62
     7
 10
-1852.296875588899
 20
-490.53415815298592
 30
0.0
 11
-1852.296875588899
 21
-890.53415815298604
 31
0.0
  0
LINE
  5
135
  8
1
 62
     7
 10
-1862.2968755889001
 20
-876.53415815298604
 30
0.0
 11
-1862.2968755889001
 21
-504.53415815298598
 31
0.0
  0
LINE
  5
136
  8
1
 62
     7
 10
-1801.9968755888999
 20
-870.53415815298615
 30
0.0
 11
-1801.9968755888999
 21
-510.53415815298592
 31
0.0
  0
LINE
  5
137
  8
1
 62
     7
 10
-1872.2968755889001
 20
-494.53415815298592
 30
0.0
 11
-1872.2968755889001
 21
-886.53415815298592
 31
0.0
  0
LINE
  5
138
  8
1
 62
     3
 10
-1852.296875588899
 20
-490.53415815298592
 30
0.0
 11
-1815.9968755888999
 21
-890.53415815298604
 31
0.0
  0
LINE
  5
139
  8
1
 62
     3
 10
-1852.296875588899
 20
-890.53415815298604
 30
0.0
 11
-1815.9968755888999
 21
-490.53415815298592
 31
0.0
  0
LINE
  5
13A
  8
1
 62
     7
 10
-1976.2968755889001
 20
-886.53415815298592
 30
0.0
 11
-1976.2968755889001
 21
-494.53415815298592
 31
0.0
  0
LINE
  5
13B
  8
1
 62
     7
 10
-1998.2968755889001
 20
-543.53415815298604
 30
0.0
 11
-1998.2968755889001
 21
-837.53415815298615
 31
0.0
  0
LINE
  5
13C
  8
1
 62
     7
 10
-1986.4968755888999
 20
-528.78415815298604
 30
0.0
 11
-1986.4968755888999
 21
-520.28415815298604
 31
0.0
  0
LINE
  5
13D
  8
1
 62
     7
 10
-1986.4968755888999
 20
-520.28415815298604
 30
0.0
 11
-1981.7968755889001
 21
-520.28415815298604
 31
0.0
  0
LINE
  5
13E
  8
1
 62
     7
 10
-1986.7968755889001
 20
-520.8037733952566
 30
0.0
 11
-1986.4968755888999
 21
-520.28415815298604
 31
0.0
  0
LINE
  5
13F
  8
1
 62
     7
 10
-1986.7968755889001
 20
-528.26454291071525
 30
0.0
 11
-1986.7968755889001
 21
-520.8037733952566
 31
0.0
  0
LINE
  5
140
  8
1
 62
     7
 10
-1986.4968755888999
 20
-528.78415815298604
 30
0.0
 11
-1986.7968755889001
 21
-528.26454291071525
 31
0.0
  0
LINE
  5
141
  8
1
 62
     7
 10
-1981.7968755889001
 20
-528.78415815298604
 30
0.0
 11
-1986.4968755888999
 21
-528.78415815298604
 31
0.0
  0
LINE
  5
142
  8
1
 62
     7
 10
-1981.7968755889001
 20
-519.93415815298567
 30
0.0
 11
-1980.4968755888999
 21
-519.93415815298567
 31
0.0
  0
LINE
  5
143
  8
1
 62
     7
 10
-1981.7968755889001
 20
-529.13415815298595
 30
0.0
 11
-1981.7968755889001
 21
-519.93415815298567
 31
0.0
  0
LINE
  5
144
  8
1
 62
     7
 10
-1980.4968755888999
 20
-529.13415815298595
 30
0.0
 11
-1981.7968755889001
 21
-529.13415815298595
 31
0.0
  0
LINE
  5
145
  8
1
 62
     7
 10
-1980.4968755888999
 20
-523.2341581529862
 30
0.0
 11
-1981.7968755889001
 21
-524.53415815298604
 31
0.0
  0
LINE
  5
146
  8
1
 62
     7
 10
-1980.4968755888999
 20
-524.53415815298604
 30
0.0
 11
-1981.7968755889001
 21
-525.83415815298599
 31
0.0
  0
LINE
  5
147
  8
1
 62
     7
 10
-1980.4968755888999
 20
-513.69496038890099
 30
0.0
 11
-1980.4968755888999
 21
-535.92320182598417
 31
0.0
  0
LINE
  5
148
  8
1
 62
     7
 10
-1977.296875588899
 20
-535.92320182598417
 30
0.0
 11
-1980.4968755888999
 21
-535.92320182598417
 31
0.0
  0
LINE
  5
149
  8
1
 62
     7
 10
-1977.296875588899
 20
-514.96656959184293
 30
0.0
 11
-1980.4968755888999
 21
-514.96656959184293
 31
0.0
  0
LINE
  5
14A
  8
1
 62
     7
 10
-1977.296875588899
 20
-513.69496038890099
 30
0.0
 11
-1980.4968755888999
 21
-513.69496038890099
 31
0.0
  0
LINE
  5
14B
  8
1
 62
     7
 10
-2424.5326729705898
 20
-523.37945761460662
 30
0.0
 11
-2426.5326729705889
 21
-522.22475707622755
 31
0.0
  0
LINE
  5
14C
  8
1
 62
     7
 10
-2424.5326729705898
 20
-525.68885869136523
 30
0.0
 11
-2424.5326729705898
 21
-523.37945761460662
 31
0.0
  0
LINE
  5
14D
  8
1
 62
     7
 10
-2426.5326729705889
 20
-526.84355922974453
 30
0.0
 11
-2424.5326729705898
 21
-525.68885869136523
 31
0.0
  0
LINE
  5
14E
  8
1
 62
     7
 10
-2428.5326729705898
 20
-525.68885869136523
 30
0.0
 11
-2426.5326729705889
 21
-526.84355922974453
 31
0.0
  0
LINE
  5
14F
  8
1
 62
     7
 10
-2428.5326729705898
 20
-523.37945761460662
 30
0.0
 11
-2428.5326729705898
 21
-525.68885869136523
 31
0.0
  0
LINE
  5
150
  8
1
 62
     7
 10
-2426.5326729705889
 20
-522.22475707622755
 30
0.0
 11
-2428.5326729705898
 21
-523.37945761460662
 31
0.0
  0
LINE
  5
151
  8
1
 62
     7
 10
-2380.5326729705898
 20
-523.37945761460662
 30
0.0
 11
-2382.5326729705898
 21
-522.22475707622755
 31
0.0
  0
LINE
  5
152
  8
1
 62
     7
 10
-2380.5326729705898
 20
-525.68885869136523
 30
0.0
 11
-2380.5326729705898
 21
-523.37945761460662
 31
0.0
  0
LINE
  5
153
  8
1
 62
     7
 10
-2382.5326729705898
 20
-526.84355922974453
 30
0.0
 11
-2380.5326729705898
 21
-525.68885869136523
 31
0.0
  0
LINE
  5
154
  8
1
 62
     7
 10
-2384.5326729705898
 20
-525.68885869136523
 30
0.0
 11
-2382.5326729705898
 21
-526.84355922974453
 31
0.0
  0
LINE
  5
155
  8
1
 62
     7
 10
-2384.5326729705898
 20
-523.37945761460662
 30
0.0
 11
-2384.5326729705898
 21
-525.68885869136523
 31
0.0
  0
LINE
  5
156
  8
1
 62
     7
 10
-2382.5326729705898
 20
-522.22475707622755
 30
0.0
 11
-2384.5326729705898
 21
-523.37945761460662
 31
0.0
  0
LINE
  5
157
  8
1
 62
     7
 10
-2434.5326729705898
 20
-530.92320182598394
 30
0.0
 11
-2434.5326729705898
 21
-518.90082874214386
 31
0.0
  0
LINE
  5
158
  8
1
 62
     7
 10
-2374.5326729705889
 20
-530.92320182598394
 30
0.0
 11
-2374.5326729705889
 21
-518.90082874214386
 31
0.0
  0
LINE
  5
159
  8
1
 62
     7
 10
-2389.5326729705889
 20
-440.53415815298581
 30
0.0
 11
-2419.5326729705889
 21
-440.53415815298581
 31
0.0
  0
LINE
  5
15A
  8
1
 62
     7
 10
-2419.5326729705889
 20
-534.42309598950987
 30
0.0
 11
-2419.5326729705889
 21
-440.53415815298581
 31
0.0
  0
LINE
  5
15B
  8
1
 62
     7
 10
-2389.5326729705889
 20
-534.42309598950987
 30
0.0
 11
-2389.5326729705889
 21
-440.53415815298581
 31
0.0
  0
LINE
  5
15C
  8
1
 62
     7
 10
-2420.5326729705898
 20
-632.70682897378231
 30
0.0
 11
-2420.5326729705898
 21
-620.53415815298604
 31
0.0
  0
LINE
  5
15D
  8
1
 62
     7
 10
-2420.5326729705898
 20
-620.53415815298604
 30
0.0
 11
-2388.5326729705898
 21
-620.53415815298604
 31
0.0
  0
LINE
  5
15E
  8
1
 62
     7
 10
-2388.5326729705898
 20
-620.53415815298604
 30
0.0
 11
-2388.5326729705898
 21
-632.70682897378231
 31
0.0
  0
LINE
  5
15F
  8
1
 62
     7
 10
-2379.5326729705898
 20
-492.10280982314163
 30
0.0
 11
-2379.5326729705898
 21
-496.13508408111699
 31
0.0
  0
LINE
  5
160
  8
1
 62
     7
 10
-2429.5326729705889
 20
-492.10280982314163
 30
0.0
 11
-2429.5326729705889
 21
-496.13508408111699
 31
0.0
  0
LINE
  5
161
  8
1
 62
     7
 10
-2563.8792615314342
 20
-569.6678488934532
 30
0.0
 11
-2560.387209589001
 21
-571.6839860224411
 31
0.0
  0
LINE
  5
162
  8
1
 62
     7
 10
-2588.8792615314342
 20
-612.96911908267498
 30
0.0
 11
-2585.387209589001
 21
-614.98525621166277
 31
0.0
  0
LINE
  5
163
  8
1
 62
     7
 10
-2588.8792615314328
 20
-768.09919722329801
 30
0.0
 11
-2585.387209589001
 21
-766.08306009431033
 31
0.0
  0
LINE
  5
164
  8
1
 62
     7
 10
-2563.8792615314328
 20
-811.40046741251956
 30
0.0
 11
-2560.387209589001
 21
-809.38433028353165
 31
0.0
  0
LINE
  5
165
  8
1
 62
     7
 10
-2429.5326729705889
 20
-888.96550648283051
 30
0.0
 11
-2429.5326729705889
 21
-884.93323222485515
 31
0.0
  0
LINE
  5
166
  8
1
 62
     7
 10
-2379.5326729705898
 20
-888.96550648283051
 30
0.0
 11
-2379.5326729705898
 21
-884.93323222485526
 31
0.0
  0
LINE
  5
167
  8
1
 62
     7
 10
-2245.1860844097459
 20
-811.40046741251956
 30
0.0
 11
-2248.6781363521782
 21
-809.38433028353165
 31
0.0
  0
LINE
  5
168
  8
1
 62
     7
 10
-2220.1860844097459
 20
-768.09919722329732
 30
0.0
 11
-2223.6781363521782
 21
-766.08306009430953
 31
0.0
  0
LINE
  5
169
  8
1
 62
     7
 10
-2220.1860844097459
 20
-612.96911908267509
 30
0.0
 11
-2223.6781363521782
 21
-614.98525621166289
 31
0.0
  0
LINE
  5
16A
  8
1
 62
     7
 10
-2245.1860844097441
 20
-569.66784889345354
 30
0.0
 11
-2248.6781363521782
 21
-571.6839860224411
 31
0.0
  0
LINE
  5
16B
  8
1
  6
DASHDOT
 62
     3
 10
-994.49269595465034
 20
-855.56750235138611
 30
0.0
 11
-994.49269595464989
 21
-907.81696175360617
 31
0.0
  0
LINE
  5
16C
  8
1
 62
     7
 10
-2405.847672970589
 20
-410.64999894797609
 30
0.0
 11
-2405.847672970589
 21
-415.64999894797609
 31
0.0
  0
LINE
  5
16D
  8
1
 62
     7
 10
-2406.1300860195738
 20
-410.64999894797609
 30
0.0
 11
-2406.1300860195738
 21
-415.64999894797609
 31
0.0
  0
LINE
  5
16E
  8
1
 62
     7
 10
-2406.4146155860481
 20
-410.64999894797609
 30
0.0
 11
-2406.4146155860481
 21
-415.64999894797609
 31
0.0
  0
LINE
  5
16F
  8
1
 62
     7
 10
-2405.576834084763
 20
-410.64999894797609
 30
0.0
 11
-2405.576834084763
 21
-415.64999894797609
 31
0.0
  0
LINE
  5
170
  8
1
 62
     7
 10
-2405.2764973201511
 20
-410.64999894797609
 30
0.0
 11
-2405.2764973201511
 21
-415.64999894797609
 31
0.0
  0
LINE
  5
171
  8
1
 62
     7
 10
-2403.2176729705898
 20
-415.64999894797609
 30
0.0
 11
-2403.2176729705898
 21
-410.64999894797609
 31
0.0
  0
LINE
  5
172
  8
1
 62
     7
 10
-2402.9352599216049
 20
-415.64999894797609
 30
0.0
 11
-2402.9352599216049
 21
-410.64999894797609
 31
0.0
  0
LINE
  5
173
  8
1
 62
     7
 10
-2402.6507303551321
 20
-415.64999894797609
 30
0.0
 11
-2402.6507303551321
 21
-410.64999894797609
 31
0.0
  0
LINE
  5
174
  8
1
 62
     7
 10
-2403.4885118564171
 20
-415.64999894797609
 30
0.0
 11
-2403.4885118564171
 21
-410.64999894797609
 31
0.0
  0
LINE
  5
175
  8
1
 62
     7
 10
-2403.7888486210281
 20
-415.64999894797609
 30
0.0
 11
-2403.7888486210281
 21
-410.64999894797609
 31
0.0
  0
LINE
  5
176
  8
1
 62
     7
 10
-2407.1626729705899
 20
-415.64999894797609
 30
0.0
 11
-2401.9026729705902
 21
-415.64999894797609
 31
0.0
  0
LINE
  5
177
  8
1
 62
     7
 10
-2404.5326729705898
 20
-440.53415815298581
 30
0.0
 11
-2404.5326729705898
 21
-415.64999894797609
 31
0.0
  0
LINE
  5
178
  8
1
 62
     7
 10
-2401.9026729705902
 20
-440.53415815298581
 30
0.0
 11
-2401.9026729705902
 21
-415.64999894797609
 31
0.0
  0
LINE
  5
179
  8
1
 62
     7
 10
-2407.1626729705899
 20
-440.53415815298581
 30
0.0
 11
-2407.1626729705899
 21
-415.64999894797609
 31
0.0
  0
ARC
  5
17A
  8
1
 62
     7
 10
-994.49269595464989
 20
-690.53415815298604
 30
0.0
 40
59.999999999999972
 50
105.4660099534204
 51
74.533990046579461
  0
ARC
  5
17B
  8
1
 62
     7
 10
-994.49269595464989
 20
-690.53415815298604
 30
0.0
 40
200.0000000000002
 50
37.180755781458188
 51
82.819244218541741
  0
ARC
  5
17C
  8
1
 62
     7
 10
-994.49269595464989
 20
-690.53415815298604
 30
0.0
 40
200.0
 50
337.18075578145812
 51
22.819244218541641
  0
ARC
  5
17D
  8
1
 62
     7
 10
-994.49269595464989
 20
-690.53415815298604
 30
0.0
 40
199.9999999999996
 50
277.18075578145812
 51
322.8192442185416
  0
ARC
  5
17E
  8
1
 62
     7
 10
-994.49269595464989
 20
-690.53415815298604
 30
0.0
 40
200.0000000000004
 50
217.180755781458
 51
262.81924421854143
  0
ARC
  5
17F
  8
1
 62
     7
 10
-994.49269595464989
 20
-690.53415815298604
 30
0.0
 40
200.0
 50
157.18075578145809
 51
202.8192442185416
  0
ARC
  5
180
  8
1
 62
     7
 10
-994.49269595464989
 20
-690.53415815298604
 30
0.0
 40
200.0
 50
97.180755781458245
 51
142.8192442185416
  0
ARC
  5
181
  8
1
 62
     7
 10
-994.49269595464989
 20
-690.53415815298604
 30
0.0
 40
195.9999999999998
 50
82.671902030108257
 51
97.328097969891715
  0
ARC
  5
182
  8
1
 62
     7
 10
-994.49269595464989
 20
-690.53415815298604
 30
0.0
 40
195.9999999999998
 50
142.6719020301081
 51
157.32809796989159
  0
ARC
  5
183
  8
1
 62
     7
 10
-994.49269595464989
 20
-690.53415815298604
 30
0.0
 40
195.99999999999949
 50
202.67190203010821
 51
217.32809796989139
  0
ARC
  5
184
  8
1
 62
     7
 10
-994.49269595464989
 20
-690.53415815298604
 30
0.0
 40
195.9999999999998
 50
262.67190203010801
 51
277.32809796989147
  0
ARC
  5
185
  8
1
 62
     7
 10
-994.49269595464989
 20
-690.53415815298604
 30
0.0
 40
196.0
 50
322.67190203010807
 51
337.32809796989159
  0
ARC
  5
186
  8
1
 62
     7
 10
-994.49269595464989
 20
-690.53415815298604
 30
0.0
 40
196.0000000000002
 50
22.671902030108232
 51
37.328097969891651
  0
ARC
  5
187
  8
1
 62
     7
 10
-1571.73754980031
 20
-509.2191581529861
 30
0.0
 40
5.6299999999998827
 50
180.0
 51
270.0
  0
ARC
  5
188
  8
1
 62
     7
 10
-1571.73754980031
 20
-509.2191581529861
 30
0.0
 40
3.0
 50
180.0
 51
270.0
  0
ARC
  5
189
  8
1
 62
     7
 10
-2404.5326729705898
 20
-660.53415815298581
 30
0.0
 40
127.0
 50
79.082582684186221
 51
100.91741731581369
  0
ARC
  5
18A
  8
1
 62
     7
 10
-2404.5326729705898
 20
-660.53415815298581
 30
0.0
 40
148.0
 50
97.180755781458302
 51
100.40212100895189
  0
ARC
  5
18B
  8
1
 62
     7
 10
-2404.5326729705898
 20
-660.53415815298581
 30
0.0
 40
147.99999999999989
 50
79.597878991048304
 51
82.819244218541741
  0
ARC
  5
18C
  8
1
 62
     7
 10
-2404.5326729705898
 20
-690.53415815298604
 30
0.0
 40
60.0
 50
105.4660099534206
 51
74.533990046579461
  0
ARC
  5
18D
  8
1
 62
     7
 10
-2404.5326729705898
 20
-690.53415815298604
 30
0.0
 40
200.00000000000031
 50
37.180755781457997
 51
82.819244218541741
  0
ARC
  5
18E
  8
1
 62
     7
 10
-2404.5326729705898
 20
-690.53415815298604
 30
0.0
 40
196.0
 50
94.389172732955046
 51
85.610827267044954
  0
ARC
  5
18F
  8
1
 62
     7
 10
-2404.5326729705898
 20
-690.53415815298604
 30
0.0
 40
199.99999999999989
 50
337.18075578145817
 51
22.819244218541641
  0
ARC
  5
190
  8
1
 62
     7
 10
-2404.5326729705898
 20
-690.53415815298604
 30
0.0
 40
200.00000000000031
 50
277.18075578145829
 51
322.8192442185416
  0
ARC
  5
191
  8
1
 62
     7
 10
-2404.5326729705898
 20
-690.53415815298604
 30
0.0
 40
199.99999999999949
 50
217.1807557814586
 51
262.8192442185416
  0
ARC
  5
192
  8
1
 62
     7
 10
-2404.5326729705898
 20
-690.53415815298604
 30
0.0
 40
200.00000000000031
 50
157.18075578145829
 51
202.819244218542
  0
ARC
  5
193
  8
1
 62
     7
 10
-2404.5326729705898
 20
-690.53415815298604
 30
0.0
 40
200.0
 50
97.180755781458302
 51
142.81924421854191
  0
CIRCLE
  5
194
  8
1
 62
     7
 10
-1522.3665498003099
 20
-790.53415815298604
 30
0.0
 40
12.0
  0
CIRCLE
  5
195
  8
1
 62
     7
 10
-1560.3665498003099
 20
-790.53415815298604
 30
0.0
 40
12.0
  0
CIRCLE
  5
196
  8
1
 62
     7
 10
-1522.3665498003099
 20
-590.53415815298604
 30
0.0
 40
12.0
  0
CIRCLE
  5
197
  8
1
 62
     7
 10
-1560.3665498003099
 20
-590.53415815298604
 30
0.0
 40
12.0
  0
CIRCLE
  5
198
  8
1
 62
     7
 10
-994.49269595464989
 20
-690.53415815298604
 30
0.0
 40
99.999999999999787
  0
CIRCLE
  5
199
  8
1
 62
     7
 10
-994.49269595464989
 20
-690.53415815298604
 30
0.0
 40
114.4999999999997
  0
CIRCLE
  5
19A
  8
1
 62
     7
 10
-994.49269595464989
 20
-690.53415815298604
 30
0.0
 40
169.99999999999969
  0
CIRCLE
  5
19B
  8
1
 62
     7
 10
-994.49269595464989
 20
-690.53415815298604
 30
0.0
 40
179.9999999999998
  0
CIRCLE
  5
19C
  8
1
 62
     7
 10
-2426.5326729705889
 20
-524.5341581529857
 30
0.0
 40
4.600000000000362
  0
CIRCLE
  5
19D
  8
1
 62
     7
 10
-2382.5326729705898
 20
-524.5341581529857
 30
0.0
 40
4.600000000000362
  0
CIRCLE
  5
19E
  8
1
 62
     7
 10
-2426.5326729705889
 20
-524.5341581529857
 30
0.0
 40
4.25
  0
CIRCLE
  5
19F
  8
1
 62
     7
 10
-2382.5326729705898
 20
-524.5341581529857
 30
0.0
 40
4.25
  0
CIRCLE
  5
1A0
  8
1
 62
     7
 10
-2404.5326729705898
 20
-690.53415815298604
 30
0.0
 40
80.0
  0
CIRCLE
  5
1A1
  8
1
 62
     7
 10
-2404.5326729705898
 20
-690.53415815298604
 30
0.0
 40
147.0
  0
CIRCLE
  5
1A2
  8
1
 62
     7
 10
-2404.5326729705898
 20
-690.53415815298604
 30
0.0
 40
120.0
  0
ARC
  5
1A3
  8
1
 62
     7
 10
-1394.1665498003099
 20
-803.03415815298604
 30
0.0
 40
2.0
 50
180.0
 51
270.0
  0
ARC
  5
1A4
  8
1
 62
     7
 10
-1394.1665498003099
 20
-578.03415815298604
 30
0.0
 40
2.0
 50
90.0
 51
180.0
  0
ARC
  5
1A5
  8
1
 62
     7
 10
-2429.5326729705889
 20
-530.92320182598394
 30
0.0
 40
5.0
 50
180.0
 51
280.91741731581737
  0
ARC
  5
1A6
  8
1
 62
     7
 10
-2379.5326729705898
 20
-530.92320182598394
 30
0.0
 40
4.999999999999857
 50
259.08258268418251
 51
0.0
  0
ARC
  5
1A7
  8
1
 62
     7
 10
-2430.5326729705898
 20
-518.90082874214386
 30
0.0
 40
3.9999999999999911
 50
100.4021210089512
 51
180.0
  0
ARC
  5
1A8
  8
1
 62
     7
 10
-2378.5326729705889
 20
-518.90082874214386
 30
0.0
 40
4.0
 50
0.0
 51
79.597878991055268
  0
ARC
  5
1A9
  8
1
 62
     7
 10
-2423.5326729705898
 20
-509.72633342230398
 30
0.0
 40
4.0000000000000151
 50
277.18075578145817
 51
0.0
  0
ARC
  5
1AA
  8
1
 62
     7
 10
-2385.5326729705889
 20
-509.72633342230398
 30
0.0
 40
4.0
 50
180.0
 51
262.81924421854171
  0
TEXT
  5
1AC
  8
1
 62
     7
 10
-2669.16766185296
 20
-359.06125307469807
 30
0.0
 40
22.0
  1
MDC 450
 41
0.9
  7
SIMPLEX
  0
ENDSEC
  0
EOF
