  0
SECTION
  2
HEADER
  9
$ACADVER
  1
AC1009
  9
$INSBASE
 10
0.0
 20
0.0
 30
0.0
  9
$EXTMIN
 10
-1536.390747179227
 20
-1002.635071135399
 30
0.0
  9
$EXTMAX
 10
469.23310652285818
 20
-310.49464641935811
 30
0.0
  9
$LIMMIN
 10
-1528.541457343917
 20
-1002.530372664812
  9
$LIMMAX
 10
469.23310652285818
 20
-310.49464641935811
  9
$ORTHOMODE
 70
     0
  9
$REGENMODE
 70
     1
  9
$FILLMODE
 70
     1
  9
$QTEXTMODE
 70
     0
  9
$MIRRTEXT
 70
     1
  9
$DRAGMODE
 70
     2
  9
$LTSCALE
 40
1.0
  9
$OSMODE
 70
    37
  9
$ATTMODE
 70
     1
  9
$TEXTSIZE
 40
3.5
  9
$TRACEWID
 40
0.5
  9
$TEXTSTYLE
  7
STANDARD
  9
$CLAYER
  8
0
  9
$CELTYPE
  6
BYLAYER
  9
$CECOLOR
 62
   256
  9
$DIMSCALE
 40
1.0
  9
$DIMASZ
 40
0.18
  9
$DIMEXO
 40
0.0625
  9
$DIMDLI
 40
0.38
  9
$DIMRND
 40
0.0
  9
$DIMDLE
 40
0.0
  9
$DIMEXE
 40
0.18
  9
$DIMTP
 40
0.0
  9
$DIMTM
 40
0.0
  9
$DIMTXT
 40
0.18
  9
$DIMCEN
 40
0.09
  9
$DIMTSZ
 40
0.0
  9
$DIMTOL
 70
     0
  9
$DIMLIM
 70
     0
  9
$DIMTIH
 70
     1
  9
$DIMTOH
 70
     1
  9
$DIMSE1
 70
     0
  9
$DIMSE2
 70
     0
  9
$DIMTAD
 70
     0
  9
$DIMZIN
 70
     0
  9
$DIMBLK
  1

  9
$DIMASO
 70
     1
  9
$DIMSHO
 70
     1
  9
$DIMPOST
  1

  9
$DIMAPOST
  1

  9
$DIMALT
 70
     0
  9
$DIMALTD
 70
     2
  9
$DIMALTF
 40
25.399999999999999
  9
$DIMLFAC
 40
1.0
  9
$DIMTOFL
 70
     0
  9
$DIMTVP
 40
0.0
  9
$DIMTIX
 70
     0
  9
$DIMSOXD
 70
     0
  9
$DIMSAH
 70
     0
  9
$DIMBLK1
  1

  9
$DIMBLK2
  1

  9
$DIMSTYLE
  2
STANDARD
  9
$DIMCLRD
 70
     0
  9
$DIMCLRE
 70
     0
  9
$DIMCLRT
 70
     0
  9
$DIMTFAC
 40
1.0
  9
$DIMGAP
 40
0.09
  9
$LUNITS
 70
     2
  9
$LUPREC
 70
     4
  9
$SKETCHINC
 40
0.1
  9
$FILLETRAD
 40
2.0
  9
$AUNITS
 70
     0
  9
$AUPREC
 70
     0
  9
$MENU
  1
ACAD
  9
$ELEVATION
 40
0.0
  9
$PELEVATION
 40
0.0
  9
$THICKNESS
 40
0.0
  9
$LIMCHECK
 70
     0
  9
$BLIPMODE
 70
     0
  9
$CHAMFERA
 40
0.0
  9
$CHAMFERB
 40
0.0
  9
$SKPOLY
 70
     0
  9
$TDCREATE
 40
2452095.0237138881
  9
$TDUPDATE
 40
2452095.0242574071
  9
$TDINDWG
 40
0.0005582176
  9
$TDUSRTIMER
 40
0.0005582176
  9
$USRTIMER
 70
     1
  9
$ANGBASE
 50
0.0
  9
$ANGDIR
 70
     0
  9
$PDMODE
 70
     0
  9
$PDSIZE
 40
0.0
  9
$PLINEWID
 40
0.0
  9
$COORDS
 70
     1
  9
$SPLFRAME
 70
     0
  9
$SPLINETYPE
 70
     6
  9
$SPLINESEGS
 70
     8
  9
$ATTDIA
 70
     0
  9
$ATTREQ
 70
     1
  9
$HANDLING
 70
 10241
  9
$HANDSEED
  5
1D4
  9
$SURFTAB1
 70
     6
  9
$SURFTAB2
 70
     6
  9
$SURFTYPE
 70
     6
  9
$SURFU
 70
     6
  9
$SURFV
 70
     6
  9
$UCSNAME
  2

  9
$UCSORG
 10
0.0
 20
0.0
 30
0.0
  9
$UCSXDIR
 10
1.0
 20
0.0
 30
0.0
  9
$UCSYDIR
 10
0.0
 20
1.0
 30
0.0
  9
$PUCSNAME
  2

  9
$PUCSORG
 10
0.0
 20
0.0
 30
0.0
  9
$PUCSXDIR
 10
1.0
 20
0.0
 30
0.0
  9
$PUCSYDIR
 10
0.0
 20
1.0
 30
0.0
  9
$USERI1
 70
     0
  9
$USERI2
 70
     0
  9
$USERI3
 70
     0
  9
$USERI4
 70
     0
  9
$USERI5
 70
     0
  9
$USERR1
 40
0.0
  9
$USERR2
 40
0.0
  9
$USERR3
 40
0.0
  9
$USERR4
 40
0.0
  9
$USERR5
 40
0.0
  9
$WORLDVIEW
 70
     1
  9
$SHADEDGE
 70
     3
  9
$SHADEDIF
 70
    70
  9
$TILEMODE
 70
     1
  9
$MAXACTVP
 70
    64
  9
$PLIMCHECK
 70
     0
  9
$PEXTMIN
 10
1.0000000000000000E+020
 20
1.0000000000000000E+020
 30
1.0000000000000000E+020
  9
$PEXTMAX
 10
-1.0000000000000000E+020
 20
-1.0000000000000000E+020
 30
-1.0000000000000000E+020
  9
$PLIMMIN
 10
0.0
 20
0.0
  9
$PLIMMAX
 10
12.0
 20
9.0
  9
$UNITMODE
 70
     0
  9
$VISRETAIN
 70
     1
  9
$PLINEGEN
 70
     0
  9
$PSLTSCALE
 70
     1
  0
ENDSEC
  0
SECTION
  2
TABLES
  0
TABLE
  2
VPORT
 70
     2
  0
VPORT
  2
*ACTIVE
 70
     0
 10
0.0
 20
0.0
 11
1.0
 21
1.0
 12
-1432.7480321048749
 22
-369.43496127518023
 13
0.0
 23
0.0
 14
1.0
 24
1.0
 15
0.0
 25
0.0
 16
0.0
 26
0.0
 36
1.0
 17
0.0
 27
0.0
 37
0.0
 40
9.0000016462864512
 41
2.4144144144144142
 42
50.0
 43
0.0
 44
0.0
 50
0.0
 51
0.0
 71
     0
 72
   100
 73
     1
 74
     1
 75
     0
 76
     0
 77
     0
 78
     0
  0
ENDTAB
  0
TABLE
  2
LTYPE
 70
     9
  0
LTYPE
  2
CONTINUOUS
 70
     0
  3
Solid line
 72
    65
 73
     0
 40
0.0
  0
LTYPE
  2
BORDER
 70
     0
  3
__ __ . __ __ .
 72
    65
 73
     6
 40
92.002775967548871
 49
26.286507419299671
 49
-13.143253709649841
 49
26.286507419299671
 49
-13.143253709649841
 49
0.0
 49
-13.143253709649841
  0
LTYPE
  2
CENTER
 70
     0
  3
____ _ ____ _
 72
    65
 73
     4
 40
105.1460296771987
 49
65.71626854824919
 49
-13.143253709649841
 49
13.143253709649841
 49
-13.143253709649841
  0
LTYPE
  2
DASHDOT
 70
     0
  3
__ . __ . __ .
 72
    65
 73
     4
 40
52.573014838599349
 49
26.286507419299671
 49
-13.143253709649841
 49
0.0
 49
-13.143253709649841
  0
LTYPE
  2
DASHED
 70
     0
  3
__ __ __ __ __
 72
    65
 73
     2
 40
39.429761128949501
 49
26.286507419299671
 49
-13.143253709649841
  0
LTYPE
  2
DIVIDE
 70
     0
  3
__ . . __ . . 
 72
    65
 73
     6
 40
65.71626854824919
 49
26.286507419299671
 49
-13.143253709649841
 49
0.0
 49
-13.143253709649841
 49
0.0
 49
-13.143253709649841
  0
LTYPE
  2
DOT
 70
     0
  3
..............
 72
    65
 73
     4
 40
26.286507419299671
 49
0.0
 49
-13.143253709649841
 49
0.0
 49
-13.143253709649841
  0
LTYPE
  2
HIDDEN
 70
     0
  3
_ _ _ _ _ _ _
 72
    65
 73
     2
 40
19.71488056447475
 49
13.143253709649841
 49
-6.5716268548249177
  0
LTYPE
  2
PHANTOM
 70
     0
  3
_____ _ _ _____ _ _ 
 72
    65
 73
     6
 40
131.43253709649841
 49
65.71626854824919
 49
-13.143253709649841
 49
13.143253709649841
 49
-13.143253709649841
 49
13.143253709649841
 49
-13.143253709649841
  0
ENDTAB
  0
TABLE
  2
LAYER
 70
     2
  0
LAYER
  2
0
 70
     0
 62
     7
  6
CONTINUOUS
  0
LAYER
  2
1
 70
     0
 62
     7
  6
CONTINUOUS
  0
ENDTAB
  0
TABLE
  2
STYLE
 70
     4
  0
STYLE
  2
STANDARD
 70
     0
 40
0.0
 41
1.0
 50
0.0
 71
     0
 42
3.5
  3
txt
  4

  0
STYLE
  2
SIMPLEX
 70
     0
 40
0.0
 41
1.0
 50
0.0
 71
     0
 42
3.5
  3
simplex
  4

  0
STYLE
  2
COMPLEX
 70
     0
 40
0.0
 41
1.0
 50
0.0
 71
     0
 42
3.5
  3
complex
  4

  0
STYLE
  2
ITALIC
 70
     0
 40
0.0
 41
1.0
 50
0.0
 71
     0
 42
3.5
  3
italic
  4

  0
ENDTAB
  0
TABLE
  2
VIEW
 70
     0
  0
ENDTAB
  0
TABLE
  2
UCS
 70
     0
  0
ENDTAB
  0
TABLE
  2
APPID
 70
     1
  0
APPID
  2
ACAD
 70
     0
  0
ENDTAB
  0
TABLE
  2
DIMSTYLE
 70
     1
  0
DIMSTYLE
  2
STANDARD
 70
     0
  3

  4

  5

  6

  7

 40
1.0
 41
0.18
 42
0.0625
 43
0.38
 44
0.18
 45
0.0
 46
0.0
 47
0.0
 48
0.0
140
0.18
141
0.09
142
0.0
143
25.399999999999999
144
1.0
145
0.0
146
1.0
147
0.09
 71
     0
 72
     0
 73
     1
 74
     1
 75
     0
 76
     0
 77
     0
 78
     0
170
     0
171
     2
172
     0
173
     0
174
     0
175
     0
176
     0
177
     0
178
     0
  0
ENDTAB
  0
ENDSEC
  0
SECTION
  2
BLOCKS
  0
BLOCK
  8
0
  2
$MODEL_SPACE
 70
     0
 10
0.0
 20
0.0
 30
0.0
  3
$MODEL_SPACE
  1

  0
ENDBLK
  5
20
  8
0
  0
BLOCK
 67
     1
  8
0
  2
$PAPER_SPACE
 70
     0
 10
0.0
 20
0.0
 30
0.0
  3
$PAPER_SPACE
  1

  0
ENDBLK
  5
1C
 67
     1
  8
0
  0
ENDSEC
  0
SECTION
  2
ENTITIES
  0
LINE
  5
33
  8
1
 62
     7
 10
-1137.7330427095731
 20
-638.63595380709819
 30
0.0
 11
-1142.004128107104
 21
-642.90703920462886
 31
0.0
  0
LINE
  5
34
  8
1
 62
     7
 10
-1091.3915974560291
 20
-800.51409943817168
 30
0.0
 11
-1097.431824351271
 21
-800.51409943817168
 31
0.0
  0
LINE
  5
35
  8
1
 62
     7
 10
-1173.088381768898
 20
-947.74758412857273
 30
0.0
 11
-1177.35946716643
 21
-943.47649873104172
 31
0.0
  0
LINE
  5
36
  8
1
 62
     7
 10
-1334.9665273999731
 20
-994.08902938211577
 30
0.0
 11
-1334.9665273999731
 21
-988.04880248687391
 31
0.0
  0
LINE
  5
37
  8
1
 62
     7
 10
-1482.200012090374
 20
-912.39224506924563
 30
0.0
 11
-1477.9289266928431
 21
-908.12115967171462
 31
0.0
  0
LINE
  5
38
  8
1
 62
     7
 10
-1528.541457343917
 20
-750.51409943817191
 30
0.0
 11
-1522.501230448675
 21
-750.51409943817191
 31
0.0
  0
LINE
  5
39
  8
1
 62
     7
 10
-1446.844673031047
 20
-603.28061474777076
 30
0.0
 11
-1442.573587633515
 21
-607.55170014530165
 31
0.0
  0
LINE
  5
3A
  8
1
 62
     7
 10
-1173.0883817689
 20
-603.28061474777064
 30
0.0
 11
-1177.35946716643
 21
-607.55170014530154
 31
0.0
  0
LINE
  5
3B
  8
1
 62
     7
 10
-1091.3915974560291
 20
-750.51409943817168
 30
0.0
 11
-1097.431824351271
 21
-750.51409943817168
 31
0.0
  0
LINE
  5
3C
  8
1
 62
     7
 10
-1137.733042709571
 20
-912.39224506924518
 30
0.0
 11
-1142.004128107103
 21
-908.12115967171417
 31
0.0
  0
LINE
  5
3D
  8
1
 62
     7
 10
-1284.9665273999731
 20
-994.08902938211577
 30
0.0
 11
-1284.9665273999731
 21
-988.04880248687391
 31
0.0
  0
LINE
  5
3E
  8
1
 62
     7
 10
-1446.844673031047
 20
-947.74758412857273
 30
0.0
 11
-1442.573587633515
 21
-943.47649873104206
 31
0.0
  0
LINE
  5
3F
  8
1
 62
     7
 10
-1528.541457343917
 20
-800.51409943817202
 30
0.0
 11
-1522.501230448675
 21
-800.51409943817202
 31
0.0
  0
LINE
  5
40
  8
1
 62
     7
 10
-1482.200012090374
 20
-638.63595380709819
 30
0.0
 11
-1477.9289266928431
 21
-642.90703920462897
 31
0.0
  0
LINE
  5
41
  8
1
 62
     7
 10
-1334.9665273999731
 20
-556.93916949422794
 30
0.0
 11
-1334.9665273999731
 21
-562.97939638946968
 31
0.0
  0
LINE
  5
42
  8
1
 62
     7
 10
-1284.9665273999731
 20
-556.93916949422794
 30
0.0
 11
-1284.9665273999731
 21
-562.97939638946968
 31
0.0
  0
LINE
  5
43
  8
1
  6
DASHDOT
 62
     3
 10
-433.79168491074728
 20
-775.5140994381718
 30
0.0
 11
-443.79168491074722
 21
-775.5140994381718
 31
0.0
  0
LINE
  5
44
  8
1
  6
DASHDOT
 62
     3
 10
-178.79168491074731
 20
-775.5140994381718
 30
0.0
 11
-168.79168491074731
 21
-775.5140994381718
 31
0.0
  0
LINE
  5
45
  8
1
 62
     7
 10
-359.79168491074728
 20
-630.51409943817202
 30
0.0
 11
-359.79168491074728
 21
-680.51409943817202
 31
0.0
  0
LINE
  5
46
  8
1
 62
     7
 10
-310.79168491074739
 20
-641.51409943817202
 30
0.0
 11
-310.79168491074739
 21
-665.51409943817202
 31
0.0
  0
LINE
  5
47
  8
1
 62
     7
 10
-313.79168491074728
 20
-665.51409943817202
 30
0.0
 11
-310.79168491074739
 21
-665.51409943817202
 31
0.0
  0
LINE
  5
48
  8
1
 62
     7
 10
-286.79168491074728
 20
-610.51409943817202
 30
0.0
 11
-287.79168491074739
 21
-610.51409943817202
 31
0.0
  0
LINE
  5
49
  8
1
 62
     7
 10
-268.79168491074722
 20
-577.01409943817202
 30
0.0
 11
-287.79168491074739
 21
-577.01409943817202
 31
0.0
  0
LINE
  5
4A
  8
1
 62
     7
 10
-258.79168491074722
 20
-658.51409943817202
 30
0.0
 11
-178.79168491074731
 21
-658.51409943817202
 31
0.0
  0
LINE
  5
4B
  8
1
 62
     7
 10
-433.79168491074728
 20
-870.51409943817157
 30
0.0
 11
-433.79168491074728
 21
-680.51409943817202
 31
0.0
  0
LINE
  5
4C
  8
1
 62
     7
 10
401.31585906319037
 20
-651.77041273052612
 30
0.0
 11
365.96052000386339
 21
-616.41507367119857
 31
0.0
  0
LINE
  5
4D
  8
1
 62
     7
 10
401.31585906319037
 20
-651.77041273052612
 30
0.0
 11
365.96052000386339
 21
-616.41507367119857
 31
0.0
  0
LINE
  5
4E
  8
1
 62
     7
 10
365.96052000386339
 20
-616.41507367119857
 30
0.0
 11
379.09497892729081
 21
-603.28061474777087
 31
0.0
  0
LINE
  5
4F
  8
1
 62
     7
 10
414.4503179866183
 20
-638.6359538070983
 30
0.0
 11
401.31585906319037
 21
-651.77041273052612
 31
0.0
  0
LINE
  5
50
  8
1
  6
DASHDOT
 62
     3
 10
377.9841787363614
 20
-639.74675399802788
 30
0.0
 11
402.74157953447332
 21
-614.98935319991642
 31
0.0
  0
LINE
  5
51
  8
1
 62
     7
 10
442.21683329621749
 20
-750.51409943817191
 30
0.0
 11
460.79176324016129
 21
-750.51409943817191
 31
0.0
  0
LINE
  5
52
  8
1
 62
     7
 10
442.21683329621749
 20
-800.51409943817202
 30
0.0
 11
442.21683329621749
 21
-750.51409943817191
 31
0.0
  0
LINE
  5
53
  8
1
 62
     7
 10
460.79176324016129
 20
-800.51409943817202
 30
0.0
 11
442.21683329621749
 21
-800.51409943817202
 31
0.0
  0
LINE
  5
54
  8
1
  6
DASHDOT
 62
     3
 10
377.9841787363614
 20
-911.28144487831605
 30
0.0
 11
402.74157953447332
 21
-936.03884567642763
 31
0.0
  0
LINE
  5
55
  8
1
 62
     7
 10
401.31585906319037
 20
-899.25778614581759
 30
0.0
 11
414.4503179866183
 21
-912.39224506924563
 31
0.0
  0
LINE
  5
56
  8
1
 62
     7
 10
365.96052000386322
 20
-934.61312520514525
 30
0.0
 11
401.31585906319037
 21
-899.25778614581759
 31
0.0
  0
LINE
  5
57
  8
1
 62
     7
 10
379.09497892729098
 20
-947.74758412857295
 30
0.0
 11
365.96052000386322
 21
-934.61312520514525
 31
0.0
  0
LINE
  5
58
  8
1
 62
     7
 10
42.216833296217359
 20
-750.51409943817191
 30
0.0
 11
42.216833296217253
 21
-800.51409943817202
 31
0.0
  0
LINE
  5
59
  8
1
 62
     7
 10
42.216833296217359
 20
-750.51409943817191
 30
0.0
 11
42.216833296217253
 21
-800.51409943817202
 31
0.0
  0
LINE
  5
5A
  8
1
 62
     7
 10
23.641903352273388
 20
-750.51409943817191
 30
0.0
 11
42.216833296217359
 21
-750.51409943817191
 31
0.0
  0
LINE
  5
5B
  8
1
 62
     7
 10
42.216833296217253
 20
-800.51409943817202
 30
0.0
 11
23.641903352273388
 21
-800.51409943817202
 31
0.0
  0
LINE
  5
5C
  8
1
 62
     7
 10
254.01683329621719
 20
-561.7508509578239
 30
0.0
 11
254.01683329621719
 21
-505.51409943817202
 31
0.0
  0
LINE
  5
5D
  8
1
 62
     7
 10
230.41683329621739
 20
-562.04044766821721
 30
0.0
 11
230.41683329621739
 21
-505.51409943817202
 31
0.0
  0
LINE
  5
5E
  8
1
 62
     7
 10
227.2168332962174
 20
-562.04044766821721
 30
0.0
 11
227.2168332962174
 21
-505.51409943817202
 31
0.0
  0
LINE
  5
5F
  8
1
 62
     7
 10
244.8468332962174
 20
-505.51409943817202
 30
0.0
 11
257.21683329621737
 21
-505.51409943817202
 31
0.0
  0
LINE
  5
60
  8
1
 62
     7
 10
257.21683329621737
 20
-505.51409943817202
 30
0.0
 11
257.21683329621737
 21
-562.04044766821721
 31
0.0
  0
LINE
  5
61
  8
1
 62
     7
 10
267.21683329621732
 20
-575.51409943817191
 30
0.0
 11
217.21683329621729
 21
-575.51409943817191
 31
0.0
  0
LINE
  5
62
  8
1
 62
     7
 10
267.21683329621732
 20
-575.51409943817191
 30
0.0
 11
217.21683329621729
 21
-575.51409943817191
 31
0.0
  0
LINE
  5
63
  8
1
 62
     7
 10
267.21683329621732
 20
-556.93916949422805
 30
0.0
 11
267.21683329621732
 21
-575.51409943817191
 31
0.0
  0
LINE
  5
64
  8
1
 62
     7
 10
267.21683329621732
 20
-575.51409943817191
 30
0.0
 11
217.21683329621729
 21
-575.51409943817191
 31
0.0
  0
LINE
  5
65
  8
1
 62
     7
 10
217.21683329621729
 20
-575.51409943817191
 30
0.0
 11
217.21683329621729
 21
-556.93916949422805
 31
0.0
  0
LINE
  5
66
  8
1
 62
     7
 10
267.21683329621732
 20
-575.51409943817191
 30
0.0
 11
217.21683329621729
 21
-575.51409943817191
 31
0.0
  0
LINE
  5
67
  8
1
 62
     7
 10
217.21683329621729
 20
-575.51409943817191
 30
0.0
 11
217.21683329621729
 21
-556.93916949422805
 31
0.0
  0
LINE
  5
68
  8
1
 62
     7
 10
118.4731465885714
 20
-616.41507367119857
 30
0.0
 11
83.117807529244047
 21
-651.77041273052612
 31
0.0
  0
LINE
  5
69
  8
1
 62
     7
 10
83.117807529244047
 20
-651.77041273052612
 30
0.0
 11
69.983348605816204
 21
-638.6359538070983
 31
0.0
  0
LINE
  5
6A
  8
1
 62
     7
 10
118.4731465885714
 20
-616.41507367119857
 30
0.0
 11
83.117807529244047
 21
-651.77041273052612
 31
0.0
  0
LINE
  5
6B
  8
1
 62
     7
 10
105.3386876651436
 20
-603.28061474777087
 30
0.0
 11
118.4731465885714
 21
-616.41507367119857
 31
0.0
  0
LINE
  5
6C
  8
1
 62
     7
 10
69.983348605816445
 20
-912.39224506924563
 30
0.0
 11
83.117807529244274
 21
-899.25778614581759
 31
0.0
  0
LINE
  5
6D
  8
1
 62
     7
 10
83.117807529244274
 20
-899.25778614581759
 30
0.0
 11
118.4731465885715
 21
-934.61312520514525
 31
0.0
  0
LINE
  5
6E
  8
1
 62
     7
 10
118.4731465885715
 20
-934.61312520514525
 30
0.0
 11
105.33868766514379
 21
-947.74758412857295
 31
0.0
  0
LINE
  5
6F
  8
1
 62
     7
 10
217.2168332962174
 20
-994.08902938211577
 30
0.0
 11
217.2168332962174
 21
-975.51409943817202
 31
0.0
  0
LINE
  5
70
  8
1
 62
     7
 10
217.2168332962174
 20
-975.51409943817202
 30
0.0
 11
267.21683329621737
 21
-975.51409943817202
 31
0.0
  0
LINE
  5
71
  8
1
 62
     7
 10
267.21683329621737
 20
-975.51409943817202
 30
0.0
 11
267.21683329621737
 21
-994.08902938211577
 31
0.0
  0
LINE
  5
72
  8
1
 62
     7
 10
224.7168332962174
 20
-707.7368908795421
 30
0.0
 11
224.71683329621729
 21
-694.51409943817168
 31
0.0
  0
LINE
  5
73
  8
1
 62
     7
 10
224.71683329621729
 20
-694.51409943817168
 30
0.0
 11
259.71683329621732
 21
-694.51409943817168
 31
0.0
  0
LINE
  5
74
  8
1
 62
     7
 10
259.71683329621732
 20
-694.51409943817168
 30
0.0
 11
259.71683329621737
 21
-707.7368908795421
 31
0.0
  0
LINE
  5
75
  8
1
 62
     7
 10
-192.6916849107472
 20
-644.51409943817202
 30
0.0
 11
-187.79168491074731
 21
-644.51409943817202
 31
0.0
  0
LINE
  5
76
  8
1
 62
     7
 10
-178.79168491074731
 20
-705.5140994381718
 30
0.0
 11
-220.79168491074731
 21
-705.5140994381718
 31
0.0
  0
LINE
  5
77
  8
1
 62
     7
 10
-178.79168491074731
 20
-694.51409943817168
 30
0.0
 11
-433.79168491074728
 21
-694.51409943817168
 31
0.0
  0
LINE
  5
78
  8
1
 62
     7
 10
-244.79168491074719
 20
-703.5140994381718
 30
0.0
 11
-220.79168491074731
 21
-703.5140994381718
 31
0.0
  0
LINE
  5
79
  8
1
 62
     7
 10
-220.79168491074731
 20
-847.51409943817157
 30
0.0
 11
-220.79168491074731
 21
-703.5140994381718
 31
0.0
  0
LINE
  5
7A
  8
1
 62
     7
 10
-244.79168491074719
 20
-847.51409943817157
 30
0.0
 11
-244.79168491074719
 21
-703.5140994381718
 31
0.0
  0
LINE
  5
7B
  8
1
 62
     7
 10
-178.79168491074731
 20
-655.51409943817202
 30
0.0
 11
-178.79168491074731
 21
-895.51409943817157
 31
0.0
  0
LINE
  5
7C
  8
1
 62
     7
 10
-178.79168491074731
 20
-655.51409943817202
 30
0.0
 11
-187.79168491074731
 21
-655.51409943817202
 31
0.0
  0
LINE
  5
7D
  8
1
 62
     7
 10
-187.79168491074731
 20
-644.51409943817202
 30
0.0
 11
-187.79168491074731
 21
-658.51409943817202
 31
0.0
  0
LINE
  5
7E
  8
1
 62
     7
 10
-186.69168491074731
 20
-652.74091026467693
 30
0.0
 11
-186.69168491074731
 21
-639.51409943817202
 31
0.0
  0
LINE
  5
7F
  8
1
 62
     7
 10
-183.69168491074731
 20
-636.51409943817202
 30
0.0
 11
-186.69168491074731
 21
-639.51409943817202
 31
0.0
  0
LINE
  5
80
  8
1
 62
     7
 10
-193.69168491074731
 20
-578.01409943817202
 30
0.0
 11
-183.69168491074731
 21
-588.01409943817214
 31
0.0
  0
LINE
  5
81
  8
1
 62
     7
 10
-192.79168491074731
 20
-658.51409943817202
 30
0.0
 11
-192.79168491074731
 21
-641.51409943817202
 31
0.0
  0
LINE
  5
82
  8
1
 62
     7
 10
-190.79168491074731
 20
-639.51409943817202
 30
0.0
 11
-186.69168491074731
 21
-639.51409943817202
 31
0.0
  0
LINE
  5
83
  8
1
 62
     7
 10
-183.69168491074731
 20
-652.74091026467693
 30
0.0
 11
-183.69168491074731
 21
-588.01409943817214
 31
0.0
  0
LINE
  5
84
  8
1
 62
     7
 10
-193.69168491074731
 20
-578.01409943817202
 30
0.0
 11
-205.6916849107472
 21
-578.01409943817202
 31
0.0
  0
LINE
  5
85
  8
1
 62
     3
 10
-205.6916849107472
 20
-658.51409943817202
 30
0.0
 11
-258.69168491074731
 21
-555.51409943817202
 31
0.0
  0
LINE
  5
86
  8
1
 62
     7
 10
-205.6916849107472
 20
-555.51409943817202
 30
0.0
 11
-205.6916849107472
 21
-658.51409943817202
 31
0.0
  0
LINE
  5
87
  8
1
 62
     7
 10
-205.6916849107472
 20
-555.51409943817202
 30
0.0
 11
-258.69168491074731
 21
-555.51409943817202
 31
0.0
  0
LINE
  5
88
  8
1
  6
DASHDOT
 62
     3
 10
-265.12560406716233
 20
-655.51409943817202
 30
0.0
 11
-190.9176507022803
 21
-655.51409943817202
 31
0.0
  0
LINE
  5
89
  8
1
 62
     7
 10
-258.79168491074722
 20
-652.31409943817187
 30
0.0
 11
-192.79168491074731
 21
-652.31409943817187
 31
0.0
  0
LINE
  5
8A
  8
1
 62
     7
 10
-401.79168491074722
 20
-562.51409943817202
 30
0.0
 11
-400.79168491074728
 21
-561.51409943817202
 31
0.0
  0
LINE
  5
8B
  8
1
 62
     7
 10
-313.79168491074728
 20
-640.51409943817202
 30
0.0
 11
-286.79168491074728
 21
-640.51409943817202
 31
0.0
  0
LINE
  5
8C
  8
1
 62
     7
 10
-286.79168491074728
 20
-640.51409943817202
 30
0.0
 11
-286.79168491074728
 21
-610.51409943817202
 31
0.0
  0
LINE
  5
8D
  8
1
 62
     7
 10
-268.79168491074722
 20
-577.01409943817202
 30
0.0
 11
-268.79168491074722
 21
-571.51409943817191
 31
0.0
  0
LINE
  5
8E
  8
1
 62
     7
 10
-287.79168491074739
 20
-610.51409943817202
 30
0.0
 11
-287.79168491074739
 21
-577.01409943817202
 31
0.0
  0
LINE
  5
8F
  8
1
 62
     7
 10
-313.79168491074728
 20
-668.26409943817202
 30
0.0
 11
-328.8899445961078
 21
-668.26409943817202
 31
0.0
  0
LINE
  5
90
  8
1
 62
     7
 10
-313.79168491074728
 20
-642.76409943817202
 30
0.0
 11
-328.8899445961078
 21
-642.76409943817202
 31
0.0
  0
LINE
  5
91
  8
1
 62
     7
 10
-355.79168491074739
 20
-671.32659943817202
 30
0.0
 11
-355.79168491074739
 21
-639.70159943817202
 31
0.0
  0
LINE
  5
92
  8
1
 62
     7
 10
-317.79168491074728
 20
-671.32659943817202
 30
0.0
 11
-317.79168491074728
 21
-639.70159943817202
 31
0.0
  0
LINE
  5
93
  8
1
 62
     7
 10
-344.69342522538682
 20
-668.26409943817202
 30
0.0
 11
-374.8899445961078
 21
-668.26409943817202
 31
0.0
  0
LINE
  5
94
  8
1
 62
     7
 10
-405.79168491074728
 20
-668.26409943817202
 30
0.0
 11
-390.69342522538682
 21
-668.26409943817202
 31
0.0
  0
LINE
  5
95
  8
1
 62
     7
 10
-344.69342522538682
 20
-642.76409943817202
 30
0.0
 11
-374.8899445961078
 21
-642.76409943817202
 31
0.0
  0
LINE
  5
96
  8
1
 62
     7
 10
-405.79168491074728
 20
-642.76409943817202
 30
0.0
 11
-390.69342522538682
 21
-642.76409943817202
 31
0.0
  0
LINE
  5
97
  8
1
 62
     7
 10
-401.79168491074728
 20
-671.32659943817202
 30
0.0
 11
-401.79168491074728
 21
-639.70159943817202
 31
0.0
  0
LINE
  5
98
  8
1
 62
     7
 10
-363.79168491074728
 20
-671.32659943817202
 30
0.0
 11
-363.79168491074728
 21
-639.70159943817202
 31
0.0
  0
LINE
  5
99
  8
1
 62
     7
 10
-405.79168491074728
 20
-669.01409943817202
 30
0.0
 11
-409.79168491074728
 21
-669.01409943817202
 31
0.0
  0
LINE
  5
9A
  8
1
 62
     7
 10
-405.79168491074728
 20
-683.0140994381718
 30
0.0
 11
-409.79168491074728
 21
-683.0140994381718
 31
0.0
  0
LINE
  5
9B
  8
1
 62
     7
 10
-409.79168491074728
 20
-683.0140994381718
 30
0.0
 11
-409.79168491074728
 21
-669.01409943817202
 31
0.0
  0
LINE
  5
9C
  8
1
 62
     7
 10
-405.79168491074728
 20
-642.51409943817202
 30
0.0
 11
-410.79168491074728
 21
-642.51409943817202
 31
0.0
  0
LINE
  5
9D
  8
1
 62
     7
 10
-405.79168491074728
 20
-683.0140994381718
 30
0.0
 11
-405.79168491074722
 21
-626.51409943817202
 31
0.0
  0
LINE
  5
9E
  8
1
 62
     7
 10
-410.79168491074728
 20
-659.12853909334399
 30
0.0
 11
-410.79168491074728
 21
-626.51409943817202
 31
0.0
  0
LINE
  5
9F
  8
1
 62
     7
 10
-410.79168491074728
 20
-626.51409943817202
 30
0.0
 11
-405.79168491074722
 21
-626.51409943817202
 31
0.0
  0
LINE
  5
A0
  8
1
 62
     7
 10
-417.79168491074722
 20
-630.51409943817202
 30
0.0
 11
-410.79168491074728
 21
-630.51409943817202
 31
0.0
  0
LINE
  5
A1
  8
1
 62
     7
 10
-313.79168491074728
 20
-630.51409943817202
 30
0.0
 11
-405.79168491074728
 21
-630.51409943817202
 31
0.0
  0
LINE
  5
A2
  8
1
 62
     7
 10
-313.79168491074728
 20
-680.51409943817202
 30
0.0
 11
-313.79168491074728
 21
-630.51409943817202
 31
0.0
  0
LINE
  5
A3
  8
1
 62
     7
 10
-278.79168491074722
 20
-561.51409943817202
 30
0.0
 11
-268.79168491074722
 21
-571.51409943817191
 31
0.0
  0
LINE
  5
A4
  8
1
 62
     7
 10
-285.79168491074728
 20
-594.51409943817202
 30
0.0
 11
-285.79168491074728
 21
-578.01409943817202
 31
0.0
  0
LINE
  5
A5
  8
1
 62
     7
 10
-283.79168491074728
 20
-641.51409943817202
 30
0.0
 11
-283.79168491074728
 21
-594.51409943817202
 31
0.0
  0
LINE
  5
A6
  8
1
 62
     7
 10
-310.79168491074739
 20
-641.51409943817202
 30
0.0
 11
-283.79168491074728
 21
-641.51409943817202
 31
0.0
  0
LINE
  5
A7
  8
1
 62
     7
 10
-258.79168491074722
 20
-675.51409943817191
 30
0.0
 11
-258.79168491074722
 21
-641.5140994381718
 31
0.0
  0
LINE
  5
A8
  8
1
 62
     7
 10
-313.79168491074728
 20
-675.51409943817191
 30
0.0
 11
-258.79168491074722
 21
-675.51409943817191
 31
0.0
  0
LINE
  5
A9
  8
1
 62
     7
 10
-307.79168491074722
 20
-675.51409943817191
 30
0.0
 11
-307.79168491074722
 21
-680.51409943817202
 31
0.0
  0
LINE
  5
AA
  8
1
 62
     7
 10
-405.79168491074728
 20
-680.51409943817202
 30
0.0
 11
-307.79168491074722
 21
-680.51409943817202
 31
0.0
  0
LINE
  5
AB
  8
1
 62
     7
 10
-433.79168491074728
 20
-680.51409943817202
 30
0.0
 11
-409.79168491074728
 21
-680.51409943817202
 31
0.0
  0
LINE
  5
AC
  8
1
 62
     7
 10
-416.79168491074728
 20
-601.51409943817202
 30
0.0
 11
-401.79168491074722
 21
-601.51409943817202
 31
0.0
  0
LINE
  5
AD
  8
1
 62
     7
 10
-417.79168491074722
 20
-680.51409943817202
 30
0.0
 11
-417.79168491074722
 21
-602.51409943817202
 31
0.0
  0
LINE
  5
AE
  8
1
 62
     7
 10
-401.79168491074722
 20
-601.51409943817202
 30
0.0
 11
-401.79168491074722
 21
-505.51409943817202
 31
0.0
  0
LINE
  5
AF
  8
1
 62
     7
 10
-413.59168491074729
 20
-598.51409943817202
 30
0.0
 11
-413.59168491074729
 21
-505.51409943817202
 31
0.0
  0
LINE
  5
B0
  8
1
 62
     7
 10
-416.79168491074728
 20
-598.51409943817202
 30
0.0
 11
-416.79168491074728
 21
-505.51409943817202
 31
0.0
  0
LINE
  5
B1
  8
1
 62
     7
 10
-416.79168491074728
 20
-598.51409943817202
 30
0.0
 11
-401.79168491074722
 21
-598.51409943817202
 31
0.0
  0
LINE
  5
B2
  8
1
 62
     7
 10
-416.79168491074728
 20
-505.51409943817202
 30
0.0
 11
-410.31868491074732
 21
-505.51409943817202
 31
0.0
  0
LINE
  5
B3
  8
1
 62
     7
 10
-322.79168491074722
 20
-703.5140994381718
 30
0.0
 11
-298.79168491074722
 21
-703.5140994381718
 31
0.0
  0
LINE
  5
B4
  8
1
 62
     7
 10
-322.79168491074722
 20
-847.51409943817157
 30
0.0
 11
-322.79168491074722
 21
-703.5140994381718
 31
0.0
  0
LINE
  5
B5
  8
1
 62
     7
 10
-298.79168491074722
 20
-847.51409943817157
 30
0.0
 11
-298.79168491074722
 21
-703.5140994381718
 31
0.0
  0
LINE
  5
B6
  8
1
 62
     7
 10
-298.79168491074722
 20
-705.5140994381718
 30
0.0
 11
-244.79168491074719
 21
-705.5140994381718
 31
0.0
  0
LINE
  5
B7
  8
1
 62
     7
 10
-433.79168491074728
 20
-705.5140994381718
 30
0.0
 11
-322.79168491074722
 21
-705.5140994381718
 31
0.0
  0
LINE
  5
B8
  8
1
 62
     7
 10
-285.79168491074728
 20
-594.51409943817202
 30
0.0
 11
-283.79168491074728
 21
-594.51409943817202
 31
0.0
  0
LINE
  5
B9
  8
1
 62
     7
 10
-258.69168491074731
 20
-578.01409943817202
 30
0.0
 11
-285.79168491074728
 21
-578.01409943817202
 31
0.0
  0
LINE
  5
BA
  8
1
  6
DASHDOT
 62
     3
 10
81.692087057961785
 20
-614.98935319991642
 30
0.0
 11
106.4494878560733
 21
-639.74675399802788
 31
0.0
  0
LINE
  5
BB
  8
1
  6
DASHDOT
 62
     3
 10
81.692087057961785
 20
-936.03884567642763
 30
0.0
 11
106.4494878560733
 21
-911.28144487831605
 31
0.0
  0
LINE
  5
BC
  8
1
 62
     7
 10
227.2168332962174
 20
-505.51409943817202
 30
0.0
 11
239.61683329621749
 21
-505.51409943817202
 31
0.0
  0
LINE
  5
BD
  8
1
  6
DASHDOT
 62
     3
 10
242.2168332962174
 20
-561.51409943817168
 30
0.0
 11
242.2168332962174
 21
-581.76045754402196
 31
0.0
  0
LINE
  5
BE
  8
1
  6
DASHDOT
 62
     3
 10
281.41256795964551
 20
-775.5140994381718
 30
0.0
 11
203.0210986327894
 21
-775.5140994381718
 31
0.0
  0
LINE
  5
BF
  8
1
  6
DASHDOT
 62
     3
 10
242.2168332962174
 20
-736.31836477474383
 30
0.0
 11
242.2168332962174
 21
-814.70983410159999
 31
0.0
  0
LINE
  5
C0
  8
1
 62
     7
 10
242.2168332962174
 20
-480.62994023316179
 30
0.0
 11
242.2168332962174
 21
-561.51409943817168
 31
0.0
  0
LINE
  5
C1
  8
1
 62
     7
 10
-409.00368491074749
 20
-475.6299402331619
 30
0.0
 11
-409.00368491074749
 21
-480.62994023316202
 31
0.0
  0
LINE
  5
C2
  8
1
 62
     7
 10
-410.31868491074732
 20
-480.62994023316179
 30
0.0
 11
-407.68868491074738
 21
-480.62994023316179
 31
0.0
  0
LINE
  5
C3
  8
1
 62
     7
 10
-408.24231683072441
 20
-475.62994023316179
 30
0.0
 11
-408.24231683072441
 21
-480.62994023316179
 31
0.0
  0
LINE
  5
C4
  8
1
 62
     7
 10
-408.6185081259494
 20
-475.62994023316179
 30
0.0
 11
-408.6185081259494
 21
-480.62994023316202
 31
0.0
  0
LINE
  5
C5
  8
1
 62
     7
 10
-409.76155090759647
 20
-475.62994023316179
 30
0.0
 11
-409.7615509075963
 21
-480.62994023316179
 31
0.0
  0
LINE
  5
C6
  8
1
 62
     7
 10
-409.35642182043051
 20
-475.62994023316179
 30
0.0
 11
-409.35642182043051
 21
-480.62994023316179
 31
0.0
  0
LINE
  5
C7
  8
1
 62
     7
 10
-410.31868491074732
 20
-480.62994023316179
 30
0.0
 11
-410.31868491074721
 21
-577.19909943817186
 31
0.0
  0
LINE
  5
C8
  8
1
 62
     7
 10
-407.68868491074738
 20
-480.62994023316179
 30
0.0
 11
-407.68868491074738
 21
-577.19909943817186
 31
0.0
  0
LINE
  5
C9
  8
1
 62
     7
 10
-404.68868491074721
 20
-580.19909943817208
 30
0.0
 11
-401.79168491074722
 21
-580.19909943817197
 31
0.0
  0
LINE
  5
CA
  8
1
 62
     7
 10
-404.68868491074721
 20
-582.82909943817128
 30
0.0
 11
-401.79168491074722
 21
-582.82909943817185
 31
0.0
  0
LINE
  5
CB
  8
1
 62
     7
 10
239.58683329621741
 20
-480.62994023316179
 30
0.0
 11
244.8468332962174
 21
-480.62994023316179
 31
0.0
  0
LINE
  5
CC
  8
1
 62
     7
 10
244.8468332962174
 20
-561.53026102975366
 30
0.0
 11
244.8468332962174
 21
-480.62994023316179
 31
0.0
  0
LINE
  5
CD
  8
1
 62
     7
 10
239.58683329621741
 20
-561.53026102975366
 30
0.0
 11
239.58683329621741
 21
-480.62994023316179
 31
0.0
  0
LINE
  5
CE
  8
1
 62
     7
 10
240.9191805846975
 20
-475.62994023316179
 30
0.0
 11
240.9191805846975
 21
-480.62994023316179
 31
0.0
  0
LINE
  5
CF
  8
1
 62
     7
 10
241.21220145361451
 20
-475.62994023316179
 30
0.0
 11
241.21220145361451
 21
-480.62994023316179
 31
0.0
  0
LINE
  5
D0
  8
1
 62
     7
 10
241.52475704712541
 20
-475.62994023316179
 30
0.0
 11
241.52475704712541
 21
-480.62994023316179
 31
0.0
  0
LINE
  5
D1
  8
1
 62
     7
 10
240.6066249911855
 20
-475.62994023316179
 30
0.0
 11
240.6066249911855
 21
-480.62994023316179
 31
0.0
  0
LINE
  5
D2
  8
1
 62
     7
 10
240.25499994848539
 20
-475.62994023316179
 30
0.0
 11
240.25499994848539
 21
-480.62994023316179
 31
0.0
  0
LINE
  5
D3
  8
1
 62
     7
 10
243.53683368035641
 20
-475.62994023316179
 30
0.0
 11
243.53683368035641
 21
-480.62994023316179
 31
0.0
  0
LINE
  5
D4
  8
1
 62
     7
 10
243.2828822606285
 20
-475.62994023316179
 30
0.0
 11
243.2828822606285
 21
-480.62994023316179
 31
0.0
  0
LINE
  5
D5
  8
1
 62
     7
 10
243.00939611630531
 20
-475.62994023316179
 30
0.0
 11
243.00939611630531
 21
-480.62994023316179
 31
0.0
  0
LINE
  5
D6
  8
1
 62
     7
 10
243.6931114771123
 20
-475.62994023316179
 30
0.0
 11
243.6931114771123
 21
-480.62994023316179
 31
0.0
  0
LINE
  5
D7
  8
1
 62
     7
 10
243.92752817224539
 20
-475.62994023316179
 30
0.0
 11
243.92752817224539
 21
-480.62994023316179
 31
0.0
  0
LINE
  5
D8
  8
1
  6
DASHDOT
 62
     3
 10
15.200560069577021
 20
-775.51409943817191
 30
0.0
 11
50.21281204737295
 21
-775.51409943817191
 31
0.0
  0
LINE
  5
D9
  8
1
  6
DASHDOT
 62
     3
 10
242.2168332962174
 20
-1002.530372664812
 30
0.0
 11
242.2168332962174
 21
-967.51812068701645
 31
0.0
  0
LINE
  5
DA
  8
1
  6
DASHDOT
 62
     3
 10
434.22085454506231
 20
-775.5140994381718
 30
0.0
 11
469.23310652285818
 21
-775.51409943817168
 31
0.0
  0
LINE
  5
DB
  8
1
 62
     7
 10
-359.79168491074728
 20
-870.51409943817157
 30
0.0
 11
-359.79168491074728
 21
-920.51409943817157
 31
0.0
  0
LINE
  5
DC
  8
1
 62
     7
 10
-310.79168491074739
 20
-885.51409943817157
 30
0.0
 11
-310.79168491074739
 21
-909.51409943817168
 31
0.0
  0
LINE
  5
DD
  8
1
 62
     7
 10
-310.79168491074739
 20
-885.51409943817157
 30
0.0
 11
-313.79168491074728
 21
-885.51409943817157
 31
0.0
  0
LINE
  5
DE
  8
1
 62
     7
 10
-287.79168491074739
 20
-940.51409943817168
 30
0.0
 11
-286.79168491074728
 21
-940.51409943817168
 31
0.0
  0
LINE
  5
DF
  8
1
 62
     7
 10
-287.79168491074739
 20
-974.01409943817157
 30
0.0
 11
-268.79168491074722
 21
-974.01409943817157
 31
0.0
  0
LINE
  5
E0
  8
1
 62
     7
 10
-178.79168491074731
 20
-892.51409943817168
 30
0.0
 11
-258.79168491074711
 21
-892.51409943817168
 31
0.0
  0
LINE
  5
E1
  8
1
 62
     7
 10
-187.79168491074731
 20
-906.51409943817168
 30
0.0
 11
-192.79168491074731
 21
-906.51409943817168
 31
0.0
  0
LINE
  5
E2
  8
1
 62
     7
 10
-220.79168491074731
 20
-845.51409943817157
 30
0.0
 11
-178.79168491074731
 21
-845.51409943817157
 31
0.0
  0
LINE
  5
E3
  8
1
 62
     7
 10
-220.79168491074731
 20
-847.51409943817157
 30
0.0
 11
-244.79168491074719
 21
-847.51409943817157
 31
0.0
  0
LINE
  5
E4
  8
1
 62
     7
 10
-187.79168491074731
 20
-895.51409943817157
 30
0.0
 11
-178.79168491074731
 21
-895.51409943817157
 31
0.0
  0
LINE
  5
E5
  8
1
 62
     7
 10
-187.79168491074731
 20
-892.51409943817168
 30
0.0
 11
-187.79168491074731
 21
-906.51409943817168
 31
0.0
  0
LINE
  5
E6
  8
1
 62
     7
 10
-186.69168491074731
 20
-911.51409943817157
 30
0.0
 11
-186.69168491074731
 21
-898.28728861166655
 31
0.0
  0
LINE
  5
E7
  8
1
 62
     7
 10
-186.69168491074731
 20
-911.51409943817157
 30
0.0
 11
-183.69168491074731
 21
-914.51409943817168
 31
0.0
  0
LINE
  5
E8
  8
1
 62
     7
 10
-183.69168491074731
 20
-963.01409943817168
 30
0.0
 11
-193.69168491074731
 21
-973.01409943817157
 31
0.0
  0
LINE
  5
E9
  8
1
 62
     7
 10
-192.79168491074731
 20
-909.51409943817168
 30
0.0
 11
-192.79168491074731
 21
-892.51409943817168
 31
0.0
  0
LINE
  5
EA
  8
1
 62
     7
 10
-186.69168491074731
 20
-911.51409943817157
 30
0.0
 11
-190.79168491074731
 21
-911.51409943817157
 31
0.0
  0
LINE
  5
EB
  8
1
 62
     7
 10
-183.69168491074731
 20
-963.01409943817168
 30
0.0
 11
-183.69168491074731
 21
-898.28728861166655
 31
0.0
  0
LINE
  5
EC
  8
1
 62
     7
 10
-205.6916849107472
 20
-973.01409943817157
 30
0.0
 11
-193.69168491074731
 21
-973.01409943817157
 31
0.0
  0
LINE
  5
ED
  8
1
 62
     3
 10
-258.69168491074731
 20
-995.51409943817157
 30
0.0
 11
-205.6916849107472
 21
-892.51409943817168
 31
0.0
  0
LINE
  5
EE
  8
1
 62
     7
 10
-205.6916849107472
 20
-892.51409943817168
 30
0.0
 11
-205.6916849107472
 21
-995.51409943817157
 31
0.0
  0
LINE
  5
EF
  8
1
 62
     7
 10
-258.69168491074731
 20
-995.51409943817157
 30
0.0
 11
-205.6916849107472
 21
-995.51409943817157
 31
0.0
  0
LINE
  5
F0
  8
1
  6
DASHDOT
 62
     3
 10
-190.8176507022803
 20
-895.51409943817157
 30
0.0
 11
-265.12560406716233
 21
-895.51409943817157
 31
0.0
  0
LINE
  5
F1
  8
1
 62
     7
 10
-192.79168491074731
 20
-898.71409943817162
 30
0.0
 11
-258.79168491074722
 21
-898.71409943817162
 31
0.0
  0
LINE
  5
F2
  8
1
 62
     7
 10
-278.79168491074722
 20
-989.51409943817168
 30
0.0
 11
-400.79168491074728
 21
-989.51409943817168
 31
0.0
  0
LINE
  5
F3
  8
1
 62
     7
 10
-286.79168491074728
 20
-910.51409943817157
 30
0.0
 11
-313.79168491074728
 21
-910.51409943817157
 31
0.0
  0
LINE
  5
F4
  8
1
 62
     7
 10
-286.79168491074728
 20
-940.51409943817168
 30
0.0
 11
-286.79168491074728
 21
-910.51409943817157
 31
0.0
  0
LINE
  5
F5
  8
1
 62
     7
 10
-268.79168491074722
 20
-979.51409943817157
 30
0.0
 11
-268.79168491074722
 21
-974.01409943817157
 31
0.0
  0
LINE
  5
F6
  8
1
 62
     7
 10
-287.79168491074739
 20
-974.01409943817157
 30
0.0
 11
-287.79168491074739
 21
-940.51409943817168
 31
0.0
  0
LINE
  5
F7
  8
1
 62
     7
 10
-328.8899445961078
 20
-882.76409943817168
 30
0.0
 11
-313.79168491074728
 21
-882.76409943817168
 31
0.0
  0
LINE
  5
F8
  8
1
 62
     7
 10
-328.8899445961078
 20
-908.26409943817168
 30
0.0
 11
-313.79168491074728
 21
-908.26409943817168
 31
0.0
  0
LINE
  5
F9
  8
1
 62
     7
 10
-355.79168491074739
 20
-911.32659943817157
 30
0.0
 11
-355.79168491074739
 21
-879.70159943817157
 31
0.0
  0
LINE
  5
FA
  8
1
 62
     7
 10
-317.79168491074728
 20
-911.32659943817157
 30
0.0
 11
-317.79168491074728
 21
-879.70159943817157
 31
0.0
  0
LINE
  5
FB
  8
1
 62
     7
 10
-374.8899445961078
 20
-882.76409943817168
 30
0.0
 11
-344.69342522538682
 21
-882.76409943817168
 31
0.0
  0
LINE
  5
FC
  8
1
 62
     7
 10
-390.69342522538682
 20
-882.76409943817168
 30
0.0
 11
-405.79168491074728
 21
-882.76409943817168
 31
0.0
  0
LINE
  5
FD
  8
1
 62
     7
 10
-374.8899445961078
 20
-908.26409943817168
 30
0.0
 11
-344.69342522538682
 21
-908.26409943817168
 31
0.0
  0
LINE
  5
FE
  8
1
 62
     7
 10
-390.69342522538682
 20
-908.26409943817168
 30
0.0
 11
-405.79168491074728
 21
-908.26409943817168
 31
0.0
  0
LINE
  5
FF
  8
1
 62
     7
 10
-401.79168491074728
 20
-911.32659943817157
 30
0.0
 11
-401.79168491074728
 21
-879.70159943817157
 31
0.0
  0
LINE
  5
100
  8
1
 62
     7
 10
-363.79168491074728
 20
-911.32659943817157
 30
0.0
 11
-363.79168491074728
 21
-879.70159943817157
 31
0.0
  0
LINE
  5
101
  8
1
 62
     7
 10
-409.79168491074728
 20
-882.01409943817157
 30
0.0
 11
-405.79168491074728
 21
-882.01409943817157
 31
0.0
  0
LINE
  5
102
  8
1
 62
     7
 10
-409.79168491074728
 20
-868.01409943817157
 30
0.0
 11
-405.79168491074728
 21
-868.01409943817157
 31
0.0
  0
LINE
  5
103
  8
1
 62
     7
 10
-409.79168491074728
 20
-882.01409943817157
 30
0.0
 11
-409.79168491074728
 21
-868.01409943817157
 31
0.0
  0
LINE
  5
104
  8
1
 62
     7
 10
-410.79168491074728
 20
-908.51409943817168
 30
0.0
 11
-405.79168491074728
 21
-908.51409943817168
 31
0.0
  0
LINE
  5
105
  8
1
 62
     7
 10
-405.79168491074728
 20
-924.51409943817168
 30
0.0
 11
-405.79168491074728
 21
-868.01409943817157
 31
0.0
  0
LINE
  5
106
  8
1
 62
     7
 10
-410.79168491074728
 20
-924.51409943817168
 30
0.0
 11
-410.79168491074728
 21
-891.89965978299961
 31
0.0
  0
LINE
  5
107
  8
1
 62
     7
 10
-405.79168491074728
 20
-924.51409943817168
 30
0.0
 11
-410.79168491074728
 21
-924.51409943817168
 31
0.0
  0
LINE
  5
108
  8
1
 62
     7
 10
-410.79168491074728
 20
-920.51409943817157
 30
0.0
 11
-417.79168491074722
 21
-920.51409943817157
 31
0.0
  0
LINE
  5
109
  8
1
 62
     7
 10
-405.79168491074728
 20
-920.51409943817157
 30
0.0
 11
-313.79168491074728
 21
-920.51409943817157
 31
0.0
  0
LINE
  5
10A
  8
1
 62
     7
 10
-313.79168491074728
 20
-920.51409943817157
 30
0.0
 11
-313.79168491074728
 21
-870.51409943817157
 31
0.0
  0
LINE
  5
10B
  8
1
 62
     7
 10
-268.79168491074722
 20
-979.51409943817157
 30
0.0
 11
-278.79168491074722
 21
-989.51409943817168
 31
0.0
  0
LINE
  5
10C
  8
1
 62
     7
 10
-285.79168491074728
 20
-973.01409943817157
 30
0.0
 11
-285.79168491074728
 21
-956.51409943817168
 31
0.0
  0
LINE
  5
10D
  8
1
 62
     7
 10
-283.8916849107473
 20
-956.51409943817168
 30
0.0
 11
-283.8916849107473
 21
-909.51409943817168
 31
0.0
  0
LINE
  5
10E
  8
1
 62
     7
 10
-283.8916849107473
 20
-909.51409943817168
 30
0.0
 11
-310.79168491074739
 21
-909.51409943817168
 31
0.0
  0
LINE
  5
10F
  8
1
 62
     7
 10
-258.79168491074722
 20
-875.51409943817168
 30
0.0
 11
-313.79168491074728
 21
-875.51409943817168
 31
0.0
  0
LINE
  5
110
  8
1
 62
     7
 10
-307.79168491074722
 20
-870.51409943817157
 30
0.0
 11
-307.79168491074722
 21
-875.51409943817168
 31
0.0
  0
LINE
  5
111
  8
1
 62
     7
 10
-307.79168491074722
 20
-870.51409943817157
 30
0.0
 11
-405.79168491074728
 21
-870.51409943817157
 31
0.0
  0
LINE
  5
112
  8
1
 62
     7
 10
-409.79168491074728
 20
-870.51409943817157
 30
0.0
 11
-433.79168491074728
 21
-870.51409943817157
 31
0.0
  0
LINE
  5
113
  8
1
 62
     7
 10
-401.79168491074722
 20
-949.51409943817168
 30
0.0
 11
-416.79168491074728
 21
-949.51409943817168
 31
0.0
  0
LINE
  5
114
  8
1
 62
     7
 10
-417.79168491074722
 20
-948.51409943817168
 30
0.0
 11
-417.79168491074722
 21
-870.51409943817157
 31
0.0
  0
LINE
  5
115
  8
1
 62
     7
 10
-298.79168491074722
 20
-847.51409943817157
 30
0.0
 11
-322.79168491074722
 21
-847.51409943817157
 31
0.0
  0
LINE
  5
116
  8
1
 62
     7
 10
-244.79168491074719
 20
-845.51409943817157
 30
0.0
 11
-298.79168491074722
 21
-845.51409943817157
 31
0.0
  0
LINE
  5
117
  8
1
 62
     7
 10
-322.79168491074722
 20
-845.51409943817157
 30
0.0
 11
-433.79168491074728
 21
-845.51409943817157
 31
0.0
  0
LINE
  5
118
  8
1
 62
     7
 10
-283.8916849107473
 20
-956.51409943817168
 30
0.0
 11
-285.79168491074728
 21
-956.51409943817168
 31
0.0
  0
LINE
  5
119
  8
1
 62
     7
 10
-285.79168491074728
 20
-973.01409943817157
 30
0.0
 11
-258.79168491074722
 21
-973.01409943817157
 31
0.0
  0
LINE
  5
11A
  8
1
 62
     7
 10
-401.79168491074722
 20
-988.51409943817157
 30
0.0
 11
-401.79168491074722
 21
-949.51409943817168
 31
0.0
  0
LINE
  5
11B
  8
1
 62
     7
 10
-417.79168491074722
 20
-602.51409943817202
 30
0.0
 11
-416.79168491074728
 21
-601.51409943817202
 31
0.0
  0
LINE
  5
11C
  8
1
 62
     7
 10
-417.79168491074722
 20
-948.51409943817168
 30
0.0
 11
-416.79168491074728
 21
-949.51409943817168
 31
0.0
  0
LINE
  5
11D
  8
1
 62
     7
 10
-401.79168491074722
 20
-988.51409943817157
 30
0.0
 11
-400.79168491074728
 21
-989.51409943817168
 31
0.0
  0
LINE
  5
11E
  8
1
 62
     7
 10
-400.79168491074728
 20
-561.51409943817202
 30
0.0
 11
-278.79168491074722
 21
-561.51409943817202
 31
0.0
  0
LINE
  5
11F
  8
1
 62
     7
 10
-407.68868491074738
 20
-505.51409943817202
 30
0.0
 11
-401.79168491074722
 21
-505.51409943817202
 31
0.0
  0
LINE
  5
120
  8
1
  6
DASHDOT
 62
     3
 10
-888.79168491074722
 20
-775.5140994381718
 30
0.0
 11
-898.79168491074722
 21
-775.5140994381718
 31
0.0
  0
LINE
  5
121
  8
1
  6
DASHDOT
 62
     3
 10
-633.79168491074722
 20
-775.5140994381718
 30
0.0
 11
-623.79168491074722
 21
-775.5140994381718
 31
0.0
  0
LINE
  5
122
  8
1
 62
     7
 10
-888.79168491074722
 20
-870.51409943817157
 30
0.0
 11
-888.79168491074722
 21
-680.51409943817202
 31
0.0
  0
LINE
  5
123
  8
1
 62
     7
 10
-633.79168491074722
 20
-655.51409943817202
 30
0.0
 11
-633.79168491074722
 21
-895.51409943817157
 31
0.0
  0
LINE
  5
124
  8
1
 62
     7
 10
-633.79168491074722
 20
-655.51409943817202
 30
0.0
 11
-638.69168491074709
 21
-655.51409943817202
 31
0.0
  0
LINE
  5
125
  8
1
 62
     7
 10
-648.6916849107472
 20
-578.01409943817202
 30
0.0
 11
-638.69168491074709
 21
-588.01409943817191
 31
0.0
  0
LINE
  5
126
  8
1
 62
     7
 10
-648.6916849107472
 20
-578.01409943817202
 30
0.0
 11
-660.6916849107472
 21
-578.01409943817202
 31
0.0
  0
LINE
  5
127
  8
1
 62
     7
 10
-660.6916849107472
 20
-555.51409943817202
 30
0.0
 11
-660.6916849107472
 21
-995.51409943817157
 31
0.0
  0
LINE
  5
128
  8
1
 62
     7
 10
-660.6916849107472
 20
-555.51409943817202
 30
0.0
 11
-713.69168491074709
 21
-555.51409943817202
 31
0.0
  0
LINE
  5
129
  8
1
 62
     7
 10
-856.79168491074722
 20
-562.51409943817202
 30
0.0
 11
-855.79168491074722
 21
-561.51409943817202
 31
0.0
  0
LINE
  5
12A
  8
1
 62
     7
 10
-733.79168491074722
 20
-561.51409943817202
 30
0.0
 11
-723.79168491074722
 21
-571.51409943817191
 31
0.0
  0
LINE
  5
12B
  8
1
 62
     7
 10
-888.79168491074722
 20
-680.51409943817202
 30
0.0
 11
-872.79168491074722
 21
-680.51409943817202
 31
0.0
  0
LINE
  5
12C
  8
1
 62
     7
 10
-871.79168491074722
 20
-601.51409943817202
 30
0.0
 11
-856.79168491074722
 21
-601.51409943817202
 31
0.0
  0
LINE
  5
12D
  8
1
 62
     7
 10
-872.79168491074722
 20
-948.51409943817168
 30
0.0
 11
-872.79168491074722
 21
-602.51409943817202
 31
0.0
  0
LINE
  5
12E
  8
1
 62
     7
 10
-871.79168491074722
 20
-598.51409943817202
 30
0.0
 11
-871.79168491074722
 21
-505.51409943817202
 31
0.0
  0
LINE
  5
12F
  8
1
 62
     7
 10
-871.79168491074722
 20
-598.51409943817202
 30
0.0
 11
-859.99168491074715
 21
-598.51409943817202
 31
0.0
  0
LINE
  5
130
  8
1
 62
     7
 10
-713.69168491074709
 20
-578.01409943817202
 30
0.0
 11
-723.79168491074722
 21
-578.01409943817202
 31
0.0
  0
LINE
  5
131
  8
1
 62
     7
 10
-864.00368491074755
 20
-475.6299402331619
 30
0.0
 11
-864.00368491074755
 21
-480.62994023316202
 31
0.0
  0
LINE
  5
132
  8
1
 62
     7
 10
-865.31868491074715
 20
-480.62994023316179
 30
0.0
 11
-862.68868491074738
 21
-480.62994023316179
 31
0.0
  0
LINE
  5
133
  8
1
 62
     7
 10
-863.24231683072458
 20
-475.62994023316179
 30
0.0
 11
-863.24231683072435
 21
-480.62994023316179
 31
0.0
  0
LINE
  5
134
  8
1
 62
     7
 10
-863.61850812594957
 20
-475.62994023316179
 30
0.0
 11
-863.61850812594957
 21
-480.62994023316202
 31
0.0
  0
LINE
  5
135
  8
1
 62
     7
 10
-864.7615509075963
 20
-475.62994023316179
 30
0.0
 11
-864.7615509075963
 21
-480.62994023316179
 31
0.0
  0
LINE
  5
136
  8
1
 62
     7
 10
-864.35642182043046
 20
-475.62994023316179
 30
0.0
 11
-864.35642182043046
 21
-480.62994023316179
 31
0.0
  0
LINE
  5
137
  8
1
 62
     7
 10
-638.69168491074709
 20
-895.51409943817157
 30
0.0
 11
-633.79168491074722
 21
-895.51409943817157
 31
0.0
  0
LINE
  5
138
  8
1
 62
     7
 10
-638.69168491074709
 20
-963.01409943817168
 30
0.0
 11
-648.6916849107472
 21
-973.01409943817157
 31
0.0
  0
LINE
  5
139
  8
1
 62
     7
 10
-660.6916849107472
 20
-973.01409943817157
 30
0.0
 11
-648.6916849107472
 21
-973.01409943817157
 31
0.0
  0
LINE
  5
13A
  8
1
 62
     7
 10
-713.69168491074709
 20
-995.51409943817157
 30
0.0
 11
-660.6916849107472
 21
-995.51409943817157
 31
0.0
  0
LINE
  5
13B
  8
1
 62
     7
 10
-733.79168491074722
 20
-989.51409943817168
 30
0.0
 11
-855.79168491074722
 21
-989.51409943817168
 31
0.0
  0
LINE
  5
13C
  8
1
 62
     7
 10
-723.79168491074722
 20
-979.51409943817157
 30
0.0
 11
-733.79168491074722
 21
-989.51409943817168
 31
0.0
  0
LINE
  5
13D
  8
1
 62
     7
 10
-713.69168491074709
 20
-995.51409943817157
 30
0.0
 11
-713.69168491074709
 21
-555.51409943817202
 31
0.0
  0
LINE
  5
13E
  8
1
 62
     7
 10
-856.79168491074722
 20
-949.51409943817168
 30
0.0
 11
-871.79168491074722
 21
-949.51409943817168
 31
0.0
  0
LINE
  5
13F
  8
1
 62
     7
 10
-723.79168491074722
 20
-973.01409943817157
 30
0.0
 11
-713.69168491074709
 21
-973.01409943817157
 31
0.0
  0
LINE
  5
140
  8
1
 62
     7
 10
-872.79168491074722
 20
-602.51409943817202
 30
0.0
 11
-871.79168491074722
 21
-601.51409943817202
 31
0.0
  0
LINE
  5
141
  8
1
 62
     7
 10
-872.79168491074722
 20
-948.51409943817168
 30
0.0
 11
-871.79168491074722
 21
-949.51409943817168
 31
0.0
  0
LINE
  5
142
  8
1
 62
     7
 10
-856.79168491074722
 20
-988.51409943817157
 30
0.0
 11
-855.79168491074722
 21
-989.51409943817168
 31
0.0
  0
LINE
  5
143
  8
1
 62
     7
 10
-855.79168491074722
 20
-561.51409943817202
 30
0.0
 11
-733.79168491074722
 21
-561.51409943817202
 31
0.0
  0
LINE
  5
144
  8
1
 62
     7
 10
-871.79168491074722
 20
-505.51409943817202
 30
0.0
 11
-856.79168491074722
 21
-505.51409943817202
 31
0.0
  0
LINE
  5
145
  8
1
 62
     7
 10
-723.79168491074722
 20
-571.51409943817191
 30
0.0
 11
-723.79168491074722
 21
-979.51409943817157
 31
0.0
  0
LINE
  5
146
  8
1
 62
     7
 10
-733.79168491074722
 20
-989.51409943817168
 30
0.0
 11
-733.79168491074722
 21
-561.51409943817202
 31
0.0
  0
LINE
  5
147
  8
1
 62
     3
 10
-713.69168491074709
 20
-555.51409943817202
 30
0.0
 11
-660.6916849107472
 21
-995.51409943817157
 31
0.0
  0
LINE
  5
148
  8
1
 62
     3
 10
-660.6916849107472
 20
-555.51409943817202
 30
0.0
 11
-713.69168491074709
 21
-995.51409943817157
 31
0.0
  0
LINE
  5
149
  8
1
 62
     7
 10
-648.6916849107472
 20
-973.01409943817157
 30
0.0
 11
-648.6916849107472
 21
-578.01409943817202
 31
0.0
  0
LINE
  5
14A
  8
1
 62
     7
 10
-258.79168491074722
 20
-641.5140994381718
 30
0.0
 11
-258.69168491074731
 21
-641.5140994381718
 31
0.0
  0
LINE
  5
14B
  8
1
 62
     7
 10
-258.69168491074731
 20
-658.51409943817202
 30
0.0
 11
-258.69168491074731
 21
-555.51409943817202
 31
0.0
  0
LINE
  5
14C
  8
1
 62
     7
 10
-258.69168491074731
 20
-995.51409943817157
 30
0.0
 11
-258.69168491074731
 21
-892.51409943817168
 31
0.0
  0
LINE
  5
14D
  8
1
 62
     3
 10
-258.69168491074731
 20
-892.51409943817168
 30
0.0
 11
-205.6916849107472
 21
-995.51409943817157
 31
0.0
  0
LINE
  5
14E
  8
1
 62
     3
 10
-258.69168491074731
 20
-658.51409943817202
 30
0.0
 11
-205.6916849107472
 21
-555.51409943817202
 31
0.0
  0
LINE
  5
14F
  8
1
 62
     7
 10
-258.69168491074731
 20
-909.51409943817168
 30
0.0
 11
-258.79168491074722
 21
-909.51409943817168
 31
0.0
  0
LINE
  5
150
  8
1
 62
     7
 10
-258.79168491074722
 20
-875.51409943817168
 30
0.0
 11
-258.79168491074722
 21
-909.51409943817168
 31
0.0
  0
LINE
  5
151
  8
1
 62
     7
 10
-638.69168491074709
 20
-588.01409943817191
 30
0.0
 11
-638.69168491074709
 21
-963.01409943817168
 31
0.0
  0
LINE
  5
152
  8
1
 62
     7
 10
-856.79168491074722
 20
-505.51409943817202
 30
0.0
 11
-856.79168491074722
 21
-988.51409943817157
 31
0.0
  0
LINE
  5
153
  8
1
 62
     7
 10
-855.79168491074722
 20
-989.51409943817168
 30
0.0
 11
-855.79168491074722
 21
-561.51409943817202
 31
0.0
  0
LINE
  5
154
  8
1
 62
     7
 10
-871.79168491074722
 20
-601.51409943817202
 30
0.0
 11
-871.79168491074722
 21
-949.51409943817168
 31
0.0
  0
LINE
  5
155
  8
1
 62
     7
 10
-872.79168491074722
 20
-870.51409943817157
 30
0.0
 11
-888.79168491074722
 21
-870.51409943817157
 31
0.0
  0
LINE
  5
156
  8
1
 62
     7
 10
-1294.9665273999731
 20
-599.40303727469632
 30
0.0
 11
-1294.9665273999731
 21
-505.51409943817202
 31
0.0
  0
LINE
  5
157
  8
1
 62
     7
 10
-1324.9665273999731
 20
-599.40303727469632
 30
0.0
 11
-1324.9665273999731
 21
-505.51409943817202
 31
0.0
  0
LINE
  5
158
  8
1
 62
     7
 10
-1294.9665273999731
 20
-505.51409943817202
 30
0.0
 11
-1324.9665273999731
 21
-505.51409943817202
 31
0.0
  0
LINE
  5
159
  8
1
 62
     7
 10
-1279.9665273999731
 20
-595.90314311117004
 30
0.0
 11
-1279.9665273999731
 21
-583.8807700273303
 31
0.0
  0
LINE
  5
15A
  8
1
 62
     7
 10
-1339.9665273999731
 20
-595.90314311117004
 30
0.0
 11
-1339.9665273999731
 21
-583.8807700273303
 31
0.0
  0
LINE
  5
15B
  8
1
 62
     7
 10
-1287.9665273999731
 20
-587.20469836141376
 30
0.0
 11
-1289.9665273999731
 21
-588.35939889979295
 31
0.0
  0
LINE
  5
15C
  8
1
 62
     7
 10
-1289.9665273999731
 20
-588.35939889979295
 30
0.0
 11
-1289.9665273999731
 21
-590.66879997655155
 31
0.0
  0
LINE
  5
15D
  8
1
 62
     7
 10
-1289.9665273999731
 20
-590.66879997655155
 30
0.0
 11
-1287.9665273999731
 21
-591.82350051493063
 31
0.0
  0
LINE
  5
15E
  8
1
 62
     7
 10
-1287.9665273999731
 20
-591.82350051493063
 30
0.0
 11
-1285.9665273999731
 21
-590.66879997655155
 31
0.0
  0
LINE
  5
15F
  8
1
 62
     7
 10
-1285.9665273999731
 20
-590.66879997655155
 30
0.0
 11
-1285.9665273999731
 21
-588.35939889979295
 31
0.0
  0
LINE
  5
160
  8
1
 62
     7
 10
-1285.9665273999731
 20
-588.35939889979295
 30
0.0
 11
-1287.9665273999731
 21
-587.20469836141376
 31
0.0
  0
LINE
  5
161
  8
1
 62
     7
 10
-1331.9665273999731
 20
-587.20469836141376
 30
0.0
 11
-1333.9665273999731
 21
-588.35939889979295
 31
0.0
  0
LINE
  5
162
  8
1
 62
     7
 10
-1333.9665273999731
 20
-588.35939889979295
 30
0.0
 11
-1333.9665273999731
 21
-590.66879997655155
 31
0.0
  0
LINE
  5
163
  8
1
 62
     7
 10
-1333.9665273999731
 20
-590.66879997655155
 30
0.0
 11
-1331.9665273999731
 21
-591.82350051493063
 31
0.0
  0
LINE
  5
164
  8
1
 62
     7
 10
-1331.9665273999731
 20
-591.82350051493063
 30
0.0
 11
-1329.9665273999731
 21
-590.66879997655155
 31
0.0
  0
LINE
  5
165
  8
1
 62
     7
 10
-1329.9665273999731
 20
-590.66879997655155
 30
0.0
 11
-1329.9665273999731
 21
-588.35939889979295
 31
0.0
  0
LINE
  5
166
  8
1
 62
     7
 10
-1329.9665273999731
 20
-588.35939889979295
 30
0.0
 11
-1331.9665273999731
 21
-587.20469836141376
 31
0.0
  0
LINE
  5
167
  8
1
 62
     7
 10
-856.79168491074722
 20
-578.6749016740871
 30
0.0
 11
-859.99168491074715
 21
-578.6749016740871
 31
0.0
  0
LINE
  5
168
  8
1
 62
     7
 10
-856.79168491074722
 20
-579.94651087702914
 30
0.0
 11
-859.99168491074715
 21
-579.94651087702914
 31
0.0
  0
LINE
  5
169
  8
1
 62
     7
 10
-856.79168491074722
 20
-600.90314311117027
 30
0.0
 11
-859.99168491074715
 21
-600.90314311117027
 31
0.0
  0
LINE
  5
16A
  8
1
 62
     7
 10
-859.99168491074715
 20
-578.6749016740871
 30
0.0
 11
-859.99168491074715
 21
-600.90314311117027
 31
0.0
  0
LINE
  5
16B
  8
1
 62
     7
 10
-859.99168491074715
 20
-589.51409943817225
 30
0.0
 11
-861.29168491074722
 21
-590.81409943817221
 31
0.0
  0
LINE
  5
16C
  8
1
 62
     7
 10
-859.99168491074715
 20
-588.21409943817207
 30
0.0
 11
-861.29168491074722
 21
-589.51409943817225
 31
0.0
  0
LINE
  5
16D
  8
1
 62
     7
 10
-859.99168491074715
 20
-594.11409943817216
 30
0.0
 11
-861.29168491074722
 21
-594.11409943817216
 31
0.0
  0
LINE
  5
16E
  8
1
 62
     7
 10
-861.29168491074722
 20
-594.11409943817216
 30
0.0
 11
-861.29168491074722
 21
-584.91409943817212
 31
0.0
  0
LINE
  5
16F
  8
1
 62
     7
 10
-861.29168491074722
 20
-584.91409943817212
 30
0.0
 11
-859.99168491074715
 21
-584.91409943817212
 31
0.0
  0
LINE
  5
170
  8
1
 62
     7
 10
-861.29168491074722
 20
-593.76409943817225
 30
0.0
 11
-865.99168491074727
 21
-593.76409943817225
 31
0.0
  0
LINE
  5
171
  8
1
 62
     7
 10
-865.99168491074727
 20
-593.76409943817225
 30
0.0
 11
-866.29168491074734
 21
-593.24448419590169
 31
0.0
  0
LINE
  5
172
  8
1
 62
     7
 10
-866.29168491074734
 20
-593.24448419590169
 30
0.0
 11
-866.29168491074734
 21
-585.78371468044293
 31
0.0
  0
LINE
  5
173
  8
1
 62
     7
 10
-866.29168491074734
 20
-585.78371468044293
 30
0.0
 11
-865.99168491074727
 21
-585.26409943817225
 31
0.0
  0
LINE
  5
174
  8
1
 62
     7
 10
-865.99168491074727
 20
-585.26409943817225
 30
0.0
 11
-861.29168491074722
 21
-585.26409943817225
 31
0.0
  0
LINE
  5
175
  8
1
 62
     7
 10
-865.99168491074727
 20
-593.76409943817225
 30
0.0
 11
-865.99168491074727
 21
-585.26409943817225
 31
0.0
  0
LINE
  5
176
  8
1
 62
     7
 10
-862.68868491074738
 20
-480.62994023316179
 30
0.0
 11
-862.68868491074738
 21
-505.51409943817202
 31
0.0
  0
LINE
  5
177
  8
1
 62
     7
 10
-865.31868491074715
 20
-480.62994023316179
 30
0.0
 11
-865.31868491074715
 21
-505.51409943817202
 31
0.0
  0
LINE
  5
178
  8
1
  6
DASHDOT
 62
     3
 10
-1309.9665273999731
 20
-736.31836477474383
 30
0.0
 11
-1309.9665273999731
 21
-814.70983410159999
 31
0.0
  0
LINE
  5
179
  8
1
  6
DASHDOT
 62
     3
 10
-1270.770792736545
 20
-775.5140994381718
 30
0.0
 11
-1349.1622620634
 21
-775.5140994381718
 31
0.0
  0
LINE
  5
17A
  8
1
 62
     7
 10
-1327.4665273999731
 20
-707.7368908795421
 30
0.0
 11
-1327.4665273999731
 21
-694.51409943817168
 31
0.0
  0
LINE
  5
17B
  8
1
 62
     7
 10
-1327.4665273999731
 20
-694.51409943817168
 30
0.0
 11
-1292.4665273999731
 21
-694.51409943817168
 31
0.0
  0
LINE
  5
17C
  8
1
 62
     7
 10
-1292.4665273999731
 20
-694.51409943817168
 30
0.0
 11
-1292.4665273999731
 21
-707.7368908795421
 31
0.0
  0
LINE
  5
17D
  8
1
 62
     7
 10
-1312.596527399973
 20
-480.62994023316179
 30
0.0
 11
-1307.336527399973
 21
-480.62994023316179
 31
0.0
  0
LINE
  5
17E
  8
1
 62
     7
 10
-1311.264180111493
 20
-475.62994023316179
 30
0.0
 11
-1311.264180111493
 21
-480.62994023316179
 31
0.0
  0
LINE
  5
17F
  8
1
 62
     7
 10
-1310.9711592425761
 20
-475.62994023316179
 30
0.0
 11
-1310.9711592425761
 21
-480.62994023316179
 31
0.0
  0
LINE
  5
180
  8
1
 62
     7
 10
-1310.6586036490651
 20
-475.62994023316179
 30
0.0
 11
-1310.6586036490651
 21
-480.62994023316179
 31
0.0
  0
LINE
  5
181
  8
1
 62
     7
 10
-1311.5767357050049
 20
-475.62994023316179
 30
0.0
 11
-1311.5767357050049
 21
-480.62994023316179
 31
0.0
  0
LINE
  5
182
  8
1
 62
     7
 10
-1311.928360747705
 20
-475.62994023316179
 30
0.0
 11
-1311.928360747705
 21
-480.62994023316179
 31
0.0
  0
LINE
  5
183
  8
1
 62
     7
 10
-1308.646527015834
 20
-475.62994023316179
 30
0.0
 11
-1308.646527015834
 21
-480.62994023316179
 31
0.0
  0
LINE
  5
184
  8
1
 62
     7
 10
-1308.900478435562
 20
-475.62994023316179
 30
0.0
 11
-1308.900478435562
 21
-480.62994023316179
 31
0.0
  0
LINE
  5
185
  8
1
 62
     7
 10
-1309.173964579885
 20
-475.62994023316179
 30
0.0
 11
-1309.173964579885
 21
-480.62994023316179
 31
0.0
  0
LINE
  5
186
  8
1
 62
     7
 10
-1308.4902492190779
 20
-475.62994023316179
 30
0.0
 11
-1308.4902492190779
 21
-480.62994023316179
 31
0.0
  0
LINE
  5
187
  8
1
 62
     7
 10
-1308.2558325239449
 20
-475.62994023316179
 30
0.0
 11
-1308.2558325239449
 21
-480.62994023316179
 31
0.0
  0
LINE
  5
188
  8
1
 62
     7
 10
-1307.336527399973
 20
-480.62994023316179
 30
0.0
 11
-1307.336527399973
 21
-505.51409943817202
 31
0.0
  0
LINE
  5
189
  8
1
 62
     7
 10
-1312.596527399973
 20
-480.62994023316179
 30
0.0
 11
-1312.596527399973
 21
-505.51409943817202
 31
0.0
  0
LINE
  5
18A
  8
1
 62
     7
 10
-1309.9665273999731
 20
-505.51409943817202
 30
0.0
 11
-1309.9665273999731
 21
-480.62994023316179
 31
0.0
  0
ARC
  5
18B
  8
1
 62
     7
 10
-1309.9665273999731
 20
-775.5140994381718
 30
0.0
 40
220.00000000000011
 50
96.524978844143803
 51
128.47502115585621
  0
ARC
  5
18C
  8
1
 62
     7
 10
-1309.9665273999731
 20
-775.5140994381718
 30
0.0
 40
220.0
 50
141.52497884414379
 51
173.4750211558561
  0
ARC
  5
18D
  8
1
 62
     7
 10
-1309.9665273999731
 20
-775.5140994381718
 30
0.0
 40
220.00000000000011
 50
186.52497884414379
 51
218.4750211558561
  0
ARC
  5
18E
  8
1
 62
     7
 10
-1309.9665273999731
 20
-775.5140994381718
 30
0.0
 40
220.00000000000011
 50
231.52497884414359
 51
263.4750211558561
  0
ARC
  5
18F
  8
1
 62
     7
 10
-1309.9665273999731
 20
-775.5140994381718
 30
0.0
 40
220.00000000000011
 50
276.52497884414379
 51
309.96481479059281
  0
ARC
  5
190
  8
1
 62
     7
 10
-1309.9665273999731
 20
-775.5140994381718
 30
0.0
 40
219.99999999999989
 50
321.52497884414379
 51
353.47502115585633
  0
ARC
  5
191
  8
1
 62
     7
 10
-1309.9665273999731
 20
-775.5140994381718
 30
0.0
 40
220.00000000000011
 50
6.5249788441438863
 51
38.475021155856403
  0
ARC
  5
192
  8
1
 62
     7
 10
-1309.9665273999731
 20
-775.5140994381718
 30
0.0
 40
219.99999999999969
 50
51.52497884414398
 51
83.475021155856211
  0
ARC
  5
193
  8
1
 62
     7
 10
-1309.9665273999731
 20
-775.5140994381718
 30
0.0
 40
214.0
 50
94.0193551489958
 51
85.980644851004186
  0
ARC
  5
194
  8
1
 62
     7
 10
242.2168332962174
 20
-775.5140994381718
 30
0.0
 40
213.99999999999949
 50
38.291248799341268
 51
51.708751200658689
  0
ARC
  5
195
  8
1
 62
     7
 10
242.2168332962174
 20
-775.5140994381718
 30
0.0
 40
220.0
 50
6.5249788441437673
 51
38.47502115585614
  0
ARC
  5
196
  8
1
 62
     7
 10
242.2168332962174
 20
-775.5140994381718
 30
0.0
 40
213.99999999999989
 50
353.29124879934108
 51
6.7087512006587096
  0
ARC
  5
197
  8
1
 62
     7
 10
242.2168332962174
 20
-775.5140994381718
 30
0.0
 40
220.00000000000011
 50
321.52497884414379
 51
353.4750211558561
  0
ARC
  5
198
  8
1
 62
     7
 10
242.2168332962174
 20
-775.5140994381718
 30
0.0
 40
214.0
 50
308.2912487993413
 51
321.7087512006587
  0
ARC
  5
199
  8
1
 62
     7
 10
242.2168332962174
 20
-775.5140994381718
 30
0.0
 40
220.00000000000011
 50
276.52497884414379
 51
308.4750211558561
  0
ARC
  5
19A
  8
1
 62
     7
 10
242.2168332962174
 20
-775.5140994381718
 30
0.0
 40
220.00000000000011
 50
186.52497884414379
 51
218.4750211558561
  0
ARC
  5
19B
  8
1
 62
     7
 10
242.2168332962174
 20
-775.5140994381718
 30
0.0
 40
220.0
 50
141.5249788441439
 51
173.4750211558561
  0
ARC
  5
19C
  8
1
 62
     7
 10
242.2168332962174
 20
-775.5140994381718
 30
0.0
 40
219.99999999999989
 50
51.524978844143817
 51
83.475021155856254
  0
ARC
  5
19D
  8
1
 62
     7
 10
242.2168332962174
 20
-775.5140994381718
 30
0.0
 40
213.99999999999989
 50
173.2912487993413
 51
186.70875120065881
  0
ARC
  5
19E
  8
1
 62
     7
 10
242.2168332962174
 20
-775.5140994381718
 30
0.0
 40
220.0
 50
231.52497884414379
 51
263.4750211558561
  0
ARC
  5
19F
  8
1
 62
     7
 10
242.2168332962174
 20
-775.5140994381718
 30
0.0
 40
213.99999999999989
 50
83.291248799341346
 51
96.708751200658696
  0
ARC
  5
1A0
  8
1
 62
     7
 10
242.2168332962174
 20
-775.5140994381718
 30
0.0
 40
213.99999999999989
 50
128.2912487993413
 51
141.70875120065881
  0
ARC
  5
1A1
  8
1
 62
     7
 10
242.2168332962174
 20
-775.5140994381718
 30
0.0
 40
213.99999999999969
 50
218.2912487993413
 51
231.7087512006587
  0
ARC
  5
1A2
  8
1
 62
     7
 10
242.2168332962174
 20
-775.5140994381718
 30
0.0
 40
213.99999999999989
 50
263.29124879934119
 51
276.70875120065858
  0
ARC
  5
1A3
  8
1
 62
     7
 10
242.2168332962174
 20
-775.5140994381718
 30
0.0
 40
219.99999999999989
 50
96.524978844143874
 51
128.47502115585621
  0
ARC
  5
1A4
  8
1
 62
     7
 10
242.2168332962174
 20
-775.5140994381718
 30
0.0
 40
69.999999999999901
 50
104.4775121859299
 51
75.522487814070075
  0
ARC
  5
1A5
  8
1
 62
     7
 10
-404.68868491074721
 20
-577.19909943817186
 30
0.0
 40
3.000000000000056
 50
180.0
 51
270.0
  0
ARC
  5
1A6
  8
1
 62
     7
 10
-404.68868491074721
 20
-577.19909943817186
 30
0.0
 40
5.6299999999998827
 50
180.0
 51
270.0
  0
ARC
  5
1A7
  8
1
 62
     7
 10
-1309.9665273999731
 20
-725.5140994381718
 30
0.0
 40
148.0
 50
79.597878991048134
 51
82.819244218541741
  0
ARC
  5
1A8
  8
1
 62
     7
 10
-1309.9665273999731
 20
-725.5140994381718
 30
0.0
 40
148.0
 50
97.180755781458302
 51
100.4021210089518
  0
ARC
  5
1A9
  8
1
 62
     7
 10
-1309.9665273999731
 20
-725.5140994381718
 30
0.0
 40
126.9999999999999
 50
79.082582684186221
 51
100.91741731581369
  0
ARC
  5
1AA
  8
1
 62
     7
 10
-1309.9665273999731
 20
-775.5140994381718
 30
0.0
 40
69.999999999999901
 50
104.4775121859299
 51
75.522487814070047
  0
ARC
  5
1AB
  8
1
 62
     7
 10
242.2168332962174
 20
-775.5140994381718
 30
0.0
 40
203.99999999999989
 50
82.960763317532027
 51
97.039236682468015
  0
ARC
  5
1AC
  8
1
 62
     7
 10
242.2168332962174
 20
-775.5140994381718
 30
0.0
 40
203.9999999999998
 50
127.960763317532
 51
142.0392366824679
  0
ARC
  5
1AD
  8
1
 62
     7
 10
242.2168332962174
 20
-775.5140994381718
 30
0.0
 40
203.9999999999996
 50
172.96076331753201
 51
187.0392366824679
  0
ARC
  5
1AE
  8
1
 62
     7
 10
242.2168332962174
 20
-775.5140994381718
 30
0.0
 40
203.9999999999996
 50
217.96076331753201
 51
232.03923668246799
  0
ARC
  5
1AF
  8
1
 62
     7
 10
242.2168332962174
 20
-775.5140994381718
 30
0.0
 40
203.9999999999998
 50
262.96076331753193
 51
277.03923668246802
  0
ARC
  5
1B0
  8
1
 62
     7
 10
242.2168332962174
 20
-775.5140994381718
 30
0.0
 40
203.9999999999998
 50
307.96076331753193
 51
322.03923668246802
  0
ARC
  5
1B1
  8
1
 62
     7
 10
242.2168332962174
 20
-775.5140994381718
 30
0.0
 40
203.9999999999998
 50
352.96076331753198
 51
7.0392366824679948
  0
ARC
  5
1B2
  8
1
 62
     7
 10
242.2168332962174
 20
-775.5140994381718
 30
0.0
 40
203.9999999999996
 50
37.960763317531963
 51
52.039236682467937
  0
CIRCLE
  5
1B3
  8
1
 62
     7
 10
-1309.9665273999731
 20
-775.5140994381718
 30
0.0
 40
145.0
  0
CIRCLE
  5
1B4
  8
1
 62
     7
 10
242.2168332962174
 20
-775.5140994381718
 30
0.0
 40
197.50000000000011
  0
CIRCLE
  5
1B5
  8
1
 62
     7
 10
242.2168332962174
 20
-775.5140994381718
 30
0.0
 40
119.9999999999999
  0
CIRCLE
  5
1B6
  8
1
 62
     7
 10
-336.79168491074728
 20
-655.51409943817202
 30
0.0
 40
15.0
  0
CIRCLE
  5
1B7
  8
1
 62
     7
 10
-382.79168491074739
 20
-655.51409943817202
 30
0.0
 40
15.0
  0
CIRCLE
  5
1B8
  8
1
 62
     7
 10
242.2168332962174
 20
-775.5140994381718
 30
0.0
 40
119.9999999999999
  0
CIRCLE
  5
1B9
  8
1
 62
     7
 10
242.2168332962174
 20
-775.5140994381718
 30
0.0
 40
143.93579836681491
  0
CIRCLE
  5
1BA
  8
1
 62
     7
 10
242.2168332962174
 20
-775.5140994381718
 30
0.0
 40
187.5
  0
CIRCLE
  5
1BB
  8
1
 62
     7
 10
-336.79168491074728
 20
-895.51409943817157
 30
0.0
 40
15.0
  0
CIRCLE
  5
1BC
  8
1
 62
     7
 10
-382.79168491074739
 20
-895.51409943817157
 30
0.0
 40
15.0
  0
CIRCLE
  5
1BD
  8
1
 62
     7
 10
-1287.9665273999731
 20
-589.51409943817202
 30
0.0
 40
4.25
  0
CIRCLE
  5
1BE
  8
1
 62
     7
 10
-1331.9665273999731
 20
-589.51409943817202
 30
0.0
 40
4.25
  0
CIRCLE
  5
1BF
  8
1
 62
     7
 10
-1287.9665273999731
 20
-589.51409943817202
 30
0.0
 40
4.5999999999999091
  0
CIRCLE
  5
1C0
  8
1
 62
     7
 10
-1331.9665273999731
 20
-589.51409943817202
 30
0.0
 40
4.5999999999999091
  0
CIRCLE
  5
1C1
  8
1
 62
     7
 10
-1309.9665273999731
 20
-775.5140994381718
 30
0.0
 40
95.0
  0
CIRCLE
  5
1C2
  8
1
 62
     7
 10
-1309.9665273999731
 20
-775.5140994381718
 30
0.0
 40
174.0
  0
ARC
  5
1C3
  8
1
 62
     7
 10
-190.79168491074731
 20
-641.51409943817202
 30
0.0
 40
2.0
 50
90.0
 51
180.0
  0
ARC
  5
1C4
  8
1
 62
     7
 10
-190.79168491074731
 20
-909.51409943817168
 30
0.0
 40
2.0
 50
180.0
 51
270.0
  0
ARC
  5
1C5
  8
1
 62
     7
 10
-1290.9665273999731
 20
-574.70627470749014
 30
0.0
 40
4.0
 50
180.0
 51
262.81924421854183
  0
ARC
  5
1C6
  8
1
 62
     7
 10
-1328.9665273999731
 20
-574.70627470749014
 30
0.0
 40
4.0000000000000711
 50
277.18075578145812
 51
0.0
  0
ARC
  5
1C7
  8
1
 62
     7
 10
-1283.9665273999731
 20
-583.8807700273303
 30
0.0
 40
4.0
 50
0.0
 51
79.597878991049427
  0
ARC
  5
1C8
  8
1
 62
     7
 10
-1335.9665273999731
 20
-583.8807700273303
 30
0.0
 40
4.0000000000001741
 50
100.4021210089474
 51
180.0
  0
ARC
  5
1C9
  8
1
 62
     7
 10
-1284.9665273999731
 20
-595.90314311117004
 30
0.0
 40
5.0000000000000817
 50
259.08258268418308
 51
0.0
  0
ARC
  5
1CA
  8
1
 62
     7
 10
-1334.9665273999731
 20
-595.90314311117004
 30
0.0
 40
5.0
 50
180.0
 51
280.91741731581692
  0
TEXT
  5
1CC
  8
1
 62
     7
 10
-1457.3721276542501
 20
-334.49464641935811
 30
0.0
 40
24.0
  1
MDC 600
 41
0.9
  7
SIMPLEX
  0
ENDSEC
  0
EOF
