  0
SECTION
  2
HEADER
  9
$ACADVER
  1
AC1009
  9
$INSBASE
 10
0.0
 20
0.0
 30
0.0
  9
$EXTMIN
 10
-536.90499218051286
 20
-324.97947101345608
 30
0.0
  9
$EXTMAX
 10
555.59500781948702
 20
66.709766119969174
 30
0.0
  9
$LIMMIN
 10
-536.90499218051286
 20
-324.97947101345608
  9
$LIMMAX
 10
555.59500781948702
 20
66.709766119969174
  9
$ORTHOMODE
 70
     0
  9
$REGENMODE
 70
     1
  9
$FILLMODE
 70
     1
  9
$QTEXTMODE
 70
     0
  9
$MIRRTEXT
 70
     1
  9
$DRAGMODE
 70
     2
  9
$LTSCALE
 40
1.0
  9
$OSMODE
 70
    37
  9
$ATTMODE
 70
     1
  9
$TEXTSIZE
 40
3.5
  9
$TRACEWID
 40
0.5
  9
$TEXTSTYLE
  7
STANDARD
  9
$CLAYER
  8
0
  9
$CELTYPE
  6
BYLAYER
  9
$CECOLOR
 62
   256
  9
$DIMSCALE
 40
1.0
  9
$DIMASZ
 40
0.18
  9
$DIMEXO
 40
0.0625
  9
$DIMDLI
 40
0.38
  9
$DIMRND
 40
0.0
  9
$DIMDLE
 40
0.0
  9
$DIMEXE
 40
0.18
  9
$DIMTP
 40
0.0
  9
$DIMTM
 40
0.0
  9
$DIMTXT
 40
0.18
  9
$DIMCEN
 40
0.09
  9
$DIMTSZ
 40
0.0
  9
$DIMTOL
 70
     0
  9
$DIMLIM
 70
     0
  9
$DIMTIH
 70
     1
  9
$DIMTOH
 70
     1
  9
$DIMSE1
 70
     0
  9
$DIMSE2
 70
     0
  9
$DIMTAD
 70
     0
  9
$DIMZIN
 70
     0
  9
$DIMBLK
  1

  9
$DIMASO
 70
     1
  9
$DIMSHO
 70
     1
  9
$DIMPOST
  1

  9
$DIMAPOST
  1

  9
$DIMALT
 70
     0
  9
$DIMALTD
 70
     2
  9
$DIMALTF
 40
25.399999999999999
  9
$DIMLFAC
 40
1.0
  9
$DIMTOFL
 70
     0
  9
$DIMTVP
 40
0.0
  9
$DIMTIX
 70
     0
  9
$DIMSOXD
 70
     0
  9
$DIMSAH
 70
     0
  9
$DIMBLK1
  1

  9
$DIMBLK2
  1

  9
$DIMSTYLE
  2
STANDARD
  9
$DIMCLRD
 70
     0
  9
$DIMCLRE
 70
     0
  9
$DIMCLRT
 70
     0
  9
$DIMTFAC
 40
1.0
  9
$DIMGAP
 40
0.09
  9
$LUNITS
 70
     2
  9
$LUPREC
 70
     4
  9
$SKETCHINC
 40
0.1
  9
$FILLETRAD
 40
2.0
  9
$AUNITS
 70
     0
  9
$AUPREC
 70
     0
  9
$MENU
  1
ACAD
  9
$ELEVATION
 40
0.0
  9
$PELEVATION
 40
0.0
  9
$THICKNESS
 40
0.0
  9
$LIMCHECK
 70
     0
  9
$BLIPMODE
 70
     0
  9
$CHAMFERA
 40
0.0
  9
$CHAMFERB
 40
0.0
  9
$SKPOLY
 70
     0
  9
$TDCREATE
 40
2452095.012371528
  9
$TDUPDATE
 40
2452095.0140675921
  9
$TDINDWG
 40
0.0017646991
  9
$TDUSRTIMER
 40
0.0017646991
  9
$USRTIMER
 70
     1
  9
$ANGBASE
 50
0.0
  9
$ANGDIR
 70
     0
  9
$PDMODE
 70
     0
  9
$PDSIZE
 40
0.0
  9
$PLINEWID
 40
0.0
  9
$COORDS
 70
     1
  9
$SPLFRAME
 70
     0
  9
$SPLINETYPE
 70
     6
  9
$SPLINESEGS
 70
     8
  9
$ATTDIA
 70
     0
  9
$ATTREQ
 70
     1
  9
$HANDLING
 70
 10241
  9
$HANDSEED
  5
1A6
  9
$SURFTAB1
 70
     6
  9
$SURFTAB2
 70
     6
  9
$SURFTYPE
 70
     6
  9
$SURFU
 70
     6
  9
$SURFV
 70
     6
  9
$UCSNAME
  2

  9
$UCSORG
 10
0.0
 20
0.0
 30
0.0
  9
$UCSXDIR
 10
1.0
 20
0.0
 30
0.0
  9
$UCSYDIR
 10
0.0
 20
1.0
 30
0.0
  9
$PUCSNAME
  2

  9
$PUCSORG
 10
0.0
 20
0.0
 30
0.0
  9
$PUCSXDIR
 10
1.0
 20
0.0
 30
0.0
  9
$PUCSYDIR
 10
0.0
 20
1.0
 30
0.0
  9
$USERI1
 70
     0
  9
$USERI2
 70
     0
  9
$USERI3
 70
     0
  9
$USERI4
 70
     0
  9
$USERI5
 70
     0
  9
$USERR1
 40
0.0
  9
$USERR2
 40
0.0
  9
$USERR3
 40
0.0
  9
$USERR4
 40
0.0
  9
$USERR5
 40
0.0
  9
$WORLDVIEW
 70
     1
  9
$SHADEDGE
 70
     3
  9
$SHADEDIF
 70
    70
  9
$TILEMODE
 70
     1
  9
$MAXACTVP
 70
    64
  9
$PLIMCHECK
 70
     0
  9
$PEXTMIN
 10
1.0000000000000000E+020
 20
1.0000000000000000E+020
 30
1.0000000000000000E+020
  9
$PEXTMAX
 10
-1.0000000000000000E+020
 20
-1.0000000000000000E+020
 30
-1.0000000000000000E+020
  9
$PLIMMIN
 10
0.0
 20
0.0
  9
$PLIMMAX
 10
12.0
 20
9.0
  9
$UNITMODE
 70
     0
  9
$VISRETAIN
 70
     1
  9
$PLINEGEN
 70
     0
  9
$PSLTSCALE
 70
     1
  0
ENDSEC
  0
SECTION
  2
TABLES
  0
TABLE
  2
VPORT
 70
     2
  0
VPORT
  2
*ACTIVE
 70
     0
 10
0.0
 20
0.0
 11
1.0
 21
1.0
 12
-470.2205581276678
 22
38.332066308947446
 13
0.0
 23
0.0
 14
1.0
 24
1.0
 15
0.0
 25
0.0
 16
0.0
 26
0.0
 36
1.0
 17
0.0
 27
0.0
 37
0.0
 40
8.9999994837728536
 41
2.4144144144144142
 42
50.0
 43
0.0
 44
0.0
 50
0.0
 51
0.0
 71
     0
 72
   100
 73
     1
 74
     1
 75
     0
 76
     0
 77
     0
 78
     0
  0
ENDTAB
  0
TABLE
  2
LTYPE
 70
     9
  0
LTYPE
  2
CONTINUOUS
 70
     0
  3
Solid line
 72
    65
 73
     0
 40
0.0
  0
LTYPE
  2
BORDER
 70
     0
  3
__ __ . __ __ .
 72
    65
 73
     6
 40
50.3125
 49
14.375
 49
-7.1875
 49
14.375
 49
-7.1875
 49
0.0
 49
-7.1875
  0
LTYPE
  2
CENTER
 70
     0
  3
____ _ ____ _
 72
    65
 73
     4
 40
57.5
 49
35.9375
 49
-7.1875
 49
7.1875
 49
-7.1875
  0
LTYPE
  2
DASHDOT
 70
     0
  3
__ . __ . __ .
 72
    65
 73
     4
 40
28.75
 49
14.375
 49
-7.1875
 49
0.0
 49
-7.1875
  0
LTYPE
  2
DASHED
 70
     0
  3
__ __ __ __ __
 72
    65
 73
     2
 40
21.5625
 49
14.375
 49
-7.1875
  0
LTYPE
  2
DIVIDE
 70
     0
  3
__ . . __ . . 
 72
    65
 73
     6
 40
35.9375
 49
14.375
 49
-7.1875
 49
0.0
 49
-7.1875
 49
0.0
 49
-7.1875
  0
LTYPE
  2
DOT
 70
     0
  3
..............
 72
    65
 73
     4
 40
14.375
 49
0.0
 49
-7.1875
 49
0.0
 49
-7.1875
  0
LTYPE
  2
HIDDEN
 70
     0
  3
_ _ _ _ _ _ _
 72
    65
 73
     2
 40
10.78125
 49
7.1875
 49
-3.59375
  0
LTYPE
  2
PHANTOM
 70
     0
  3
_____ _ _ _____ _ _ 
 72
    65
 73
     6
 40
71.875
 49
35.9375
 49
-7.1875
 49
7.1875
 49
-7.1875
 49
7.1875
 49
-7.1875
  0
ENDTAB
  0
TABLE
  2
LAYER
 70
     2
  0
LAYER
  2
0
 70
     0
 62
     7
  6
CONTINUOUS
  0
LAYER
  2
1
 70
     0
 62
     7
  6
CONTINUOUS
  0
ENDTAB
  0
TABLE
  2
STYLE
 70
     4
  0
STYLE
  2
STANDARD
 70
     0
 40
0.0
 41
1.0
 50
0.0
 71
     0
 42
3.5
  3
txt
  4

  0
STYLE
  2
SIMPLEX
 70
     0
 40
0.0
 41
1.0
 50
0.0
 71
     0
 42
3.5
  3
simplex
  4

  0
STYLE
  2
COMPLEX
 70
     0
 40
0.0
 41
1.0
 50
0.0
 71
     0
 42
3.5
  3
complex
  4

  0
STYLE
  2
ITALIC
 70
     0
 40
0.0
 41
1.0
 50
0.0
 71
     0
 42
3.5
  3
italic
  4

  0
ENDTAB
  0
TABLE
  2
VIEW
 70
     0
  0
ENDTAB
  0
TABLE
  2
UCS
 70
     0
  0
ENDTAB
  0
TABLE
  2
APPID
 70
     1
  0
APPID
  2
ACAD
 70
     0
  0
ENDTAB
  0
TABLE
  2
DIMSTYLE
 70
     1
  0
DIMSTYLE
  2
STANDARD
 70
     0
  3

  4

  5

  6

  7

 40
1.0
 41
0.18
 42
0.0625
 43
0.38
 44
0.18
 45
0.0
 46
0.0
 47
0.0
 48
0.0
140
0.18
141
0.09
142
0.0
143
25.399999999999999
144
1.0
145
0.0
146
1.0
147
0.09
 71
     0
 72
     0
 73
     1
 74
     1
 75
     0
 76
     0
 77
     0
 78
     0
170
     0
171
     2
172
     0
173
     0
174
     0
175
     0
176
     0
177
     0
178
     0
  0
ENDTAB
  0
ENDSEC
  0
SECTION
  2
BLOCKS
  0
BLOCK
  8
0
  2
$MODEL_SPACE
 70
     0
 10
0.0
 20
0.0
 30
0.0
  3
$MODEL_SPACE
  1

  0
ENDBLK
  5
20
  8
0
  0
BLOCK
 67
     1
  8
0
  2
$PAPER_SPACE
 70
     0
 10
0.0
 20
0.0
 30
0.0
  3
$PAPER_SPACE
  1

  0
ENDBLK
  5
1C
 67
     1
  8
0
  0
ENDSEC
  0
SECTION
  2
ENTITIES
  0
LINE
  5
33
  8
1
  6
DASHDOT
 62
     3
 10
438.0950078194868
 20
-302.48374886660332
 30
0.0
 11
438.09500781948702
 21
-324.97947101345608
 31
0.0
  0
LINE
  5
34
  8
1
 62
     7
 10
199.09500781948691
 20
-133.921603034979
 30
0.0
 11
197.1950078194869
 21
-133.921603034979
 31
0.0
  0
LINE
  5
35
  8
1
 62
     7
 10
199.09500781948691
 20
-133.921603034979
 30
0.0
 11
199.09500781948691
 21
-136.65620713996
 31
0.0
  0
LINE
  5
36
  8
1
 62
     7
 10
199.09500781948691
 20
-267.92160303497911
 30
0.0
 11
201.09500781948691
 21
-269.92160303497911
 31
0.0
  0
LINE
  5
37
  8
1
 62
     7
 10
199.09500781948691
 20
-267.92160303497911
 30
0.0
 11
199.09500781948691
 21
-265.18699892999831
 31
0.0
  0
LINE
  5
38
  8
1
 62
     7
 10
-181.40499218051289
 20
-286.92160303497911
 30
0.0
 11
-181.40499218051289
 21
-114.921603034979
 31
0.0
  0
LINE
  5
39
  8
1
 62
     7
 10
-100.40499218051291
 20
-83.421603034979114
 30
0.0
 11
-100.40499218051291
 21
-318.42160303497911
 31
0.0
  0
LINE
  5
3A
  8
1
 62
     7
 10
-169.40499218051301
 20
-318.42160303497911
 30
0.0
 11
-169.40499218051301
 21
-83.421603034979114
 31
0.0
  0
LINE
  5
3B
  8
1
 62
     7
 10
-170.40499218051301
 20
-40.921603034979107
 30
0.0
 11
-170.40499218051301
 21
-317.42160303497911
 31
0.0
  0
LINE
  5
3C
  8
1
 62
     7
 10
-93.404992180512977
 20
-308.32160303497932
 30
0.0
 11
-89.404992180512977
 21
-308.32160303497932
 31
0.0
  0
LINE
  5
3D
  8
1
 62
     7
 10
-89.404992180512977
 20
-83.421603034979114
 30
0.0
 11
-89.404992180512977
 21
-318.42160303497911
 31
0.0
  0
LINE
  5
3E
  8
1
 62
     3
 10
-89.404992180512977
 20
-318.42160303497911
 30
0.0
 11
-66.404992180512977
 21
-83.421603034979114
 31
0.0
  0
LINE
  5
3F
  8
1
 62
     3
 10
-89.404992180512977
 20
-83.421603034979114
 30
0.0
 11
-66.404992180512977
 21
-318.42160303497911
 31
0.0
  0
LINE
  5
40
  8
1
 62
     7
 10
-54.404992180512963
 20
-308.42160303497911
 30
0.0
 11
-54.404992180512963
 21
-93.421603034979114
 31
0.0
  0
LINE
  5
41
  8
1
 62
     7
 10
-51.40499218051297
 20
-145.921603034979
 30
0.0
 11
-49.404992180512963
 21
-145.921603034979
 31
0.0
  0
LINE
  5
42
  8
1
 62
     7
 10
-169.40499218051301
 20
-83.421603034979114
 30
0.0
 11
-100.40499218051291
 21
-83.421603034979114
 31
0.0
  0
LINE
  5
43
  8
1
 62
     7
 10
-181.40499218051289
 20
-114.921603034979
 30
0.0
 11
-182.40499218051301
 21
-115.921603034979
 31
0.0
  0
LINE
  5
44
  8
1
 62
     7
 10
-169.40499218051301
 20
-318.42160303497911
 30
0.0
 11
-170.40499218051301
 21
-317.42160303497911
 31
0.0
  0
LINE
  5
45
  8
1
 62
     7
 10
-181.40499218051289
 20
-286.92160303497911
 30
0.0
 11
-182.40499218051301
 21
-285.92160303497911
 31
0.0
  0
LINE
  5
46
  8
1
 62
     7
 10
-66.404992180512977
 20
-318.42160303497911
 30
0.0
 11
-89.404992180512977
 21
-318.42160303497911
 31
0.0
  0
LINE
  5
47
  8
1
 62
     7
 10
-66.404992180512977
 20
-307.42160303497911
 30
0.0
 11
-66.404992180512977
 21
-318.42160303497911
 31
0.0
  0
LINE
  5
48
  8
1
 62
     7
 10
-181.40499218051289
 20
-286.92160303497911
 30
0.0
 11
-170.40499218051301
 21
-286.92160303497911
 31
0.0
  0
LINE
  5
49
  8
1
 62
     7
 10
-100.40499218051291
 20
-318.42160303497911
 30
0.0
 11
-93.404992180512977
 21
-311.42160303497911
 31
0.0
  0
LINE
  5
4A
  8
1
 62
     7
 10
-100.40499218051291
 20
-318.42160303497911
 30
0.0
 11
-169.40499218051301
 21
-318.42160303497911
 31
0.0
  0
LINE
  5
4B
  8
1
 62
     7
 10
-66.404992180512977
 20
-93.421603034979114
 30
0.0
 11
-66.404992180512977
 21
-308.42160303497911
 31
0.0
  0
LINE
  5
4C
  8
1
 62
     7
 10
-54.404992180512963
 20
-308.42160303497911
 30
0.0
 11
-51.40499218051297
 21
-305.42160303497911
 31
0.0
  0
LINE
  5
4D
  8
1
 62
     7
 10
-54.404992180512963
 20
-308.42160303497911
 30
0.0
 11
-66.404992180512977
 21
-308.42160303497911
 31
0.0
  0
LINE
  5
4E
  8
1
 62
     7
 10
-184.40499218051301
 20
-245.921603034979
 30
0.0
 11
-182.40499218051301
 21
-245.921603034979
 31
0.0
  0
LINE
  5
4F
  8
1
 62
     7
 10
-49.404992180512963
 20
-255.92160303497911
 30
0.0
 11
-51.40499218051297
 21
-255.92160303497911
 31
0.0
  0
LINE
  5
50
  8
1
 62
     7
 10
-180.40499218051301
 20
-111.9216030349791
 30
0.0
 11
-172.40499218051301
 21
-111.9216030349791
 31
0.0
  0
LINE
  5
51
  8
1
 62
     7
 10
-176.71999218051289
 20
-40.921603034979107
 30
0.0
 11
-176.71999218051289
 21
-28.75075680507398
 31
0.0
  0
LINE
  5
52
  8
1
 62
     7
 10
-174.08999218051301
 20
-28.75075680507398
 30
0.0
 11
-174.08999218051301
 21
-40.921603034979107
 31
0.0
  0
LINE
  5
53
  8
1
 62
     7
 10
-89.404992180512977
 20
-83.421603034979114
 30
0.0
 11
-66.404992180512977
 21
-83.421603034979114
 31
0.0
  0
LINE
  5
54
  8
1
 62
     7
 10
-66.404992180512977
 20
-83.421603034979114
 30
0.0
 11
-66.404992180512977
 21
-94.421603034979114
 31
0.0
  0
LINE
  5
55
  8
1
 62
     7
 10
-170.40499218051301
 20
-114.921603034979
 30
0.0
 11
-181.40499218051289
 21
-114.921603034979
 31
0.0
  0
LINE
  5
56
  8
1
 62
     7
 10
-180.40499218051301
 20
-111.9216030349791
 30
0.0
 11
-180.40499218051301
 21
-40.921603034979107
 31
0.0
  0
LINE
  5
57
  8
1
 62
     7
 10
-182.40499218051301
 20
-285.92160303497911
 30
0.0
 11
-182.40499218051301
 21
-115.921603034979
 31
0.0
  0
LINE
  5
58
  8
1
 62
     7
 10
-93.404992180512977
 20
-90.421603034979128
 30
0.0
 11
-100.40499218051291
 21
-83.421603034979114
 31
0.0
  0
LINE
  5
59
  8
1
 62
     7
 10
-170.40499218051301
 20
-84.4216030349791
 30
0.0
 11
-169.40499218051301
 21
-83.421603034979114
 31
0.0
  0
LINE
  5
5A
  8
1
 62
     7
 10
-93.404992180512977
 20
-90.421603034979128
 30
0.0
 11
-93.404992180512977
 21
-311.42160303497911
 31
0.0
  0
LINE
  5
5B
  8
1
 62
     7
 10
-89.404992180512977
 20
-93.521603034979094
 30
0.0
 11
-93.404992180512977
 21
-93.521603034979094
 31
0.0
  0
LINE
  5
5C
  8
1
 62
     7
 10
-51.40499218051297
 20
-96.421603034979128
 30
0.0
 11
-54.404992180512963
 21
-93.421603034979114
 31
0.0
  0
LINE
  5
5D
  8
1
 62
     7
 10
-66.404992180512977
 20
-93.421603034979114
 30
0.0
 11
-54.404992180512963
 21
-93.421603034979114
 31
0.0
  0
LINE
  5
5E
  8
1
 62
     7
 10
-51.40499218051297
 20
-96.421603034979128
 30
0.0
 11
-51.40499218051297
 21
-305.42160303497911
 31
0.0
  0
LINE
  5
5F
  8
1
 62
     7
 10
-182.40499218051301
 20
-155.921603034979
 30
0.0
 11
-184.40499218051301
 21
-155.921603034979
 31
0.0
  0
LINE
  5
60
  8
1
 62
     7
 10
-49.404992180512963
 20
-255.92160303497911
 30
0.0
 11
-49.404992180512963
 21
-145.921603034979
 31
0.0
  0
LINE
  5
61
  8
1
 62
     7
 10
-184.40499218051301
 20
-245.921603034979
 30
0.0
 11
-184.40499218051301
 21
-155.921603034979
 31
0.0
  0
LINE
  5
62
  8
1
  6
DASHDOT
 62
     3
 10
-49.404992180512963
 20
-200.92160303497911
 30
0.0
 11
-44.404992180512963
 21
-200.92160303497911
 31
0.0
  0
LINE
  5
63
  8
1
  6
DASHDOT
 62
     3
 10
-184.40499218051301
 20
-200.92160303497911
 30
0.0
 11
-189.40499218051301
 21
-200.92160303497911
 31
0.0
  0
LINE
  5
64
  8
1
 62
     7
 10
-174.08999218051301
 20
-28.75075680507398
 30
0.0
 11
-176.71999218051289
 21
-28.75075680507398
 31
0.0
  0
LINE
  5
65
  8
1
 62
     7
 10
-175.40499218051301
 20
-28.75075680507398
 30
0.0
 11
-175.40499218051301
 21
-23.75075680507398
 31
0.0
  0
LINE
  5
66
  8
1
 62
     7
 10
-175.01150391958501
 20
-28.75075680507398
 30
0.0
 11
-175.01150391958501
 21
-23.75075680507398
 31
0.0
  0
LINE
  5
67
  8
1
 62
     7
 10
-174.60271623088499
 20
-28.75075680507398
 30
0.0
 11
-174.60271623088499
 21
-23.75075680507398
 31
0.0
  0
LINE
  5
68
  8
1
 62
     7
 10
-175.78154584481001
 20
-28.75075680507398
 30
0.0
 11
-175.78154584481001
 21
-23.75075680507398
 31
0.0
  0
LINE
  5
69
  8
1
 62
     7
 10
-176.13329339090001
 20
-28.75075680507398
 30
0.0
 11
-176.13329339090001
 21
-23.75075680507398
 31
0.0
  0
LINE
  5
6A
  8
1
 62
     7
 10
-180.40499218051301
 20
-40.921603034979107
 30
0.0
 11
-170.40499218051301
 21
-40.921603034979107
 31
0.0
  0
LINE
  5
6B
  8
1
 62
     7
 10
83.095007819486995
 20
-83.421603034979114
 30
0.0
 11
152.09500781948691
 21
-83.421603034979114
 31
0.0
  0
LINE
  5
6C
  8
1
 62
     7
 10
71.095007819486995
 20
-114.921603034979
 30
0.0
 11
70.095007819486995
 21
-115.921603034979
 31
0.0
  0
LINE
  5
6D
  8
1
 62
     7
 10
83.095007819486995
 20
-318.42160303497911
 30
0.0
 11
82.095007819486995
 21
-317.42160303497911
 31
0.0
  0
LINE
  5
6E
  8
1
 62
     7
 10
71.095007819486995
 20
-286.92160303497911
 30
0.0
 11
70.095007819486995
 21
-285.92160303497911
 31
0.0
  0
LINE
  5
6F
  8
1
 62
     7
 10
76.095007819486995
 20
-270.92160303497911
 30
0.0
 11
70.095007819486995
 21
-270.92160303497911
 31
0.0
  0
LINE
  5
70
  8
1
 62
     7
 10
76.095007819486995
 20
-257.78016671412172
 30
0.0
 11
76.095007819486995
 21
-274.42160303497911
 31
0.0
  0
LINE
  5
71
  8
1
 62
     7
 10
77.095007819486995
 20
-244.17160303497911
 30
0.0
 11
77.095007819486995
 21
-252.17160303497911
 31
0.0
  0
LINE
  5
72
  8
1
 62
     7
 10
80.095007819486995
 20
-244.17160303497911
 30
0.0
 11
77.095007819486995
 21
-244.17160303497911
 31
0.0
  0
LINE
  5
73
  8
1
 62
     7
 10
77.095007819486995
 20
-252.17160303497911
 30
0.0
 11
80.095007819486995
 21
-252.17160303497911
 31
0.0
  0
LINE
  5
74
  8
1
 62
     7
 10
80.095007819486995
 20
-263.62160303497927
 30
0.0
 11
76.095007819486995
 21
-263.62160303497927
 31
0.0
  0
LINE
  5
75
  8
1
 62
     7
 10
76.095007819486995
 20
-274.42160303497911
 30
0.0
 11
80.095007819486995
 21
-274.42160303497911
 31
0.0
  0
LINE
  5
76
  8
1
 62
     7
 10
133.09500781948691
 20
-236.92160303497911
 30
0.0
 11
125.0950078194869
 21
-236.92160303497911
 31
0.0
  0
LINE
  5
77
  8
1
 62
     7
 10
177.09500781948691
 20
-236.92160303497911
 30
0.0
 11
169.09500781948699
 21
-236.92160303497911
 31
0.0
  0
LINE
  5
78
  8
1
 62
     7
 10
177.09500781948691
 20
-236.92160303497911
 30
0.0
 11
169.09500781948699
 21
-236.92160303497911
 31
0.0
  0
LINE
  5
79
  8
1
 62
     7
 10
177.09500781948691
 20
-236.92160303497911
 30
0.0
 11
169.09500781948699
 21
-236.92160303497911
 31
0.0
  0
LINE
  5
7A
  8
1
 62
     7
 10
163.09500781948699
 20
-248.42160303497911
 30
0.0
 11
128.09500781948691
 21
-248.42160303497911
 31
0.0
  0
LINE
  5
7B
  8
1
 62
     3
 10
163.09500781948699
 20
-318.42160303497911
 30
0.0
 11
186.09500781948699
 21
-254.92160303497911
 31
0.0
  0
LINE
  5
7C
  8
1
 62
     3
 10
186.09500781948699
 20
-318.42160303497911
 30
0.0
 11
163.09500781948699
 21
-254.92160303497911
 31
0.0
  0
LINE
  5
7D
  8
1
 62
     7
 10
186.09500781948699
 20
-318.42160303497911
 30
0.0
 11
163.09500781948699
 21
-318.42160303497911
 31
0.0
  0
LINE
  5
7E
  8
1
 62
     7
 10
186.09500781948699
 20
-307.42160303497911
 30
0.0
 11
186.09500781948699
 21
-318.42160303497911
 31
0.0
  0
LINE
  5
7F
  8
1
 62
     7
 10
145.09500781948691
 20
-284.92160303497911
 30
0.0
 11
145.09500781948691
 21
-308.92160303497911
 31
0.0
  0
LINE
  5
80
  8
1
 62
     7
 10
71.095007819486995
 20
-286.92160303497911
 30
0.0
 11
82.095007819486995
 21
-286.92160303497911
 31
0.0
  0
LINE
  5
81
  8
1
 62
     7
 10
70.095007819486995
 20
-285.92160303497911
 30
0.0
 11
70.095007819486995
 21
-245.92160303497911
 31
0.0
  0
LINE
  5
82
  8
1
 62
     7
 10
146.09500781948691
 20
-284.92160303497911
 30
0.0
 11
147.09500781948691
 21
-283.92160303497923
 31
0.0
  0
LINE
  5
83
  8
1
 62
     7
 10
152.09500781948691
 20
-318.42160303497911
 30
0.0
 11
159.09500781948691
 21
-311.42160303497911
 31
0.0
  0
LINE
  5
84
  8
1
 62
     7
 10
152.09500781948691
 20
-318.42160303497911
 30
0.0
 11
83.095007819486995
 21
-318.42160303497911
 31
0.0
  0
LINE
  5
85
  8
1
 62
     7
 10
159.09500781948691
 20
-308.92160303497911
 30
0.0
 11
159.09500781948691
 21
-311.42160303497911
 31
0.0
  0
LINE
  5
86
  8
1
 62
     7
 10
145.09500781948691
 20
-308.92160303497911
 30
0.0
 11
159.09500781948691
 21
-308.92160303497911
 31
0.0
  0
LINE
  5
87
  8
1
 62
     7
 10
146.09500781948691
 20
-308.32160303497932
 30
0.0
 11
163.09500781948699
 21
-308.32160303497932
 31
0.0
  0
LINE
  5
88
  8
1
 62
     7
 10
147.09500781948691
 20
-265.92160303497911
 30
0.0
 11
147.09500781948691
 21
-283.92160303497923
 31
0.0
  0
LINE
  5
89
  8
1
 62
     7
 10
128.09500781948691
 20
-265.92160303497911
 30
0.0
 11
147.09500781948691
 21
-265.92160303497911
 31
0.0
  0
LINE
  5
8A
  8
1
 62
     7
 10
129.09500781948691
 20
-254.42160303497911
 30
0.0
 11
128.09500781948691
 21
-254.42160303497911
 31
0.0
  0
LINE
  5
8B
  8
1
 62
     7
 10
129.09500781948691
 20
-265.32160303497932
 30
0.0
 11
129.09500781948691
 21
-254.42160303497911
 31
0.0
  0
LINE
  5
8C
  8
1
 62
     7
 10
148.09500781948691
 20
-265.32160303497932
 30
0.0
 11
129.09500781948691
 21
-265.32160303497932
 31
0.0
  0
LINE
  5
8D
  8
1
 62
     7
 10
148.09500781948691
 20
-296.92160303497911
 30
0.0
 11
148.09500781948691
 21
-265.32160303497932
 31
0.0
  0
LINE
  5
8E
  8
1
 62
     7
 10
146.09500781948691
 20
-308.32160303497932
 30
0.0
 11
146.09500781948691
 21
-296.92160303497911
 31
0.0
  0
LINE
  5
8F
  8
1
 62
     7
 10
186.09500781948699
 20
-254.92160303497911
 30
0.0
 11
186.09500781948699
 21
-308.42160303497911
 31
0.0
  0
LINE
  5
90
  8
1
 62
     7
 10
198.09500781948691
 20
-308.42160303497911
 30
0.0
 11
201.09500781948691
 21
-305.42160303497911
 31
0.0
  0
LINE
  5
91
  8
1
 62
     7
 10
198.09500781948691
 20
-308.42160303497911
 30
0.0
 11
186.09500781948699
 21
-308.42160303497911
 31
0.0
  0
LINE
  5
92
  8
1
 62
     7
 10
201.09500781948691
 20
-265.18699892999831
 30
0.0
 11
201.09500781948691
 21
-305.42160303497911
 31
0.0
  0
LINE
  5
93
  8
1
 62
     7
 10
197.1950078194869
 20
-267.92160303497911
 30
0.0
 11
199.09500781948691
 21
-267.92160303497911
 31
0.0
  0
LINE
  5
94
  8
1
 62
     7
 10
196.1950078194869
 20
-253.92160303497911
 30
0.0
 11
196.1950078194869
 21
-266.92160303497911
 31
0.0
  0
LINE
  5
95
  8
1
 62
     7
 10
196.1950078194869
 20
-262.82160303497932
 30
0.0
 11
200.19500781948699
 21
-262.82160303497932
 31
0.0
  0
LINE
  5
96
  8
1
  6
DASHDOT
 62
     3
 10
198.52577705025601
 20
-257.92160303497911
 30
0.0
 11
161.06589539345131
 21
-257.92160303497911
 31
0.0
  0
LINE
  5
97
  8
1
 62
     7
 10
68.095007819486995
 20
-245.921603034979
 30
0.0
 11
77.095007819486995
 21
-245.921603034979
 31
0.0
  0
LINE
  5
98
  8
1
 62
     7
 10
129.09500781948691
 20
-245.921603034979
 30
0.0
 11
129.09500781948691
 21
-248.42160303497911
 31
0.0
  0
LINE
  5
99
  8
1
 62
     7
 10
196.1950078194869
 20
-254.92160303497911
 30
0.0
 11
163.09500781948699
 21
-254.92160303497911
 31
0.0
  0
LINE
  5
9A
  8
1
 62
     7
 10
203.09500781948691
 20
-254.92160303497911
 30
0.0
 11
200.19500781948699
 21
-254.92160303497911
 31
0.0
  0
LINE
  5
9B
  8
1
 62
     7
 10
203.09500781948691
 20
-235.92160303497911
 30
0.0
 11
177.09500781948691
 21
-235.92160303497911
 31
0.0
  0
LINE
  5
9C
  8
1
 62
     7
 10
125.0950078194869
 20
-235.92160303497911
 30
0.0
 11
68.095007819486995
 21
-235.92160303497911
 31
0.0
  0
LINE
  5
9D
  8
1
 62
     7
 10
169.09500781948699
 20
-235.92160303497911
 30
0.0
 11
133.09500781948691
 21
-235.92160303497911
 31
0.0
  0
LINE
  5
9E
  8
1
 62
     7
 10
163.09500781948699
 20
-318.42160303497911
 30
0.0
 11
163.09500781948699
 21
-248.42160303497911
 31
0.0
  0
LINE
  5
9F
  8
1
 62
     7
 10
196.1950078194869
 20
-260.32160303497932
 30
0.0
 11
163.09500781948699
 21
-260.32160303497932
 31
0.0
  0
LINE
  5
A0
  8
1
 62
     7
 10
200.19500781948699
 20
-253.92160303497911
 30
0.0
 11
196.1950078194869
 21
-253.92160303497911
 31
0.0
  0
LINE
  5
A1
  8
1
 62
     7
 10
203.09500781948691
 20
-255.92160303497911
 30
0.0
 11
200.19500781948699
 21
-255.92160303497911
 31
0.0
  0
LINE
  5
A2
  8
1
 62
     7
 10
146.09500781948691
 20
-284.92160303497911
 30
0.0
 11
145.09500781948691
 21
-284.92160303497911
 31
0.0
  0
LINE
  5
A3
  8
1
 62
     7
 10
80.095007819486995
 20
-270.92160303497911
 30
0.0
 11
128.09500781948691
 21
-270.92160303497911
 31
0.0
  0
LINE
  5
A4
  8
1
 62
     7
 10
80.095007819486995
 20
-245.921603034979
 30
0.0
 11
129.09500781948691
 21
-245.921603034979
 31
0.0
  0
LINE
  5
A5
  8
1
 62
     7
 10
80.095007819486995
 20
-244.17160303497911
 30
0.0
 11
80.095007819486995
 21
-274.42160303497911
 31
0.0
  0
LINE
  5
A6
  8
1
 62
     7
 10
128.09500781948691
 20
-245.921603034979
 30
0.0
 11
128.09500781948691
 21
-270.92160303497911
 31
0.0
  0
LINE
  5
A7
  8
1
 62
     7
 10
146.09500781948691
 20
-296.92160303497911
 30
0.0
 11
148.09500781948691
 21
-296.92160303497911
 31
0.0
  0
LINE
  5
A8
  8
1
 62
     7
 10
200.19500781948699
 20
-262.82160303497932
 30
0.0
 11
200.19500781948699
 21
-253.92160303497911
 31
0.0
  0
LINE
  5
A9
  8
1
 62
     7
 10
82.095007819486995
 20
-286.92160303497911
 30
0.0
 11
82.095007819486995
 21
-317.42160303497911
 31
0.0
  0
LINE
  5
AA
  8
1
 62
     7
 10
72.095007819486995
 20
-111.9216030349791
 30
0.0
 11
82.095007819486995
 21
-111.9216030349791
 31
0.0
  0
LINE
  5
AB
  8
1
 62
     7
 10
70.095007819486995
 20
-130.921603034979
 30
0.0
 11
76.095007819486995
 21
-130.921603034979
 31
0.0
  0
LINE
  5
AC
  8
1
 62
     7
 10
76.095007819486995
 20
-127.421603034979
 30
0.0
 11
76.095007819486995
 21
-144.06303935583671
 31
0.0
  0
LINE
  5
AD
  8
1
 62
     7
 10
77.095007819486995
 20
-149.671603034979
 30
0.0
 11
77.095007819486995
 21
-157.671603034979
 31
0.0
  0
LINE
  5
AE
  8
1
 62
     7
 10
77.095007819486995
 20
-157.671603034979
 30
0.0
 11
80.095007819486995
 21
-157.671603034979
 31
0.0
  0
LINE
  5
AF
  8
1
 62
     7
 10
80.095007819486995
 20
-149.671603034979
 30
0.0
 11
77.095007819486995
 21
-149.671603034979
 31
0.0
  0
LINE
  5
B0
  8
1
 62
     7
 10
76.095007819486995
 20
-138.2216030349791
 30
0.0
 11
80.095007819486995
 21
-138.2216030349791
 31
0.0
  0
LINE
  5
B1
  8
1
 62
     7
 10
80.095007819486995
 20
-127.421603034979
 30
0.0
 11
76.095007819486995
 21
-127.421603034979
 31
0.0
  0
LINE
  5
B2
  8
1
 62
     7
 10
177.09500781948691
 20
-236.92160303497911
 30
0.0
 11
177.09500781948691
 21
-164.921603034979
 31
0.0
  0
LINE
  5
B3
  8
1
 62
     7
 10
440.72500781948702
 20
-40.921603034979107
 30
0.0
 11
448.09500781948708
 21
-40.921603034979107
 31
0.0
  0
LINE
  5
B4
  8
1
 62
     7
 10
428.09500781948691
 20
-40.921603034979107
 30
0.0
 11
435.46500781948703
 21
-40.921603034979107
 31
0.0
  0
LINE
  5
B5
  8
1
 62
     7
 10
428.09500781948691
 20
-83.937629773681536
 30
0.0
 11
428.09500781948691
 21
-40.921603034979107
 31
0.0
  0
LINE
  5
B6
  8
1
 62
     7
 10
430.09500781948702
 20
-83.694259808238712
 30
0.0
 11
430.09500781948702
 21
-40.921603034979107
 31
0.0
  0
LINE
  5
B7
  8
1
 62
     7
 10
448.09500781948708
 20
-40.921603034979107
 30
0.0
 11
448.09500781948708
 21
-83.937629773681536
 31
0.0
  0
LINE
  5
B8
  8
1
 62
     7
 10
446.09500781948708
 20
-40.921603034979107
 30
0.0
 11
446.09500781948708
 21
-83.694259808238712
 31
0.0
  0
LINE
  5
B9
  8
1
 62
     7
 10
428.09500781948691
 20
-160.921603034979
 30
0.0
 11
428.09500781948691
 21
-167.38058337248219
 31
0.0
  0
LINE
  5
BA
  8
1
 62
     7
 10
448.09500781948708
 20
-160.921603034979
 30
0.0
 11
448.09500781948708
 21
-167.38058337248219
 31
0.0
  0
LINE
  5
BB
  8
1
 62
     7
 10
428.09500781948691
 20
-160.921603034979
 30
0.0
 11
448.09500781948708
 21
-160.921603034979
 31
0.0
  0
LINE
  5
BC
  8
1
  6
DASHDOT
 62
     3
 10
526.05040617253337
 20
-150.1405301191671
 30
0.0
 11
545.53227302818425
 21
-138.8926690457406
 31
0.0
  0
LINE
  5
BD
  8
1
  6
DASHDOT
 62
     3
 10
526.05040617253314
 20
-251.70267595079119
 30
0.0
 11
545.53227302818414
 21
-262.95053702421768
 31
0.0
  0
LINE
  5
BE
  8
1
  6
DASHDOT
 62
     3
 10
350.13960946644062
 20
-251.7026759507911
 30
0.0
 11
330.6577426107898
 21
-262.95053702421762
 31
0.0
  0
LINE
  5
BF
  8
1
  6
DASHDOT
 62
     3
 10
350.13960946644062
 20
-150.14053011916701
 30
0.0
 11
330.6577426107898
 21
-138.89266904574049
 31
0.0
  0
LINE
  5
C0
  8
1
 62
     7
 10
544.90610049941029
 20
-151.9558958459593
 30
0.0
 11
537.99177683199071
 21
-155.94788247660799
 31
0.0
  0
LINE
  5
C1
  8
1
 62
     7
 10
526.99177683199093
 20
-136.89532359335041
 30
0.0
 11
533.90610049941017
 21
-132.9033369627015
 31
0.0
  0
LINE
  5
C2
  8
1
 62
     7
 10
526.99177683199093
 20
-136.89532359335041
 30
0.0
 11
537.99177683199071
 21
-155.94788247660799
 31
0.0
  0
LINE
  5
C3
  8
1
 62
     7
 10
533.90610049941017
 20
-268.93986910725681
 30
0.0
 11
526.99177683199059
 21
-264.94788247660802
 31
0.0
  0
LINE
  5
C4
  8
1
 62
     7
 10
537.99177683199071
 20
-245.89532359335041
 30
0.0
 11
544.90610049941029
 21
-249.88731022399909
 31
0.0
  0
LINE
  5
C5
  8
1
 62
     7
 10
537.99177683199071
 20
-245.89532359335041
 30
0.0
 11
526.99177683199059
 21
-264.94788247660802
 31
0.0
  0
LINE
  5
C6
  8
1
 62
     7
 10
427.09500781948702
 20
-317.90557629627671
 30
0.0
 11
427.09500781948702
 21
-309.92160303497911
 31
0.0
  0
LINE
  5
C7
  8
1
 62
     7
 10
449.09500781948691
 20
-309.92160303497911
 30
0.0
 11
449.09500781948691
 21
-317.90557629627671
 31
0.0
  0
LINE
  5
C8
  8
1
 62
     7
 10
449.09500781948691
 20
-309.92160303497911
 30
0.0
 11
427.09500781948702
 21
-309.92160303497911
 31
0.0
  0
LINE
  5
C9
  8
1
 62
     7
 10
331.28391513956382
 20
-249.88731022399901
 30
0.0
 11
338.19823880698311
 21
-245.8953235933501
 31
0.0
  0
LINE
  5
CA
  8
1
 62
     7
 10
349.19823880698311
 20
-264.94788247660779
 30
0.0
 11
342.28391513956382
 21
-268.93986910725658
 31
0.0
  0
LINE
  5
CB
  8
1
 62
     7
 10
349.19823880698311
 20
-264.94788247660779
 30
0.0
 11
338.19823880698311
 21
-245.8953235933501
 31
0.0
  0
LINE
  5
CC
  8
1
 62
     7
 10
342.28391513956382
 20
-132.90333696270139
 30
0.0
 11
349.19823880698311
 21
-136.89532359335021
 31
0.0
  0
LINE
  5
CD
  8
1
 62
     7
 10
338.19823880698311
 20
-155.9478824766079
 30
0.0
 11
331.28391513956382
 21
-151.95589584595899
 31
0.0
  0
LINE
  5
CE
  8
1
 62
     7
 10
338.19823880698311
 20
-155.9478824766079
 30
0.0
 11
349.19823880698311
 21
-136.89532359335021
 31
0.0
  0
LINE
  5
CF
  8
1
 62
     7
 10
449.09500781948708
 20
-83.937629773681536
 30
0.0
 11
449.09500781948708
 21
-91.921603034979114
 31
0.0
  0
LINE
  5
D0
  8
1
 62
     7
 10
427.09500781948702
 20
-91.921603034979114
 30
0.0
 11
427.09500781948702
 21
-83.937629773681536
 31
0.0
  0
LINE
  5
D1
  8
1
 62
     7
 10
427.09500781948702
 20
-91.921603034979114
 30
0.0
 11
449.09500781948708
 21
-91.921603034979114
 31
0.0
  0
LINE
  5
D2
  8
1
 62
     7
 10
75.780007819487025
 20
-94.60660303497913
 30
0.0
 11
75.780007819486997
 21
-28.75075680507398
 31
0.0
  0
LINE
  5
D3
  8
1
 62
     7
 10
78.410007819486964
 20
-28.75075680507398
 30
0.0
 11
78.410007819487021
 21
-94.60660303497913
 31
0.0
  0
LINE
  5
D4
  8
1
 62
     7
 10
203.09500781948691
 20
-160.921603034979
 30
0.0
 11
68.095007819486995
 21
-160.921603034979
 31
0.0
  0
LINE
  5
D5
  8
1
 62
     7
 10
125.0950078194869
 20
-164.921603034979
 30
0.0
 11
133.09500781948691
 21
-164.921603034979
 31
0.0
  0
LINE
  5
D6
  8
1
 62
     7
 10
169.09500781948699
 20
-164.921603034979
 30
0.0
 11
177.09500781948691
 21
-164.921603034979
 31
0.0
  0
LINE
  5
D7
  8
1
 62
     7
 10
169.09500781948699
 20
-164.921603034979
 30
0.0
 11
177.09500781948691
 21
-164.921603034979
 31
0.0
  0
LINE
  5
D8
  8
1
 62
     7
 10
169.09500781948699
 20
-164.921603034979
 30
0.0
 11
177.09500781948691
 21
-164.921603034979
 31
0.0
  0
LINE
  5
D9
  8
1
 62
     7
 10
128.09500781948691
 20
-153.421603034979
 30
0.0
 11
163.09500781948699
 21
-153.421603034979
 31
0.0
  0
LINE
  5
DA
  8
1
 62
     3
 10
186.09500781948699
 20
-146.921603034979
 30
0.0
 11
163.09500781948699
 21
-83.421603034979114
 31
0.0
  0
LINE
  5
DB
  8
1
 62
     3
 10
163.09500781948699
 20
-146.921603034979
 30
0.0
 11
186.09500781948699
 21
-83.421603034979114
 31
0.0
  0
LINE
  5
DC
  8
1
 62
     7
 10
163.09500781948699
 20
-83.421603034979114
 30
0.0
 11
186.09500781948699
 21
-83.421603034979114
 31
0.0
  0
LINE
  5
DD
  8
1
 62
     7
 10
186.09500781948699
 20
-83.421603034979114
 30
0.0
 11
186.09500781948699
 21
-94.421603034979114
 31
0.0
  0
LINE
  5
DE
  8
1
 62
     7
 10
145.09500781948691
 20
-92.921603034979128
 30
0.0
 11
145.09500781948691
 21
-116.921603034979
 31
0.0
  0
LINE
  5
DF
  8
1
 62
     7
 10
82.095007819486995
 20
-114.921603034979
 30
0.0
 11
71.095007819486995
 21
-114.921603034979
 31
0.0
  0
LINE
  5
E0
  8
1
 62
     7
 10
72.095007819486995
 20
-111.9216030349791
 30
0.0
 11
72.095007819486995
 21
-40.921603034979107
 31
0.0
  0
LINE
  5
E1
  8
1
 62
     7
 10
72.095007819486995
 20
-40.921603034979107
 30
0.0
 11
75.780007819486997
 21
-40.921603034979107
 31
0.0
  0
LINE
  5
E2
  8
1
 62
     7
 10
70.095007819486995
 20
-155.921603034979
 30
0.0
 11
70.095007819486995
 21
-115.921603034979
 31
0.0
  0
LINE
  5
E3
  8
1
 62
     7
 10
147.09500781948691
 20
-117.921603034979
 30
0.0
 11
146.09500781948691
 21
-116.921603034979
 31
0.0
  0
LINE
  5
E4
  8
1
 62
     7
 10
159.09500781948691
 20
-90.421603034979128
 30
0.0
 11
152.09500781948691
 21
-83.421603034979114
 31
0.0
  0
LINE
  5
E5
  8
1
 62
     7
 10
82.095007819487023
 20
-84.4216030349791
 30
0.0
 11
83.095007819486995
 21
-83.421603034979114
 31
0.0
  0
LINE
  5
E6
  8
1
 62
     7
 10
159.09500781948691
 20
-90.421603034979128
 30
0.0
 11
159.09500781948691
 21
-92.921603034979128
 31
0.0
  0
LINE
  5
E7
  8
1
 62
     7
 10
159.09500781948691
 20
-92.921603034979128
 30
0.0
 11
145.09500781948691
 21
-92.921603034979128
 31
0.0
  0
LINE
  5
E8
  8
1
 62
     7
 10
163.09500781948699
 20
-93.521603034979094
 30
0.0
 11
146.09500781948691
 21
-93.521603034979009
 31
0.0
  0
LINE
  5
E9
  8
1
 62
     7
 10
147.09500781948691
 20
-117.921603034979
 30
0.0
 11
147.09500781948691
 21
-135.921603034979
 31
0.0
  0
LINE
  5
EA
  8
1
 62
     7
 10
147.09500781948691
 20
-135.921603034979
 30
0.0
 11
128.09500781948691
 21
-135.921603034979
 31
0.0
  0
LINE
  5
EB
  8
1
 62
     7
 10
128.09500781948691
 20
-147.421603034979
 30
0.0
 11
129.09500781948691
 21
-147.421603034979
 31
0.0
  0
LINE
  5
EC
  8
1
 62
     7
 10
129.09500781948691
 20
-147.421603034979
 30
0.0
 11
129.09500781948691
 21
-136.52160303497911
 31
0.0
  0
LINE
  5
ED
  8
1
 62
     7
 10
129.09500781948691
 20
-136.52160303497911
 30
0.0
 11
148.09500781948691
 21
-136.52160303497911
 31
0.0
  0
LINE
  5
EE
  8
1
 62
     7
 10
148.09500781948691
 20
-136.52160303497911
 30
0.0
 11
148.09500781948691
 21
-104.9216030349791
 31
0.0
  0
LINE
  5
EF
  8
1
 62
     7
 10
146.09500781948691
 20
-104.9216030349791
 30
0.0
 11
146.09500781948691
 21
-93.521603034979009
 31
0.0
  0
LINE
  5
F0
  8
1
 62
     7
 10
186.09500781948699
 20
-93.421603034979114
 30
0.0
 11
186.09500781948699
 21
-146.921603034979
 31
0.0
  0
LINE
  5
F1
  8
1
 62
     7
 10
201.09500781948691
 20
-96.421603034979128
 30
0.0
 11
198.09500781948691
 21
-93.421603034979114
 31
0.0
  0
LINE
  5
F2
  8
1
 62
     7
 10
186.09500781948699
 20
-93.421603034979114
 30
0.0
 11
198.09500781948691
 21
-93.421603034979114
 31
0.0
  0
LINE
  5
F3
  8
1
 62
     7
 10
201.09500781948691
 20
-96.421603034979128
 30
0.0
 11
201.09500781948691
 21
-136.65620713996
 31
0.0
  0
LINE
  5
F4
  8
1
 62
     7
 10
201.09500781948691
 20
-131.921603034979
 30
0.0
 11
199.09500781948691
 21
-133.921603034979
 31
0.0
  0
LINE
  5
F5
  8
1
 62
     7
 10
196.1950078194869
 20
-134.921603034979
 30
0.0
 11
196.1950078194869
 21
-147.92160303497911
 31
0.0
  0
LINE
  5
F6
  8
1
 62
     7
 10
200.19500781948699
 20
-139.02160303497911
 30
0.0
 11
196.1950078194869
 21
-139.02160303497911
 31
0.0
  0
LINE
  5
F7
  8
1
  6
DASHDOT
 62
     3
 10
161.06589539345131
 20
-143.921603034979
 30
0.0
 11
198.52577705025601
 21
-143.921603034979
 31
0.0
  0
LINE
  5
F8
  8
1
 62
     7
 10
77.095007819486995
 20
-155.921603034979
 30
0.0
 11
68.095007819486995
 21
-155.921603034979
 31
0.0
  0
LINE
  5
F9
  8
1
 62
     7
 10
129.09500781948691
 20
-153.421603034979
 30
0.0
 11
129.09500781948691
 21
-155.921603034979
 31
0.0
  0
LINE
  5
FA
  8
1
 62
     7
 10
203.09500781948691
 20
-255.92160303497911
 30
0.0
 11
203.09500781948691
 21
-145.921603034979
 31
0.0
  0
LINE
  5
FB
  8
1
 62
     7
 10
163.09500781948699
 20
-146.921603034979
 30
0.0
 11
196.1950078194869
 21
-146.921603034979
 31
0.0
  0
LINE
  5
FC
  8
1
 62
     7
 10
200.19500781948699
 20
-146.921603034979
 30
0.0
 11
203.09500781948691
 21
-146.921603034979
 31
0.0
  0
LINE
  5
FD
  8
1
 62
     7
 10
177.09500781948691
 20
-165.921603034979
 30
0.0
 11
203.09500781948691
 21
-165.921603034979
 31
0.0
  0
LINE
  5
FE
  8
1
 62
     7
 10
169.09500781948699
 20
-236.92160303497911
 30
0.0
 11
169.09500781948699
 21
-164.921603034979
 31
0.0
  0
LINE
  5
FF
  8
1
 62
     7
 10
125.0950078194869
 20
-236.92160303497911
 30
0.0
 11
125.0950078194869
 21
-164.921603034979
 31
0.0
  0
LINE
  5
100
  8
1
 62
     7
 10
133.09500781948691
 20
-236.92160303497911
 30
0.0
 11
133.09500781948691
 21
-164.921603034979
 31
0.0
  0
LINE
  5
101
  8
1
 62
     7
 10
68.095007819486995
 20
-165.921603034979
 30
0.0
 11
125.0950078194869
 21
-165.921603034979
 31
0.0
  0
LINE
  5
102
  8
1
 62
     7
 10
133.09500781948691
 20
-165.921603034979
 30
0.0
 11
169.09500781948699
 21
-165.921603034979
 31
0.0
  0
LINE
  5
103
  8
1
 62
     7
 10
68.095007819486995
 20
-245.921603034979
 30
0.0
 11
68.095007819486995
 21
-155.921603034979
 31
0.0
  0
LINE
  5
104
  8
1
 62
     7
 10
163.09500781948699
 20
-153.421603034979
 30
0.0
 11
163.09500781948699
 21
-83.421603034979114
 31
0.0
  0
LINE
  5
105
  8
1
 62
     7
 10
163.09500781948699
 20
-141.52160303497899
 30
0.0
 11
196.1950078194869
 21
-141.52160303497911
 31
0.0
  0
LINE
  5
106
  8
1
 62
     7
 10
196.1950078194869
 20
-147.92160303497911
 30
0.0
 11
200.19500781948699
 21
-147.92160303497911
 31
0.0
  0
LINE
  5
107
  8
1
 62
     7
 10
200.19500781948699
 20
-145.921603034979
 30
0.0
 11
203.09500781948691
 21
-145.921603034979
 31
0.0
  0
LINE
  5
108
  8
1
 62
     7
 10
81.410007819487035
 20
-100.236603034979
 30
0.0
 11
82.095007819487023
 21
-100.236603034979
 31
0.0
  0
LINE
  5
109
  8
1
 62
     7
 10
81.410007819487035
 20
-97.606603034979145
 30
0.0
 11
82.095007819487023
 21
-97.606603034979145
 31
0.0
  0
LINE
  5
10A
  8
1
 62
     7
 10
435.46500781948703
 20
-28.75075680507398
 30
0.0
 11
435.46500781948703
 21
-83.451040339468008
 31
0.0
  0
LINE
  5
10B
  8
1
 62
     7
 10
440.72500781948702
 20
-83.451040339468008
 30
0.0
 11
440.72500781948702
 21
-28.75075680507398
 31
0.0
  0
LINE
  5
10C
  8
1
 62
     7
 10
435.46500781948703
 20
-28.75075680507398
 30
0.0
 11
440.72500781948702
 21
-28.75075680507398
 31
0.0
  0
LINE
  5
10D
  8
1
 62
     7
 10
439.41000781948702
 20
-28.75075680507398
 30
0.0
 11
439.41000781948702
 21
-23.75075680507398
 31
0.0
  0
LINE
  5
10E
  8
1
 62
     7
 10
439.80349608041502
 20
-28.75075680507398
 30
0.0
 11
439.80349608041502
 21
-23.75075680507398
 31
0.0
  0
LINE
  5
10F
  8
1
 62
     7
 10
440.212283769115
 20
-28.75075680507398
 30
0.0
 11
440.212283769115
 21
-23.75075680507398
 31
0.0
  0
LINE
  5
110
  8
1
 62
     7
 10
439.03345415518999
 20
-28.75075680507398
 30
0.0
 11
439.03345415518999
 21
-23.75075680507398
 31
0.0
  0
LINE
  5
111
  8
1
 62
     7
 10
438.68170660909999
 20
-28.75075680507398
 30
0.0
 11
438.68170660909999
 21
-23.75075680507398
 31
0.0
  0
LINE
  5
112
  8
1
 62
     7
 10
436.78000781948703
 20
-28.75075680507398
 30
0.0
 11
436.78000781948703
 21
-23.75075680507398
 31
0.0
  0
LINE
  5
113
  8
1
 62
     7
 10
437.09408930647498
 20
-28.75075680507398
 30
0.0
 11
437.09408930647498
 21
-23.75075680507398
 31
0.0
  0
LINE
  5
114
  8
1
 62
     7
 10
437.4363301621309
 20
-28.75075680507398
 30
0.0
 11
437.4363301621309
 21
-23.75075680507398
 31
0.0
  0
LINE
  5
115
  8
1
 62
     7
 10
436.46664773777292
 20
-28.75075680507398
 30
0.0
 11
436.46664773777292
 21
-23.75075680507398
 31
0.0
  0
LINE
  5
116
  8
1
 62
     7
 10
436.12440688211791
 20
-28.75075680507398
 30
0.0
 11
436.12440688211791
 21
-23.75075680507398
 31
0.0
  0
LINE
  5
117
  8
1
 62
     7
 10
438.09500781948702
 20
-28.75075680507398
 30
0.0
 11
438.09500781948702
 21
-83.421603034979114
 31
0.0
  0
LINE
  5
118
  8
1
  6
DASHDOT
 62
     3
 10
448.09500781948702
 20
-200.92160303497911
 30
0.0
 11
428.09500781948691
 21
-200.92160303497911
 31
0.0
  0
LINE
  5
119
  8
1
  6
DASHDOT
 62
     3
 10
438.09500781948702
 20
-190.921603034979
 30
0.0
 11
438.09500781948702
 21
-210.92160303497911
 31
0.0
  0
LINE
  5
11A
  8
1
  6
DASHDOT
 62
     3
 10
438.09500781948702
 20
-83.421603034979114
 30
0.0
 11
438.09500781948702
 21
-99.359457203355007
 31
0.0
  0
LINE
  5
11B
  8
1
  6
DASHDOT
 62
     3
 10
203.09500781948691
 20
-200.92160303497911
 30
0.0
 11
208.09500781948691
 21
-200.92160303497911
 31
0.0
  0
LINE
  5
11C
  8
1
  6
DASHDOT
 62
     3
 10
68.095007819486995
 20
-200.92160303497911
 30
0.0
 11
63.095007819487002
 21
-200.92160303497911
 31
0.0
  0
LINE
  5
11D
  8
1
 62
     7
 10
145.09500781948691
 20
-116.921603034979
 30
0.0
 11
146.09500781948691
 21
-116.921603034979
 31
0.0
  0
LINE
  5
11E
  8
1
 62
     7
 10
128.09500781948691
 20
-130.921603034979
 30
0.0
 11
80.095007819486995
 21
-130.921603034979
 31
0.0
  0
LINE
  5
11F
  8
1
 62
     7
 10
129.09500781948691
 20
-155.921603034979
 30
0.0
 11
80.095007819486995
 21
-155.921603034979
 31
0.0
  0
LINE
  5
120
  8
1
 62
     7
 10
80.095007819486995
 20
-127.421603034979
 30
0.0
 11
80.095007819486995
 21
-157.671603034979
 31
0.0
  0
LINE
  5
121
  8
1
 62
     7
 10
128.09500781948691
 20
-130.921603034979
 30
0.0
 11
128.09500781948691
 21
-155.921603034979
 31
0.0
  0
LINE
  5
122
  8
1
 62
     7
 10
148.09500781948691
 20
-104.9216030349791
 30
0.0
 11
146.09500781948691
 21
-104.9216030349791
 31
0.0
  0
LINE
  5
123
  8
1
 62
     7
 10
200.19500781948699
 20
-147.92160303497911
 30
0.0
 11
200.19500781948699
 21
-139.02160303497911
 31
0.0
  0
LINE
  5
124
  8
1
 62
     7
 10
82.095007819486995
 20
-40.921603034979107
 30
0.0
 11
82.095007819486995
 21
-114.921603034979
 31
0.0
  0
LINE
  5
125
  8
1
 62
     7
 10
78.410007819486964
 20
-28.75075680507398
 30
0.0
 11
75.780007819486997
 21
-28.75075680507398
 31
0.0
  0
LINE
  5
126
  8
1
 62
     7
 10
77.095007819486966
 20
-28.75075680507398
 30
0.0
 11
77.095007819486966
 21
-23.75075680507398
 31
0.0
  0
LINE
  5
127
  8
1
 62
     7
 10
77.488496080414947
 20
-28.75075680507398
 30
0.0
 11
77.488496080414947
 21
-23.75075680507398
 31
0.0
  0
LINE
  5
128
  8
1
 62
     7
 10
77.897283769114949
 20
-28.75075680507398
 30
0.0
 11
77.897283769114949
 21
-23.75075680507398
 31
0.0
  0
LINE
  5
129
  8
1
 62
     7
 10
76.718454155189931
 20
-28.75075680507398
 30
0.0
 11
76.718454155189931
 21
-23.75075680507398
 31
0.0
  0
LINE
  5
12A
  8
1
 62
     7
 10
76.366706609099936
 20
-28.75075680507398
 30
0.0
 11
76.366706609099936
 21
-23.75075680507398
 31
0.0
  0
LINE
  5
12B
  8
1
 62
     7
 10
78.410007819486964
 20
-40.921603034979107
 30
0.0
 11
82.095007819486995
 21
-40.921603034979107
 31
0.0
  0
LINE
  5
12C
  8
1
 62
     7
 10
74.095007819486995
 20
-40.921603034979107
 30
0.0
 11
74.095007819486995
 21
-111.9216030349791
 31
0.0
  0
LINE
  5
12D
  8
1
 62
     7
 10
104.0950078194869
 20
-155.921603034979
 30
0.0
 11
104.0950078194869
 21
-130.921603034979
 31
0.0
  0
LINE
  5
12E
  8
1
 62
     7
 10
95.845007819486995
 20
-136.92641250659591
 30
0.0
 11
112.3450078194869
 21
-136.92641250659591
 31
0.0
  0
LINE
  5
12F
  8
1
 62
     7
 10
88.345007819486995
 20
-136.9264125065958
 30
0.0
 11
80.095007819486995
 21
-136.92641250659591
 31
0.0
  0
LINE
  5
130
  8
1
 62
     7
 10
88.345007819486995
 20
-149.9167935633624
 30
0.0
 11
80.095007819486995
 21
-149.9167935633624
 31
0.0
  0
LINE
  5
131
  8
1
 62
     7
 10
95.845007819486995
 20
-149.9167935633624
 30
0.0
 11
112.3450078194869
 21
-149.9167935633624
 31
0.0
  0
LINE
  5
132
  8
1
 62
     7
 10
101.695007819487
 20
-150.921603034979
 30
0.0
 11
101.695007819487
 21
-135.921603034979
 31
0.0
  0
LINE
  5
133
  8
1
 62
     7
 10
82.495007819487
 20
-150.921603034979
 30
0.0
 11
82.495007819487
 21
-135.921603034979
 31
0.0
  0
LINE
  5
134
  8
1
 62
     7
 10
106.4950078194869
 20
-135.921603034979
 30
0.0
 11
106.4950078194869
 21
-150.921603034979
 31
0.0
  0
LINE
  5
135
  8
1
 62
     7
 10
128.09500781948691
 20
-149.9167935633624
 30
0.0
 11
119.8450078194869
 21
-149.9167935633624
 31
0.0
  0
LINE
  5
136
  8
1
 62
     7
 10
125.695007819487
 20
-135.921603034979
 30
0.0
 11
125.695007819487
 21
-150.921603034979
 31
0.0
  0
LINE
  5
137
  8
1
 62
     7
 10
128.09500781948691
 20
-136.92641250659591
 30
0.0
 11
119.8450078194869
 21
-136.9264125065958
 31
0.0
  0
LINE
  5
138
  8
1
 62
     7
 10
112.3450078194869
 20
-251.92641250659591
 30
0.0
 11
95.845007819486995
 21
-251.92641250659591
 31
0.0
  0
LINE
  5
139
  8
1
 62
     7
 10
106.4950078194869
 20
-250.92160303497911
 30
0.0
 11
106.4950078194869
 21
-265.92160303497911
 31
0.0
  0
LINE
  5
13A
  8
1
 62
     7
 10
112.3450078194869
 20
-264.91679356336232
 30
0.0
 11
95.845007819486995
 21
-264.91679356336232
 31
0.0
  0
LINE
  5
13B
  8
1
 62
     7
 10
119.8450078194869
 20
-264.91679356336232
 30
0.0
 11
128.09500781948691
 21
-264.91679356336232
 31
0.0
  0
LINE
  5
13C
  8
1
 62
     7
 10
125.695007819487
 20
-250.92160303497911
 30
0.0
 11
125.695007819487
 21
-265.92160303497911
 31
0.0
  0
LINE
  5
13D
  8
1
 62
     7
 10
119.8450078194869
 20
-251.92641250659591
 30
0.0
 11
128.09500781948691
 21
-251.92641250659591
 31
0.0
  0
LINE
  5
13E
  8
1
 62
     7
 10
80.095007819486995
 20
-251.92641250659591
 30
0.0
 11
88.345007819486995
 21
-251.92641250659591
 31
0.0
  0
LINE
  5
13F
  8
1
 62
     7
 10
82.495007819487
 20
-265.92160303497911
 30
0.0
 11
82.495007819487
 21
-250.92160303497911
 31
0.0
  0
LINE
  5
140
  8
1
 62
     7
 10
101.695007819487
 20
-265.92160303497911
 30
0.0
 11
101.695007819487
 21
-250.92160303497911
 31
0.0
  0
LINE
  5
141
  8
1
 62
     7
 10
80.095007819486995
 20
-264.91679356336232
 30
0.0
 11
88.345007819486995
 21
-264.91679356336232
 31
0.0
  0
LINE
  5
142
  8
1
 62
     7
 10
104.0950078194869
 20
-245.921603034979
 30
0.0
 11
104.0950078194869
 21
-270.92160303497911
 31
0.0
  0
LINE
  5
143
  8
1
 62
     7
 10
-172.40499218051301
 20
-96.136263193314733
 30
0.0
 11
-172.40499218051301
 21
-114.2079028032455
 31
0.0
  0
LINE
  5
144
  8
1
 62
     7
 10
-172.40499218051301
 20
-96.136263193314733
 30
0.0
 11
-170.40499218051301
 21
-96.136263193314733
 31
0.0
  0
LINE
  5
145
  8
1
 62
     7
 10
-172.40499218051301
 20
-97.421699000015167
 30
0.0
 11
-170.40499218051301
 21
-97.421699000015167
 31
0.0
  0
LINE
  5
146
  8
1
 62
     7
 10
-172.40499218051301
 20
-114.2079028032455
 30
0.0
 11
-170.40499218051301
 21
-114.2079028032455
 31
0.0
  0
LINE
  5
147
  8
1
 62
     7
 10
-395.40499218051292
 20
-108.2079028032455
 30
0.0
 11
-395.40499218051292
 21
-102.2710908093505
 31
0.0
  0
LINE
  5
148
  8
1
 62
     7
 10
-443.40499218051292
 20
-108.2079028032455
 30
0.0
 11
-443.40499218051292
 21
-102.2710908093504
 31
0.0
  0
LINE
  5
149
  8
1
 62
     7
 10
-429.40499218051298
 20
-40.921603034979107
 30
0.0
 11
-409.40499218051298
 21
-40.921603034979107
 31
0.0
  0
LINE
  5
14A
  8
1
 62
     7
 10
-409.40499218051298
 20
-40.921603034979107
 30
0.0
 11
-409.40499218051298
 21
-112.6835773137788
 31
0.0
  0
LINE
  5
14B
  8
1
 62
     7
 10
-429.40499218051298
 20
-112.6835773137788
 30
0.0
 11
-429.40499218051298
 21
-40.921603034979107
 31
0.0
  0
LINE
  5
14C
  8
1
 62
     7
 10
-172.40499218051301
 20
-105.9216030349791
 30
0.0
 11
-173.7049921805129
 21
-107.221603034979
 31
0.0
  0
LINE
  5
14D
  8
1
 62
     7
 10
-172.40499218051301
 20
-104.621603034979
 30
0.0
 11
-173.7049921805129
 21
-105.9216030349791
 31
0.0
  0
LINE
  5
14E
  8
1
 62
     7
 10
-172.40499218051301
 20
-110.52160303497899
 30
0.0
 11
-173.7049921805129
 21
-110.52160303497899
 31
0.0
  0
LINE
  5
14F
  8
1
 62
     7
 10
-173.7049921805129
 20
-110.52160303497899
 30
0.0
 11
-173.7049921805129
 21
-101.32160303497911
 31
0.0
  0
LINE
  5
150
  8
1
 62
     7
 10
-173.7049921805129
 20
-101.32160303497911
 30
0.0
 11
-172.40499218051301
 21
-101.32160303497911
 31
0.0
  0
LINE
  5
151
  8
1
 62
     7
 10
-173.7049921805129
 20
-110.1716030349791
 30
0.0
 11
-178.40499218051301
 21
-110.1716030349791
 31
0.0
  0
LINE
  5
152
  8
1
 62
     7
 10
-178.40499218051301
 20
-110.1716030349791
 30
0.0
 11
-178.7049921805129
 21
-109.6519877927083
 31
0.0
  0
LINE
  5
153
  8
1
 62
     7
 10
-178.7049921805129
 20
-109.6519877927083
 30
0.0
 11
-178.7049921805129
 21
-102.1912182772497
 31
0.0
  0
LINE
  5
154
  8
1
 62
     7
 10
-178.7049921805129
 20
-102.1912182772497
 30
0.0
 11
-178.40499218051301
 21
-101.6716030349791
 31
0.0
  0
LINE
  5
155
  8
1
 62
     7
 10
-178.40499218051301
 20
-101.6716030349791
 30
0.0
 11
-173.7049921805129
 21
-101.6716030349791
 31
0.0
  0
LINE
  5
156
  8
1
 62
     7
 10
-178.40499218051301
 20
-110.1716030349791
 30
0.0
 11
-178.40499218051301
 21
-101.6716030349791
 31
0.0
  0
LINE
  5
157
  8
1
 62
     7
 10
-402.40499218051292
 20
-103.6122019582206
 30
0.0
 11
-404.40499218051298
 21
-104.7669024965997
 31
0.0
  0
LINE
  5
158
  8
1
 62
     7
 10
-404.40499218051298
 20
-104.7669024965997
 30
0.0
 11
-404.40499218051298
 21
-107.0763035733584
 31
0.0
  0
LINE
  5
159
  8
1
 62
     7
 10
-404.40499218051298
 20
-107.0763035733584
 30
0.0
 11
-402.40499218051292
 21
-108.2310041117377
 31
0.0
  0
LINE
  5
15A
  8
1
 62
     7
 10
-402.40499218051292
 20
-108.2310041117377
 30
0.0
 11
-400.40499218051298
 21
-107.0763035733584
 31
0.0
  0
LINE
  5
15B
  8
1
 62
     7
 10
-400.40499218051298
 20
-107.0763035733584
 30
0.0
 11
-400.40499218051298
 21
-104.7669024965997
 31
0.0
  0
LINE
  5
15C
  8
1
 62
     7
 10
-400.40499218051298
 20
-104.7669024965997
 30
0.0
 11
-402.40499218051292
 21
-103.6122019582206
 31
0.0
  0
LINE
  5
15D
  8
1
 62
     7
 10
-443.40499218051292
 20
-102.2710908093504
 30
0.0
 11
-443.40499218051292
 21
-108.2079028032455
 31
0.0
  0
LINE
  5
15E
  8
1
 62
     7
 10
-434.40499218051298
 20
-104.7669024965997
 30
0.0
 11
-436.40499218051292
 21
-103.6122019582206
 31
0.0
  0
LINE
  5
15F
  8
1
 62
     7
 10
-434.40499218051298
 20
-107.0763035733584
 30
0.0
 11
-434.40499218051298
 21
-104.7669024965997
 31
0.0
  0
LINE
  5
160
  8
1
 62
     7
 10
-436.40499218051292
 20
-108.2310041117377
 30
0.0
 11
-434.40499218051298
 21
-107.0763035733584
 31
0.0
  0
LINE
  5
161
  8
1
 62
     7
 10
-438.40499218051298
 20
-107.0763035733584
 30
0.0
 11
-436.40499218051292
 21
-108.2310041117377
 31
0.0
  0
LINE
  5
162
  8
1
 62
     7
 10
-438.40499218051298
 20
-104.7669024965997
 30
0.0
 11
-438.40499218051298
 21
-107.0763035733584
 31
0.0
  0
LINE
  5
163
  8
1
 62
     7
 10
-436.40499218051292
 20
-103.6122019582206
 30
0.0
 11
-438.40499218051298
 21
-104.7669024965997
 31
0.0
  0
LINE
  5
164
  8
1
 62
     7
 10
-422.03499218051292
 20
-28.75075680507398
 30
0.0
 11
-416.77499218051292
 21
-28.75075680507398
 31
0.0
  0
LINE
  5
165
  8
1
 62
     7
 10
-418.08999218051298
 20
-28.75075680507398
 30
0.0
 11
-418.08999218051298
 21
-23.75075680507398
 31
0.0
  0
LINE
  5
166
  8
1
 62
     7
 10
-417.69650391958498
 20
-28.75075680507398
 30
0.0
 11
-417.69650391958498
 21
-23.75075680507398
 31
0.0
  0
LINE
  5
167
  8
1
 62
     7
 10
-417.28771623088488
 20
-28.75075680507398
 30
0.0
 11
-417.28771623088488
 21
-23.75075680507398
 31
0.0
  0
LINE
  5
168
  8
1
 62
     7
 10
-418.4665458448099
 20
-28.75075680507398
 30
0.0
 11
-418.4665458448099
 21
-23.75075680507398
 31
0.0
  0
LINE
  5
169
  8
1
 62
     7
 10
-418.8182933908999
 20
-28.75075680507398
 30
0.0
 11
-418.8182933908999
 21
-23.75075680507398
 31
0.0
  0
LINE
  5
16A
  8
1
 62
     7
 10
-420.71999218051297
 20
-28.75075680507398
 30
0.0
 11
-420.71999218051297
 21
-23.75075680507398
 31
0.0
  0
LINE
  5
16B
  8
1
 62
     7
 10
-420.4059106935249
 20
-28.75075680507398
 30
0.0
 11
-420.4059106935249
 21
-23.75075680507398
 31
0.0
  0
LINE
  5
16C
  8
1
 62
     7
 10
-420.06366983786899
 20
-28.75075680507398
 30
0.0
 11
-420.06366983786899
 21
-23.75075680507398
 31
0.0
  0
LINE
  5
16D
  8
1
 62
     7
 10
-421.03335226222703
 20
-28.75075680507398
 30
0.0
 11
-421.03335226222703
 21
-23.75075680507398
 31
0.0
  0
LINE
  5
16E
  8
1
 62
     7
 10
-421.37559311788198
 20
-28.75075680507398
 30
0.0
 11
-421.37559311788198
 21
-23.75075680507398
 31
0.0
  0
LINE
  5
16F
  8
1
 62
     7
 10
-416.77499218051292
 20
-28.75075680507398
 30
0.0
 11
-416.77499218051292
 21
-40.921603034979107
 31
0.0
  0
LINE
  5
170
  8
1
 62
     7
 10
-422.03499218051292
 20
-28.75075680507398
 30
0.0
 11
-422.03499218051292
 21
-40.921603034979107
 31
0.0
  0
LINE
  5
171
  8
1
 62
     7
 10
-419.40499218051292
 20
-40.921603034979107
 30
0.0
 11
-419.40499218051292
 21
-28.75075680507398
 31
0.0
  0
LINE
  5
172
  8
1
 62
     7
 10
-429.40499218051298
 20
-160.921603034979
 30
0.0
 11
-429.40499218051298
 21
-167.38058337248219
 31
0.0
  0
LINE
  5
173
  8
1
 62
     7
 10
-409.40499218051281
 20
-160.921603034979
 30
0.0
 11
-409.40499218051281
 21
-167.38058337248219
 31
0.0
  0
LINE
  5
174
  8
1
 62
     7
 10
-429.40499218051298
 20
-160.921603034979
 30
0.0
 11
-409.40499218051281
 21
-160.921603034979
 31
0.0
  0
LINE
  5
175
  8
1
  6
DASHDOT
 62
     3
 10
-419.40499218051292
 20
-190.921603034979
 30
0.0
 11
-419.40499218051292
 21
-210.92160303497911
 31
0.0
  0
LINE
  5
176
  8
1
  6
DASHDOT
 62
     3
 10
-409.40499218051298
 20
-200.92160303497911
 30
0.0
 11
-429.40499218051298
 21
-200.92160303497911
 31
0.0
  0
ARC
  5
177
  8
1
 62
     7
 10
438.09500781948702
 20
-200.92160303497911
 30
0.0
 40
110.4999999999999
 50
24.286885229129219
 51
35.71311477087059
  0
ARC
  5
178
  8
1
 62
     7
 10
438.09500781948702
 20
-200.92160303497911
 30
0.0
 40
110.4999999999999
 50
324.28688522912921
 51
335.7131147708705
  0
ARC
  5
179
  8
1
 62
     7
 10
438.09500781948702
 20
-200.92160303497911
 30
0.0
 40
110.4999999999999
 50
264.28688522912921
 51
275.71311477087067
  0
ARC
  5
17A
  8
1
 62
     7
 10
438.09500781948702
 20
-200.92160303497911
 30
0.0
 40
110.4999999999999
 50
204.2868852291293
 51
215.7131147708705
  0
ARC
  5
17B
  8
1
 62
     7
 10
438.09500781948702
 20
-200.92160303497911
 30
0.0
 40
110.4999999999999
 50
144.2868852291293
 51
155.71311477087059
  0
ARC
  5
17C
  8
1
 62
     7
 10
438.09500781948702
 20
-200.92160303497911
 30
0.0
 40
110.4999999999999
 50
84.286885229129311
 51
95.713114770870675
  0
ARC
  5
17D
  8
1
 62
     7
 10
438.09500781948702
 20
-200.92160303497911
 30
0.0
 40
35.000000000000071
 50
106.6015495990201
 51
73.398450400979684
  0
ARC
  5
17E
  8
1
 62
     7
 10
81.410007819487035
 20
-94.60660303497913
 30
0.0
 40
5.6299999999999963
 50
180.0
 51
270.0
  0
ARC
  5
17F
  8
1
 62
     7
 10
81.410007819487035
 20
-94.60660303497913
 30
0.0
 40
3.0
 50
180.0
 51
270.0
  0
ARC
  5
180
  8
1
 62
     7
 10
-419.40499218051292
 20
-177.92160303497911
 30
0.0
 40
83.000000000000085
 50
99.814248332932323
 51
104.09850727081199
  0
ARC
  5
181
  8
1
 62
     7
 10
-419.40499218051292
 20
-177.92160303497911
 30
0.0
 40
66.000000000000114
 50
75.522487814070075
 51
104.4775121859299
  0
ARC
  5
182
  8
1
 62
     7
 10
-419.40499218051292
 20
-177.92160303497911
 30
0.0
 40
83.000000000000014
 50
75.90149272918795
 51
80.185751667067649
  0
ARC
  5
183
  8
1
 62
     7
 10
-419.40499218051292
 20
-200.92160303497911
 30
0.0
 40
35.000000000000071
 50
106.6015495990201
 51
73.398450400979684
  0
ARC
  5
184
  8
1
 62
     7
 10
-419.40499218051292
 20
-200.92160303497911
 30
0.0
 40
117.5
 50
94.882142332473094
 51
85.117857667526891
  0
CIRCLE
  5
185
  8
1
 62
     7
 10
438.09500781948702
 20
-200.92160303497911
 30
0.0
 40
55.0
  0
CIRCLE
  5
186
  8
1
 62
     7
 10
438.09500781948702
 20
-200.92160303497911
 30
0.0
 40
117.5
  0
CIRCLE
  5
187
  8
1
 62
     7
 10
438.09500781948702
 20
-200.92160303497911
 30
0.0
 40
107.4999999999999
  0
CIRCLE
  5
188
  8
1
 62
     7
 10
438.09500781948702
 20
-200.92160303497911
 30
0.0
 40
104.4999999999999
  0
CIRCLE
  5
189
  8
1
 62
     7
 10
438.09500781948702
 20
-200.92160303497911
 30
0.0
 40
67.0
  0
CIRCLE
  5
18A
  8
1
 62
     7
 10
92.095007819486995
 20
-143.421603034979
 30
0.0
 40
7.5
  0
CIRCLE
  5
18B
  8
1
 62
     7
 10
116.09500781948699
 20
-143.421603034979
 30
0.0
 40
7.5
  0
CIRCLE
  5
18C
  8
1
 62
     7
 10
92.095007819486995
 20
-258.42160303497911
 30
0.0
 40
7.5
  0
CIRCLE
  5
18D
  8
1
 62
     7
 10
116.09500781948699
 20
-258.42160303497911
 30
0.0
 40
7.5
  0
CIRCLE
  5
18E
  8
1
 62
     7
 10
-402.40499218051292
 20
-105.9216030349791
 30
0.0
 40
4.25
  0
CIRCLE
  5
18F
  8
1
 62
     7
 10
-402.40499218051292
 20
-105.9216030349791
 30
0.0
 40
4.6000000000000227
  0
CIRCLE
  5
190
  8
1
 62
     7
 10
-436.40499218051292
 20
-105.9216030349791
 30
0.0
 40
4.25
  0
CIRCLE
  5
191
  8
1
 62
     7
 10
-436.40499218051292
 20
-105.9216030349791
 30
0.0
 40
4.599999999999965
  0
CIRCLE
  5
192
  8
1
 62
     7
 10
-419.40499218051292
 20
-200.92160303497911
 30
0.0
 40
45.0
  0
CIRCLE
  5
193
  8
1
 62
     7
 10
-419.40499218051292
 20
-200.92160303497911
 30
0.0
 40
86.0
  0
CIRCLE
  5
194
  8
1
 62
     7
 10
-419.40499218051292
 20
-200.92160303497911
 30
0.0
 40
70.0
  0
ARC
  5
195
  8
1
 62
     7
 10
197.1950078194869
 20
-266.92160303497911
 30
0.0
 40
1.0
 50
180.0
 51
270.0
  0
ARC
  5
196
  8
1
 62
     7
 10
197.1950078194869
 20
-134.921603034979
 30
0.0
 40
1.0
 50
90.0
 51
180.0
  0
ARC
  5
197
  8
1
 62
     7
 10
-434.40499218051298
 20
-91.209435492009618
 30
0.0
 40
5.0000000000000462
 50
279.81424833293318
 51
0.0
  0
ARC
  5
198
  8
1
 62
     7
 10
-438.40499218051298
 20
-102.2710908093504
 30
0.0
 40
4.9999999999999476
 50
104.09850727081241
 51
180.0
  0
ARC
  5
199
  8
1
 62
     7
 10
-404.40499218051298
 20
-91.209435492009618
 30
0.0
 40
5.0
 50
180.0
 51
260.18575166706739
  0
ARC
  5
19A
  8
1
 62
     7
 10
-400.40499218051298
 20
-102.2710908093505
 30
0.0
 40
5.0
 50
0.0
 51
75.901492729188533
  0
ARC
  5
19B
  8
1
 62
     7
 10
-401.40499218051292
 20
-108.2079028032455
 30
0.0
 40
6.0000000000000657
 50
255.52248781407019
 51
0.0
  0
ARC
  5
19C
  8
1
 62
     7
 10
-437.40499218051298
 20
-108.2079028032455
 30
0.0
 40
6.0
 50
180.0
 51
284.47751218592981
  0
TEXT
  5
19E
  8
1
 62
     7
 10
-529.98003694354406
 20
52.709766119969167
 30
0.0
 40
14.0
  1
MDC 80
 41
0.9
  7
SIMPLEX
  0
ENDSEC
  0
EOF
