  0
SECTION
  2
HEADER
  9
$ACADVER
  1
AC1009
  9
$INSBASE
 10
0.0
 20
0.0
 30
0.0
  9
$EXTMIN
 10
-322.10000000000002
 20
-66.000000000000043
 30
0.0
  9
$EXTMAX
 10
54.100000000000009
 20
120.9577282031089
 30
0.0
  9
$LIMMIN
 10
-322.10000000000002
 20
-66.000000000000028
  9
$LIMMAX
 10
54.100000000000009
 20
120.9577282031089
  9
$ORTHOMODE
 70
     0
  9
$REGENMODE
 70
     1
  9
$FILLMODE
 70
     1
  9
$QTEXTMODE
 70
     0
  9
$MIRRTEXT
 70
     1
  9
$DRAGMODE
 70
     2
  9
$LTSCALE
 40
1.0
  9
$OSMODE
 70
    37
  9
$ATTMODE
 70
     1
  9
$TEXTSIZE
 40
3.5
  9
$TRACEWID
 40
0.5
  9
$TEXTSTYLE
  7
STANDARD
  9
$CLAYER
  8
0
  9
$CELTYPE
  6
BYLAYER
  9
$CECOLOR
 62
   256
  9
$DIMSCALE
 40
1.0
  9
$DIMASZ
 40
0.18
  9
$DIMEXO
 40
0.0625
  9
$DIMDLI
 40
0.38
  9
$DIMRND
 40
0.0
  9
$DIMDLE
 40
0.0
  9
$DIMEXE
 40
0.18
  9
$DIMTP
 40
0.0
  9
$DIMTM
 40
0.0
  9
$DIMTXT
 40
0.18
  9
$DIMCEN
 40
0.09
  9
$DIMTSZ
 40
0.0
  9
$DIMTOL
 70
     0
  9
$DIMLIM
 70
     0
  9
$DIMTIH
 70
     1
  9
$DIMTOH
 70
     1
  9
$DIMSE1
 70
     0
  9
$DIMSE2
 70
     0
  9
$DIMTAD
 70
     0
  9
$DIMZIN
 70
     0
  9
$DIMBLK
  1

  9
$DIMASO
 70
     1
  9
$DIMSHO
 70
     1
  9
$DIMPOST
  1

  9
$DIMAPOST
  1

  9
$DIMALT
 70
     0
  9
$DIMALTD
 70
     2
  9
$DIMALTF
 40
25.399999999999999
  9
$DIMLFAC
 40
1.0
  9
$DIMTOFL
 70
     0
  9
$DIMTVP
 40
0.0
  9
$DIMTIX
 70
     0
  9
$DIMSOXD
 70
     0
  9
$DIMSAH
 70
     0
  9
$DIMBLK1
  1

  9
$DIMBLK2
  1

  9
$DIMSTYLE
  2
STANDARD
  9
$DIMCLRD
 70
     0
  9
$DIMCLRE
 70
     0
  9
$DIMCLRT
 70
     0
  9
$DIMTFAC
 40
1.0
  9
$DIMGAP
 40
0.09
  9
$LUNITS
 70
     2
  9
$LUPREC
 70
     4
  9
$SKETCHINC
 40
0.1
  9
$FILLETRAD
 40
2.0
  9
$AUNITS
 70
     0
  9
$AUPREC
 70
     0
  9
$MENU
  1
ACAD
  9
$ELEVATION
 40
0.0
  9
$PELEVATION
 40
0.0
  9
$THICKNESS
 40
0.0
  9
$LIMCHECK
 70
     0
  9
$BLIPMODE
 70
     0
  9
$CHAMFERA
 40
0.0
  9
$CHAMFERB
 40
0.0
  9
$SKPOLY
 70
     0
  9
$TDCREATE
 40
2452095.0716688652
  9
$TDUPDATE
 40
2452095.0721494211
  9
$TDINDWG
 40
0.0004939815
  9
$TDUSRTIMER
 40
0.0004939815
  9
$USRTIMER
 70
     1
  9
$ANGBASE
 50
0.0
  9
$ANGDIR
 70
     0
  9
$PDMODE
 70
     0
  9
$PDSIZE
 40
0.0
  9
$PLINEWID
 40
0.0
  9
$COORDS
 70
     1
  9
$SPLFRAME
 70
     0
  9
$SPLINETYPE
 70
     6
  9
$SPLINESEGS
 70
     8
  9
$ATTDIA
 70
     0
  9
$ATTREQ
 70
     1
  9
$HANDLING
 70
 10241
  9
$HANDSEED
  5
16B
  9
$SURFTAB1
 70
     6
  9
$SURFTAB2
 70
     6
  9
$SURFTYPE
 70
     6
  9
$SURFU
 70
     6
  9
$SURFV
 70
     6
  9
$UCSNAME
  2

  9
$UCSORG
 10
0.0
 20
0.0
 30
0.0
  9
$UCSXDIR
 10
1.0
 20
0.0
 30
0.0
  9
$UCSYDIR
 10
0.0
 20
1.0
 30
0.0
  9
$PUCSNAME
  2

  9
$PUCSORG
 10
0.0
 20
0.0
 30
0.0
  9
$PUCSXDIR
 10
1.0
 20
0.0
 30
0.0
  9
$PUCSYDIR
 10
0.0
 20
1.0
 30
0.0
  9
$USERI1
 70
     0
  9
$USERI2
 70
     0
  9
$USERI3
 70
     0
  9
$USERI4
 70
     0
  9
$USERI5
 70
     0
  9
$USERR1
 40
0.0
  9
$USERR2
 40
0.0
  9
$USERR3
 40
0.0
  9
$USERR4
 40
0.0
  9
$USERR5
 40
0.0
  9
$WORLDVIEW
 70
     1
  9
$SHADEDGE
 70
     3
  9
$SHADEDIF
 70
    70
  9
$TILEMODE
 70
     1
  9
$MAXACTVP
 70
    64
  9
$PLIMCHECK
 70
     0
  9
$PEXTMIN
 10
1.0000000000000000E+020
 20
1.0000000000000000E+020
 30
1.0000000000000000E+020
  9
$PEXTMAX
 10
-1.0000000000000000E+020
 20
-1.0000000000000000E+020
 30
-1.0000000000000000E+020
  9
$PLIMMIN
 10
0.0
 20
0.0
  9
$PLIMMAX
 10
12.0
 20
9.0
  9
$UNITMODE
 70
     0
  9
$VISRETAIN
 70
     1
  9
$PLINEGEN
 70
     0
  9
$PSLTSCALE
 70
     1
  0
ENDSEC
  0
SECTION
  2
TABLES
  0
TABLE
  2
VPORT
 70
     2
  0
VPORT
  2
*ACTIVE
 70
     0
 10
0.0
 20
0.0
 11
1.0
 21
1.0
 12
-256.01438045576572
 22
116.6998803855855
 13
0.0
 23
0.0
 14
1.0
 24
1.0
 15
0.0
 25
0.0
 16
0.0
 26
0.0
 36
1.0
 17
0.0
 27
0.0
 37
0.0
 40
9.0000002811321398
 41
2.4144144144144142
 42
50.0
 43
0.0
 44
0.0
 50
0.0
 51
0.0
 71
     0
 72
   100
 73
     1
 74
     1
 75
     0
 76
     0
 77
     0
 78
     0
  0
ENDTAB
  0
TABLE
  2
LTYPE
 70
     9
  0
LTYPE
  2
CONTINUOUS
 70
     0
  3
Solid line
 72
    65
 73
     0
 40
0.0
  0
LTYPE
  2
BORDER
 70
     0
  3
__ __ . __ __ .
 72
    65
 73
     6
 40
17.324999999999989
 49
4.9500000000000002
 49
-2.4750000000000001
 49
4.9500000000000002
 49
-2.4750000000000001
 49
0.0
 49
-2.4750000000000001
  0
LTYPE
  2
CENTER
 70
     0
  3
____ _ ____ _
 72
    65
 73
     4
 40
19.800000000000001
 49
12.375
 49
-2.4750000000000001
 49
2.4750000000000001
 49
-2.4750000000000001
  0
LTYPE
  2
DASHDOT
 70
     0
  3
__ . __ . __ .
 72
    65
 73
     4
 40
9.9000000000000004
 49
4.9500000000000002
 49
-2.4750000000000001
 49
0.0
 49
-2.4750000000000001
  0
LTYPE
  2
DASHED
 70
     0
  3
__ __ __ __ __
 72
    65
 73
     2
 40
7.4250000000000007
 49
4.9500000000000002
 49
-2.4750000000000001
  0
LTYPE
  2
DIVIDE
 70
     0
  3
__ . . __ . . 
 72
    65
 73
     6
 40
12.375
 49
4.9500000000000002
 49
-2.4750000000000001
 49
0.0
 49
-2.4750000000000001
 49
0.0
 49
-2.4750000000000001
  0
LTYPE
  2
DOT
 70
     0
  3
..............
 72
    65
 73
     4
 40
4.9500000000000002
 49
0.0
 49
-2.4750000000000001
 49
0.0
 49
-2.4750000000000001
  0
LTYPE
  2
HIDDEN
 70
     0
  3
_ _ _ _ _ _ _
 72
    65
 73
     2
 40
3.712499999999999
 49
2.4750000000000001
 49
-1.2375
  0
LTYPE
  2
PHANTOM
 70
     0
  3
_____ _ _ _____ _ _ 
 72
    65
 73
     6
 40
24.75
 49
12.375
 49
-2.4750000000000001
 49
2.4750000000000001
 49
-2.4750000000000001
 49
2.4750000000000001
 49
-2.4750000000000001
  0
ENDTAB
  0
TABLE
  2
LAYER
 70
     2
  0
LAYER
  2
0
 70
     0
 62
     7
  6
CONTINUOUS
  0
LAYER
  2
1
 70
     0
 62
     7
  6
CONTINUOUS
  0
ENDTAB
  0
TABLE
  2
STYLE
 70
     4
  0
STYLE
  2
STANDARD
 70
     0
 40
0.0
 41
1.0
 50
0.0
 71
     0
 42
3.5
  3
txt
  4

  0
STYLE
  2
SIMPLEX
 70
     0
 40
0.0
 41
1.0
 50
0.0
 71
     0
 42
3.5
  3
simplex
  4

  0
STYLE
  2
COMPLEX
 70
     0
 40
0.0
 41
1.0
 50
0.0
 71
     0
 42
3.5
  3
complex
  4

  0
STYLE
  2
ITALIC
 70
     0
 40
0.0
 41
1.0
 50
0.0
 71
     0
 42
3.5
  3
italic
  4

  0
ENDTAB
  0
TABLE
  2
VIEW
 70
     0
  0
ENDTAB
  0
TABLE
  2
UCS
 70
     0
  0
ENDTAB
  0
TABLE
  2
APPID
 70
     1
  0
APPID
  2
ACAD
 70
     0
  0
ENDTAB
  0
TABLE
  2
DIMSTYLE
 70
     1
  0
DIMSTYLE
  2
STANDARD
 70
     0
  3

  4

  5

  6

  7

 40
1.0
 41
0.18
 42
0.0625
 43
0.38
 44
0.18
 45
0.0
 46
0.0
 47
0.0
 48
0.0
140
0.18
141
0.09
142
0.0
143
25.399999999999999
144
1.0
145
0.0
146
1.0
147
0.09
 71
     0
 72
     0
 73
     1
 74
     1
 75
     0
 76
     0
 77
     0
 78
     0
170
     0
171
     2
172
     0
173
     0
174
     0
175
     0
176
     0
177
     0
178
     0
  0
ENDTAB
  0
ENDSEC
  0
SECTION
  2
BLOCKS
  0
BLOCK
  8
0
  2
$MODEL_SPACE
 70
     0
 10
0.0
 20
0.0
 30
0.0
  3
$MODEL_SPACE
  1

  0
ENDBLK
  5
20
  8
0
  0
BLOCK
 67
     1
  8
0
  2
$PAPER_SPACE
 70
     0
 10
0.0
 20
0.0
 30
0.0
  3
$PAPER_SPACE
  1

  0
ENDBLK
  5
1C
 67
     1
  8
0
  0
BLOCK
  8
0
  2
_X1
 70
     0
 10
0.0
 20
0.0
 30
0.0
  3
_X1
  1

  0
ENDBLK
  5
35
  8
0
  0
BLOCK
  8
0
  2
_X0
 70
     0
 10
0.0
 20
0.0
 30
0.0
  3
_X0
  1

  0
ENDBLK
  5
38
  8
0
  0
ENDSEC
  0
SECTION
  2
ENTITIES
  0
POINT
  5
39
  8
1
  6
DOT
 62
     7
 10
-256.10000000000002
 20
-20.0
 30
0.0
  0
LINE
  5
3A
  8
1
 62
     7
 10
-76.09999999999998
 20
25.4071562219481
 30
0.0
 11
-76.09999999999998
 21
-25.4071562219481
 31
0.0
  0
LINE
  5
3B
  8
1
 62
     7
 10
-74.0
 20
25.4071562219481
 30
0.0
 11
-74.0
 21
-25.4071562219481
 31
0.0
  0
LINE
  5
3C
  8
1
  6
DASHDOT
 62
     3
 10
-216.46658430388189
 20
0.0
 30
0.0
 11
-226.00206962075799
 21
0.0
 31
0.0
  0
LINE
  5
3D
  8
1
  6
DASHDOT
 62
     3
 10
-256.10000000000002
 20
-39.633415696117993
 30
0.0
 11
-256.10000000000002
 21
-30.097930379242001
 31
0.0
  0
LINE
  5
3E
  8
1
  6
DASHDOT
 62
     3
 10
-295.73341569611802
 20
0.0
 30
0.0
 11
-286.197930379242
 21
0.0
 31
0.0
  0
LINE
  5
3F
  8
1
  6
DASHDOT
 62
     3
 10
-256.10000000000002
 20
39.633415696118021
 30
0.0
 11
-256.10000000000002
 21
30.097930379242001
 31
0.0
  0
LINE
  5
40
  8
1
  6
DASHDOT
 62
     3
 10
-256.10000000000002
 20
3.7811668377400172
 30
0.0
 11
-256.10000000000002
 21
-3.7811668377401011
 31
0.0
  0
LINE
  5
41
  8
1
  6
DASHDOT
 62
     3
 10
-252.31883316226001
 20
0.0
 30
0.0
 11
-259.88116683774012
 21
0.0
 31
0.0
  0
LINE
  5
42
  8
1
 62
     7
 10
10.025259677798489
 20
93.947741400783016
 30
0.0
 11
10.025259677798489
 21
88.947741400783016
 31
0.0
  0
LINE
  5
43
  8
1
 62
     7
 10
-110.07474032220151
 20
93.947741400783016
 30
0.0
 11
-110.07474032220151
 21
88.947741400783016
 31
0.0
  0
LINE
  5
44
  8
1
 62
     7
 10
-118.09999999999999
 20
-61.0
 30
0.0
 11
-118.09999999999999
 21
61.000000000000007
 31
0.0
  0
LINE
  5
45
  8
1
 62
     7
 10
-103.59999999999999
 20
66.000000000000014
 30
0.0
 11
-103.59999999999999
 21
-66.0
 31
0.0
  0
LINE
  5
46
  8
1
 62
     7
 10
-105.59999999999999
 20
-61.0
 30
0.0
 11
-105.59999999999999
 21
61.000000000000007
 31
0.0
  0
LINE
  5
47
  8
1
 62
     3
 10
-77.5
 20
-27.66720102760328
 30
0.0
 11
-92.099999999999994
 21
27.667201027603308
 31
0.0
  0
LINE
  5
48
  8
1
 62
     3
 10
-77.5
 20
27.667201027603308
 30
0.0
 11
-92.099999999999994
 21
-27.66720102760328
 31
0.0
  0
LINE
  5
49
  8
1
 62
     7
 10
-92.099999999999994
 20
27.667201027603308
 30
0.0
 11
-92.099999999999994
 21
-27.66720102760328
 31
0.0
  0
LINE
  5
4A
  8
1
 62
     7
 10
-92.599999999999994
 20
27.667201027603308
 30
0.0
 11
-92.599999999999994
 21
-27.66720102760328
 31
0.0
  0
LINE
  5
4B
  8
1
 62
     7
 10
-77.5
 20
27.667201027603308
 30
0.0
 11
-77.5
 21
-27.66720102760328
 31
0.0
  0
LINE
  5
4C
  8
1
 62
     7
 10
-72.5
 20
26.23600666635371
 30
0.0
 11
-72.5
 21
-26.236006666353688
 31
0.0
  0
LINE
  5
4D
  8
1
 62
     7
 10
-70.0
 20
26.23600666635371
 30
0.0
 11
-70.0
 21
-26.236006666353688
 31
0.0
  0
LINE
  5
4E
  8
1
 62
     7
 10
-92.599999999999994
 20
-38.05950587301659
 30
0.0
 11
-92.599999999999994
 21
-66.0
 31
0.0
  0
LINE
  5
4F
  8
1
 62
     7
 10
-70.0
 20
-38.05950587301659
 30
0.0
 11
-70.0
 21
-63.150000000000013
 31
0.0
  0
LINE
  5
50
  8
1
 62
     7
 10
-72.5
 20
-63.150000000000013
 30
0.0
 11
-72.5
 21
-38.05950587301659
 31
0.0
  0
LINE
  5
51
  8
1
 62
     7
 10
-74.0
 20
-60.75
 30
0.0
 11
-74.0
 21
-38.05950587301659
 31
0.0
  0
LINE
  5
52
  8
1
 62
     7
 10
-70.0
 20
-26.236006666353688
 30
0.0
 11
-72.5
 21
-26.236006666353688
 31
0.0
  0
LINE
  5
53
  8
1
 62
     7
 10
-69.099999999999994
 20
-27.66720102760328
 30
0.0
 11
-69.099999999999994
 21
-38.05950587301659
 31
0.0
  0
LINE
  5
54
  8
1
 62
     7
 10
-68.099999999999994
 20
-25.4071562219481
 30
0.0
 11
-70.0
 21
-25.4071562219481
 31
0.0
  0
LINE
  5
55
  8
1
 62
     7
 10
-72.5
 20
-25.4071562219481
 30
0.0
 11
-77.5
 21
-25.4071562219481
 31
0.0
  0
LINE
  5
56
  8
1
 62
     7
 10
-92.099999999999994
 20
-25.4071562219481
 30
0.0
 11
-92.599999999999994
 21
-25.4071562219481
 31
0.0
  0
LINE
  5
57
  8
1
 62
     7
 10
-92.599999999999994
 20
-27.66720102760328
 30
0.0
 11
-69.099999999999994
 21
-27.66720102760328
 31
0.0
  0
LINE
  5
58
  8
1
 62
     7
 10
-68.099999999999994
 20
-27.1650898278622
 30
0.0
 11
-69.099999999999994
 21
-27.66720102760328
 31
0.0
  0
LINE
  5
59
  8
1
 62
     7
 10
-68.099999999999994
 20
-25.4071562219481
 30
0.0
 11
-68.099999999999994
 21
-37.557394673275383
 31
0.0
  0
LINE
  5
5A
  8
1
 62
     7
 10
-68.099999999999994
 20
-37.557394673275383
 30
0.0
 11
-69.099999999999994
 21
-38.05950587301659
 31
0.0
  0
LINE
  5
5B
  8
1
 62
     7
 10
-69.099999999999994
 20
-38.05950587301659
 30
0.0
 11
-92.599999999999994
 21
-38.05950587301659
 31
0.0
  0
LINE
  5
5C
  8
1
 62
     7
 10
-92.099999999999994
 20
-60.0
 30
0.0
 11
-92.599999999999994
 21
-60.0
 31
0.0
  0
LINE
  5
5D
  8
1
 62
     7
 10
-72.5
 20
-61.5
 30
0.0
 11
-77.5
 21
-61.5
 31
0.0
  0
LINE
  5
5E
  8
1
 62
     7
 10
-92.099999999999994
 20
-66.0
 30
0.0
 11
-92.099999999999994
 21
-38.05950587301659
 31
0.0
  0
LINE
  5
5F
  8
1
 62
     7
 10
-103.59999999999999
 20
-66.0
 30
0.0
 11
-69.099999999999994
 21
-66.0
 31
0.0
  0
LINE
  5
60
  8
1
 62
     7
 10
-68.099999999999994
 20
-61.5
 30
0.0
 11
-70.0
 21
-61.5
 31
0.0
  0
LINE
  5
61
  8
1
 62
     7
 10
-70.0
 20
-63.150000000000013
 30
0.0
 11
-72.5
 21
-63.150000000000013
 31
0.0
  0
LINE
  5
62
  8
1
 62
     7
 10
-92.099999999999994
 20
-61.5
 30
0.0
 11
-92.599999999999994
 21
-61.5
 31
0.0
  0
LINE
  5
63
  8
1
 62
     7
 10
-68.099999999999994
 20
-65.0
 30
0.0
 11
-68.099999999999994
 21
-61.5
 31
0.0
  0
LINE
  5
64
  8
1
 62
     7
 10
-103.59999999999999
 20
-66.0
 30
0.0
 11
-104.59999999999999
 21
-65.0
 31
0.0
  0
LINE
  5
65
  8
1
 62
     7
 10
-68.099999999999994
 20
-65.0
 30
0.0
 11
-69.099999999999994
 21
-66.0
 31
0.0
  0
LINE
  5
66
  8
1
 62
     7
 10
-104.59999999999999
 20
-62.0
 30
0.0
 11
-105.59999999999999
 21
-61.0
 31
0.0
  0
LINE
  5
67
  8
1
 62
     7
 10
-72.5
 20
-60.75
 30
0.0
 11
-74.0
 21
-60.75
 31
0.0
  0
LINE
  5
68
  8
1
 62
     7
 10
-76.09999999999998
 20
-60.75
 30
0.0
 11
-77.5
 21
-60.75
 31
0.0
  0
LINE
  5
69
  8
1
 62
     7
 10
-76.09999999999998
 20
-38.05950587301659
 30
0.0
 11
-76.09999999999998
 21
-60.75
 31
0.0
  0
LINE
  5
6A
  8
1
 62
     7
 10
-77.5
 20
-66.0
 30
0.0
 11
-77.5
 21
-38.05950587301659
 31
0.0
  0
LINE
  5
6B
  8
1
 62
     3
 10
-92.099999999999994
 20
-66.0
 30
0.0
 11
-77.5
 21
-38.05950587301659
 31
0.0
  0
LINE
  5
6C
  8
1
 62
     3
 10
-77.5
 20
-66.0
 30
0.0
 11
-92.099999999999994
 21
-38.05950587301659
 31
0.0
  0
LINE
  5
6D
  8
1
 62
     7
 10
-92.599999999999994
 20
66.000000000000014
 30
0.0
 11
-92.599999999999994
 21
38.05950587301659
 31
0.0
  0
LINE
  5
6E
  8
1
 62
     7
 10
-70.0
 20
63.150000000000013
 30
0.0
 11
-70.0
 21
38.05950587301659
 31
0.0
  0
LINE
  5
6F
  8
1
 62
     7
 10
-72.5
 20
38.05950587301659
 30
0.0
 11
-72.5
 21
63.150000000000013
 31
0.0
  0
LINE
  5
70
  8
1
 62
     7
 10
-74.0
 20
38.05950587301659
 30
0.0
 11
-74.0
 21
60.750000000000007
 31
0.0
  0
LINE
  5
71
  8
1
 62
     7
 10
-72.5
 20
26.23600666635371
 30
0.0
 11
-70.0
 21
26.23600666635371
 31
0.0
  0
LINE
  5
72
  8
1
 62
     7
 10
-69.099999999999994
 20
38.05950587301659
 30
0.0
 11
-69.099999999999994
 21
27.667201027603308
 31
0.0
  0
LINE
  5
73
  8
1
 62
     7
 10
-70.0
 20
25.4071562219481
 30
0.0
 11
-68.099999999999994
 21
25.4071562219481
 31
0.0
  0
LINE
  5
74
  8
1
 62
     7
 10
-77.5
 20
25.4071562219481
 30
0.0
 11
-72.5
 21
25.4071562219481
 31
0.0
  0
LINE
  5
75
  8
1
 62
     7
 10
-92.599999999999994
 20
25.4071562219481
 30
0.0
 11
-92.099999999999994
 21
25.4071562219481
 31
0.0
  0
LINE
  5
76
  8
1
 62
     7
 10
-69.099999999999994
 20
27.667201027603308
 30
0.0
 11
-92.599999999999994
 21
27.667201027603308
 31
0.0
  0
LINE
  5
77
  8
1
 62
     7
 10
-69.099999999999994
 20
27.667201027603308
 30
0.0
 11
-68.099999999999994
 21
27.1650898278622
 31
0.0
  0
LINE
  5
78
  8
1
 62
     7
 10
-68.099999999999994
 20
37.557394673275397
 30
0.0
 11
-68.099999999999994
 21
25.4071562219481
 31
0.0
  0
LINE
  5
79
  8
1
 62
     7
 10
-69.099999999999994
 20
38.05950587301659
 30
0.0
 11
-68.099999999999994
 21
37.557394673275397
 31
0.0
  0
LINE
  5
7A
  8
1
 62
     7
 10
-92.599999999999994
 20
38.05950587301659
 30
0.0
 11
-69.099999999999994
 21
38.05950587301659
 31
0.0
  0
LINE
  5
7B
  8
1
 62
     7
 10
-92.599999999999994
 20
60.0
 30
0.0
 11
-92.099999999999994
 21
60.0
 31
0.0
  0
LINE
  5
7C
  8
1
 62
     7
 10
-77.5
 20
61.500000000000007
 30
0.0
 11
-72.5
 21
61.500000000000007
 31
0.0
  0
LINE
  5
7D
  8
1
 62
     3
 10
-120.09999999999999
 20
0.0
 30
0.0
 11
-124.09999999999989
 21
0.0
 31
0.0
  0
LINE
  5
7E
  8
1
 62
     7
 10
-92.099999999999994
 20
38.05950587301659
 30
0.0
 11
-92.099999999999994
 21
66.000000000000014
 31
0.0
  0
LINE
  5
7F
  8
1
 62
     7
 10
-69.099999999999994
 20
66.000000000000014
 30
0.0
 11
-103.59999999999999
 21
66.000000000000014
 31
0.0
  0
LINE
  5
80
  8
1
 62
     7
 10
-70.0
 20
61.500000000000007
 30
0.0
 11
-68.099999999999994
 21
61.500000000000007
 31
0.0
  0
LINE
  5
81
  8
1
 62
     7
 10
-72.5
 20
63.150000000000013
 30
0.0
 11
-70.0
 21
63.150000000000013
 31
0.0
  0
LINE
  5
82
  8
1
 62
     7
 10
-92.599999999999994
 20
61.500000000000007
 30
0.0
 11
-92.099999999999994
 21
61.500000000000007
 31
0.0
  0
LINE
  5
83
  8
1
 62
     7
 10
-68.099999999999994
 20
61.500000000000007
 30
0.0
 11
-68.099999999999994
 21
65.000000000000014
 31
0.0
  0
LINE
  5
84
  8
1
 62
     7
 10
-104.59999999999999
 20
65.000000000000014
 30
0.0
 11
-103.59999999999999
 21
66.000000000000014
 31
0.0
  0
LINE
  5
85
  8
1
 62
     7
 10
-69.099999999999994
 20
66.000000000000014
 30
0.0
 11
-68.099999999999994
 21
65.000000000000014
 31
0.0
  0
LINE
  5
86
  8
1
 62
     7
 10
-118.09999999999999
 20
61.000000000000007
 30
0.0
 11
-119.09999999999999
 21
60.0
 31
0.0
  0
LINE
  5
87
  8
1
 62
     7
 10
-120.09999999999999
 20
-47.5
 30
0.0
 11
-120.09999999999999
 21
47.5
 31
0.0
  0
LINE
  5
88
  8
1
 62
     7
 10
-120.09999999999999
 20
47.5
 30
0.0
 11
-119.09999999999999
 21
47.5
 31
0.0
  0
LINE
  5
89
  8
1
 62
     7
 10
-108.7849999999999
 20
88.947741400783016
 30
0.0
 11
-108.7849999999999
 21
61.000000000000007
 31
0.0
  0
LINE
  5
8A
  8
1
 62
     7
 10
-111.41500000000001
 20
88.947741400783016
 30
0.0
 11
-111.41500000000001
 21
61.000000000000007
 31
0.0
  0
LINE
  5
8B
  8
1
 62
     7
 10
-111.41500000000001
 20
88.947741400783016
 30
0.0
 11
-108.7849999999999
 21
88.947741400783016
 31
0.0
  0
LINE
  5
8C
  8
1
 62
     7
 10
-109.4353501100334
 20
93.947741400783016
 30
0.0
 11
-109.4353501100334
 21
88.947741400783016
 31
0.0
  0
LINE
  5
8D
  8
1
 62
     7
 10
-109.1944204648688
 20
93.947741400783016
 30
0.0
 11
-109.1944204648688
 21
88.947741400783016
 31
0.0
  0
LINE
  5
8E
  8
1
 62
     7
 10
-109.73187890408239
 20
93.947741400783016
 30
0.0
 11
-109.73187890408239
 21
88.947741400783016
 31
0.0
  0
LINE
  5
8F
  8
1
 62
     7
 10
-110.41760174032061
 20
93.947741400783016
 30
0.0
 11
-110.41760174032061
 21
88.947741400783016
 31
0.0
  0
LINE
  5
90
  8
1
 62
     7
 10
-110.67706443511339
 20
93.947741400783016
 30
0.0
 11
-110.67706443511339
 21
88.947741400783016
 31
0.0
  0
LINE
  5
91
  8
1
 62
     7
 10
-110.99212627879039
 20
93.947741400783016
 30
0.0
 11
-110.99212627879039
 21
88.947741400783016
 31
0.0
  0
LINE
  5
92
  8
1
 62
     7
 10
-105.59999999999999
 20
61.000000000000007
 30
0.0
 11
-104.59999999999999
 21
62.000000000000007
 31
0.0
  0
LINE
  5
93
  8
1
 62
     7
 10
-105.59999999999999
 20
61.000000000000007
 30
0.0
 11
-118.09999999999999
 21
61.000000000000007
 31
0.0
  0
LINE
  5
94
  8
1
 62
     7
 10
-104.59999999999999
 20
65.000000000000014
 30
0.0
 11
-104.59999999999999
 21
-65.0
 31
0.0
  0
LINE
  5
95
  8
1
 62
     7
 10
-119.09999999999999
 20
-60.0
 30
0.0
 11
-118.09999999999999
 21
-61.0
 31
0.0
  0
LINE
  5
96
  8
1
 62
     7
 10
-119.09999999999999
 20
-47.5
 30
0.0
 11
-120.09999999999999
 21
-47.5
 31
0.0
  0
LINE
  5
97
  8
1
 62
     7
 10
-119.09999999999999
 20
-60.0
 30
0.0
 11
-119.09999999999999
 21
60.0
 31
0.0
  0
LINE
  5
98
  8
1
 62
     7
 10
-105.59999999999999
 20
-61.0
 30
0.0
 11
-118.09999999999999
 21
-61.0
 31
0.0
  0
LINE
  5
99
  8
1
 62
     7
 10
-74.0
 20
60.750000000000007
 30
0.0
 11
-72.5
 21
60.750000000000007
 31
0.0
  0
LINE
  5
9A
  8
1
 62
     7
 10
-77.5
 20
60.750000000000007
 30
0.0
 11
-76.09999999999998
 21
60.750000000000007
 31
0.0
  0
LINE
  5
9B
  8
1
 62
     7
 10
-76.09999999999998
 20
60.750000000000007
 30
0.0
 11
-76.09999999999998
 21
38.05950587301659
 31
0.0
  0
LINE
  5
9C
  8
1
 62
     7
 10
-77.5
 20
38.05950587301659
 30
0.0
 11
-77.5
 21
66.000000000000014
 31
0.0
  0
LINE
  5
9D
  8
1
 62
     3
 10
-77.5
 20
38.05950587301659
 30
0.0
 11
-92.099999999999994
 21
66.000000000000014
 31
0.0
  0
LINE
  5
9E
  8
1
 62
     3
 10
-92.099999999999994
 20
38.05950587301659
 30
0.0
 11
-77.5
 21
66.000000000000014
 31
0.0
  0
LINE
  5
9F
  8
1
 62
     3
 10
-66.0
 20
0.0
 30
0.0
 11
-70.0
 21
0.0
 31
0.0
  0
LINE
  5
A0
  8
1
 62
     3
 10
0.0
 20
0.0
 30
0.0
 11
-4.0
 21
0.0
 31
0.0
  0
LINE
  5
A1
  8
1
 62
     7
 10
28.0
 20
-61.5
 30
0.0
 11
28.0
 21
-27.5
 31
0.0
  0
LINE
  5
A2
  8
1
 62
     7
 10
42.600000000000023
 20
-61.5
 30
0.0
 11
42.600000000000023
 21
-27.5
 31
0.0
  0
LINE
  5
A3
  8
1
 62
     7
 10
27.5
 20
-61.5
 30
0.0
 11
27.5
 21
-60.0
 31
0.0
  0
LINE
  5
A4
  8
1
 62
     7
 10
52.000000000000021
 20
-61.5
 30
0.0
 11
50.100000000000009
 21
-61.5
 31
0.0
  0
LINE
  5
A5
  8
1
 62
     7
 10
47.600000000000009
 20
-61.5
 30
0.0
 11
27.5
 21
-61.5
 31
0.0
  0
LINE
  5
A6
  8
1
 62
     7
 10
52.000000000000021
 20
-65.0
 30
0.0
 11
52.000000000000021
 21
-61.5
 31
0.0
  0
LINE
  5
A7
  8
1
 62
     7
 10
52.000000000000021
 20
-65.0
 30
0.0
 11
51.000000000000028
 21
-66.0
 31
0.0
  0
LINE
  5
A8
  8
1
 62
     7
 10
16.5
 20
-66.0
 30
0.0
 11
51.000000000000028
 21
-66.0
 31
0.0
  0
LINE
  5
A9
  8
1
 62
     7
 10
16.5
 20
-66.0
 30
0.0
 11
15.5
 21
-65.0
 31
0.0
  0
LINE
  5
AA
  8
1
 62
     7
 10
52.000000000000021
 20
-65.0
 30
0.0
 11
51.000000000000028
 21
-66.0
 31
0.0
  0
LINE
  5
AB
  8
1
  6
DASHED
 62
     7
 10
42.600000000000023
 20
61.500000000000007
 30
0.0
 11
42.600000000000023
 21
66.000000000000014
 31
0.0
  0
LINE
  5
AC
  8
1
 62
     7
 10
28.0
 20
61.500000000000007
 30
0.0
 11
28.0
 21
27.5
 31
0.0
  0
LINE
  5
AD
  8
1
 62
     7
 10
27.5
 20
60.0
 30
0.0
 11
27.5
 21
61.500000000000007
 31
0.0
  0
LINE
  5
AE
  8
1
 62
     7
 10
51.000000000000028
 20
66.000000000000014
 30
0.0
 11
16.5
 21
66.000000000000014
 31
0.0
  0
LINE
  5
AF
  8
1
 62
     7
 10
50.100000000000009
 20
61.500000000000007
 30
0.0
 11
52.000000000000021
 21
61.500000000000007
 31
0.0
  0
LINE
  5
B0
  8
1
 62
     7
 10
47.600000000000009
 20
63.150000000000013
 30
0.0
 11
50.100000000000009
 21
63.150000000000013
 31
0.0
  0
LINE
  5
B1
  8
1
 62
     7
 10
27.5
 20
61.500000000000007
 30
0.0
 11
47.600000000000009
 21
61.500000000000007
 31
0.0
  0
LINE
  5
B2
  8
1
 62
     7
 10
52.000000000000021
 20
61.500000000000007
 30
0.0
 11
52.000000000000021
 21
65.000000000000014
 31
0.0
  0
LINE
  5
B3
  8
1
 62
     7
 10
15.5
 20
65.000000000000014
 30
0.0
 11
16.5
 21
66.000000000000014
 31
0.0
  0
LINE
  5
B4
  8
1
 62
     7
 10
51.000000000000028
 20
66.000000000000014
 30
0.0
 11
52.000000000000021
 21
65.000000000000014
 31
0.0
  0
LINE
  5
B5
  8
1
  6
DASHDOT
 62
     3
 10
21.699330619699978
 20
35.0
 30
0.0
 11
-2.144347307451794
 21
35.0
 31
0.0
  0
LINE
  5
B6
  8
1
 62
     3
 10
13.385640646055091
 20
38.200000000000017
 30
0.0
 11
12.0
 21
39.0
 31
0.0
  0
LINE
  5
B7
  8
1
 62
     3
 10
13.385640646055091
 20
31.800000000000011
 30
0.0
 11
12.0
 21
31.0
 31
0.0
  0
LINE
  5
B8
  8
1
 62
     3
 10
0.0
 20
39.0
 30
0.0
 11
12.0
 21
39.0
 31
0.0
  0
LINE
  5
B9
  8
1
 62
     7
 10
12.0
 20
39.0
 30
0.0
 11
12.0
 21
31.0
 31
0.0
  0
LINE
  5
BA
  8
1
 62
     3
 10
12.0
 20
31.0
 30
0.0
 11
0.0
 21
31.0
 31
0.0
  0
LINE
  5
BB
  8
1
 62
     7
 10
18.399999999999981
 20
38.200000000000017
 30
0.0
 11
20.7094010767585
 21
35.0
 31
0.0
  0
LINE
  5
BC
  8
1
 62
     7
 10
20.7094010767585
 20
35.0
 30
0.0
 11
18.399999999999981
 21
31.800000000000011
 31
0.0
  0
LINE
  5
BD
  8
1
 62
     7
 10
0.0
 20
38.200000000000017
 30
0.0
 11
18.399999999999981
 21
38.200000000000017
 31
0.0
  0
LINE
  5
BE
  8
1
 62
     7
 10
18.399999999999981
 20
38.200000000000017
 30
0.0
 11
18.399999999999981
 21
31.800000000000011
 31
0.0
  0
LINE
  5
BF
  8
1
 62
     7
 10
18.399999999999981
 20
31.800000000000011
 30
0.0
 11
0.0
 21
31.800000000000011
 31
0.0
  0
LINE
  5
C0
  8
1
 62
     7
 10
15.5
 20
60.0
 30
0.0
 11
28.0
 21
60.0
 31
0.0
  0
LINE
  5
C1
  8
1
 62
     7
 10
2.0
 20
61.000000000000007
 30
0.0
 11
1.0
 21
60.0
 31
0.0
  0
LINE
  5
C2
  8
1
 62
     7
 10
17.0
 20
26.0
 30
0.0
 11
17.0
 21
28.0
 31
0.0
  0
LINE
  5
C3
  8
1
 62
     7
 10
24.0
 20
35.0
 30
0.0
 11
28.0
 21
35.0
 31
0.0
  0
LINE
  5
C4
  8
1
 62
     7
 10
17.0
 20
28.0
 30
0.0
 11
24.0
 21
35.0
 31
0.0
  0
LINE
  5
C5
  8
1
 62
     7
 10
0.0
 20
-47.5
 30
0.0
 11
0.0
 21
47.5
 31
0.0
  0
LINE
  5
C6
  8
1
 62
     7
 10
0.0
 20
47.5
 30
0.0
 11
1.0
 21
47.5
 31
0.0
  0
LINE
  5
C7
  8
1
 62
     7
 10
1.0
 20
47.5
 30
0.0
 11
1.0
 21
60.0
 31
0.0
  0
LINE
  5
C8
  8
1
 62
     7
 10
11.314999999999991
 20
88.947741400783016
 30
0.0
 11
11.314999999999991
 21
61.000000000000007
 31
0.0
  0
LINE
  5
C9
  8
1
 62
     7
 10
8.6850000000000023
 20
88.947741400783016
 30
0.0
 11
8.6850000000000023
 21
61.000000000000007
 31
0.0
  0
LINE
  5
CA
  8
1
 62
     7
 10
8.6850000000000023
 20
88.947741400783016
 30
0.0
 11
11.314999999999991
 21
88.947741400783016
 31
0.0
  0
LINE
  5
CB
  8
1
 62
     7
 10
10.664649889966469
 20
93.947741400783016
 30
0.0
 11
10.664649889966469
 21
88.947741400783016
 31
0.0
  0
LINE
  5
CC
  8
1
 62
     7
 10
10.90557953513118
 20
93.947741400783016
 30
0.0
 11
10.90557953513118
 21
88.947741400783016
 31
0.0
  0
LINE
  5
CD
  8
1
 62
     7
 10
10.36812109591758
 20
93.947741400783016
 30
0.0
 11
10.36812109591758
 21
88.947741400783016
 31
0.0
  0
LINE
  5
CE
  8
1
 62
     7
 10
9.6823982596793865
 20
93.947741400783016
 30
0.0
 11
9.6823982596793865
 21
88.947741400783016
 31
0.0
  0
LINE
  5
CF
  8
1
 62
     7
 10
9.4229355648865862
 20
93.947741400783016
 30
0.0
 11
9.4229355648865862
 21
88.947741400783016
 31
0.0
  0
LINE
  5
D0
  8
1
 62
     7
 10
9.1078737212095842
 20
93.947741400783016
 30
0.0
 11
9.1078737212095842
 21
88.947741400783016
 31
0.0
  0
LINE
  5
D1
  8
1
 62
     7
 10
-256.10000000000002
 20
88.947741400783016
 30
0.0
 11
-256.10000000000002
 21
61.000000000000007
 31
0.0
  0
LINE
  5
D2
  8
1
 62
     7
 10
-257.27026757421697
 20
88.947741400783016
 30
0.0
 11
-257.27026757421697
 21
93.316656628743985
 31
0.0
  0
LINE
  5
D3
  8
1
 62
     7
 10
-257.075037823608
 20
88.947741400783016
 30
0.0
 11
-257.075037823608
 21
93.316656628743985
 31
0.0
  0
LINE
  5
D4
  8
1
 62
     7
 10
-256.831000635348
 20
88.947741400783016
 30
0.0
 11
-256.831000635348
 21
93.316656628743985
 31
0.0
  0
LINE
  5
D5
  8
1
 62
     7
 10
-257.5631122001289
 20
88.947741400783016
 30
0.0
 11
-257.5631122001289
 21
93.316656628743985
 31
0.0
  0
LINE
  5
D6
  8
1
 62
     7
 10
-257.83968768015802
 20
88.947741400783016
 30
0.0
 11
-257.83968768015802
 21
93.316656628743985
 31
0.0
  0
LINE
  5
D7
  8
1
 62
     7
 10
-255.30170092224989
 20
88.947741400783016
 30
0.0
 11
-255.30170092224989
 21
93.316656628743985
 31
0.0
  0
LINE
  5
D8
  8
1
 62
     7
 10
-254.94377971280099
 20
88.947741400783016
 30
0.0
 11
-254.94377971280099
 21
93.316656628743985
 31
0.0
  0
LINE
  5
D9
  8
1
 62
     7
 10
-254.69974252454111
 20
88.947741400783016
 30
0.0
 11
-254.69974252454111
 21
93.316656628743985
 31
0.0
  0
LINE
  5
DA
  8
1
 62
     7
 10
-254.43943619039601
 20
88.947741400783016
 30
0.0
 11
-254.43943619039601
 21
93.316656628743985
 31
0.0
  0
LINE
  5
DB
  8
1
 62
     7
 10
-254.24420643978809
 20
88.947741400783016
 30
0.0
 11
-254.24420643978809
 21
93.316656628743985
 31
0.0
  0
LINE
  5
DC
  8
1
 62
     7
 10
-258.72000000000003
 20
88.947741400783016
 30
0.0
 11
-253.47999999999999
 21
88.947741400783016
 31
0.0
  0
LINE
  5
DD
  8
1
 62
     7
 10
-258.72000000000003
 20
60.949133426605208
 30
0.0
 11
-258.72000000000003
 21
88.947741400783016
 31
0.0
  0
LINE
  5
DE
  8
1
 62
     7
 10
-253.47999999999999
 20
60.949133426605208
 30
0.0
 11
-253.47999999999999
 21
88.947741400783016
 31
0.0
  0
LINE
  5
DF
  8
1
 62
     7
 10
14.5
 20
61.000000000000007
 30
0.0
 11
15.5
 21
62.000000000000007
 31
0.0
  0
LINE
  5
E0
  8
1
 62
     7
 10
15.5
 20
61.000000000000007
 30
0.0
 11
2.0
 21
61.000000000000007
 31
0.0
  0
LINE
  5
E1
  8
1
 62
     7
 10
15.5
 20
60.0
 30
0.0
 11
28.0
 21
60.0
 31
0.0
  0
LINE
  5
E2
  8
1
 62
     7
 10
15.5
 20
65.000000000000014
 30
0.0
 11
15.5
 21
60.0
 31
0.0
  0
LINE
  5
E3
  8
1
 62
     7
 10
50.100000000000009
 20
-63.150000000000013
 30
0.0
 11
47.600000000000009
 21
-63.150000000000013
 31
0.0
  0
LINE
  5
E4
  8
1
 62
     7
 10
28.0
 20
-60.0
 30
0.0
 11
15.5
 21
-60.0
 31
0.0
  0
LINE
  5
E5
  8
1
 62
     7
 10
1.0
 20
-60.0
 30
0.0
 11
2.0
 21
-61.0
 31
0.0
  0
LINE
  5
E6
  8
1
 62
     7
 10
28.0
 20
-35.0
 30
0.0
 11
24.0
 21
-35.0
 31
0.0
  0
LINE
  5
E7
  8
1
 62
     7
 10
24.0
 20
-35.0
 30
0.0
 11
17.0
 21
-28.0
 31
0.0
  0
LINE
  5
E8
  8
1
 62
     7
 10
1.0
 20
-47.5
 30
0.0
 11
0.0
 21
-47.5
 31
0.0
  0
LINE
  5
E9
  8
1
 62
     7
 10
1.0
 20
-60.0
 30
0.0
 11
1.0
 21
-47.5
 31
0.0
  0
LINE
  5
EA
  8
1
  6
DASHED
 62
     7
 10
28.0
 20
-66.0
 30
0.0
 11
28.0
 21
-61.5
 31
0.0
  0
LINE
  5
EB
  8
1
 62
     7
 10
15.5
 20
-62.0
 30
0.0
 11
14.5
 21
-61.0
 31
0.0
  0
LINE
  5
EC
  8
1
 62
     7
 10
15.5
 20
-61.0
 30
0.0
 11
2.0
 21
-61.0
 31
0.0
  0
LINE
  5
ED
  8
1
 62
     7
 10
28.0
 20
-60.0
 30
0.0
 11
15.5
 21
-60.0
 31
0.0
  0
LINE
  5
EE
  8
1
 62
     7
 10
15.5
 20
-60.0
 30
0.0
 11
15.5
 21
-65.0
 31
0.0
  0
LINE
  5
EF
  8
1
 62
     7
 10
50.100000000000009
 20
63.150000000000013
 30
0.0
 11
50.100000000000009
 21
-63.150000000000013
 31
0.0
  0
LINE
  5
F0
  8
1
 62
     7
 10
50.100000000000009
 20
38.059505873016711
 30
0.0
 11
51.000000000000028
 21
38.059505873016711
 31
0.0
  0
LINE
  5
F1
  8
1
 62
     7
 10
50.100000000000009
 20
35.79946106736142
 30
0.0
 11
52.000000000000021
 21
35.79946106736142
 31
0.0
  0
LINE
  5
F2
  8
1
 62
     7
 10
50.100000000000009
 20
25.40715622194821
 30
0.0
 11
52.000000000000021
 21
25.40715622194821
 31
0.0
  0
LINE
  5
F3
  8
1
 62
     7
 10
52.000000000000021
 20
37.557394673275397
 30
0.0
 11
51.000000000000028
 21
38.059505873016711
 31
0.0
  0
LINE
  5
F4
  8
1
 62
     7
 10
52.000000000000021
 20
25.40715622194821
 30
0.0
 11
52.000000000000021
 21
37.557394673275397
 31
0.0
  0
LINE
  5
F5
  8
1
 62
     7
 10
51.000000000000028
 20
-38.05950587301659
 30
0.0
 11
50.100000000000009
 21
-38.05950587301659
 31
0.0
  0
LINE
  5
F6
  8
1
 62
     7
 10
52.000000000000021
 20
-35.799461067361392
 30
0.0
 11
50.100000000000009
 21
-35.799461067361392
 31
0.0
  0
LINE
  5
F7
  8
1
 62
     7
 10
52.000000000000021
 20
-25.407156221948181
 30
0.0
 11
50.100000000000009
 21
-25.407156221948181
 31
0.0
  0
LINE
  5
F8
  8
1
 62
     7
 10
51.000000000000028
 20
-38.05950587301659
 30
0.0
 11
52.000000000000021
 21
-37.557394673275383
 31
0.0
  0
LINE
  5
F9
  8
1
 62
     7
 10
52.000000000000021
 20
-37.557394673275383
 30
0.0
 11
52.000000000000021
 21
-25.407156221948181
 31
0.0
  0
LINE
  5
FA
  8
1
 62
     7
 10
24.0
 20
32.0
 30
0.0
 11
47.000000000000021
 21
32.0
 31
0.0
  0
LINE
  5
FB
  8
1
 62
     7
 10
23.0
 20
26.0
 30
0.0
 11
14.0
 21
26.0
 31
0.0
  0
LINE
  5
FC
  8
1
 62
     7
 10
13.0
 20
-25.0
 30
0.0
 11
13.0
 21
25.0
 31
0.0
  0
LINE
  5
FD
  8
1
 62
     7
 10
23.0
 20
26.0
 30
0.0
 11
23.0
 21
31.0
 31
0.0
  0
LINE
  5
FE
  8
1
 62
     7
 10
23.0
 20
-31.0
 30
0.0
 11
23.0
 21
-26.0
 31
0.0
  0
LINE
  5
FF
  8
1
 62
     7
 10
48.000000000000028
 20
-31.0
 30
0.0
 11
48.000000000000028
 21
31.0
 31
0.0
  0
LINE
  5
100
  8
1
 62
     7
 10
24.0
 20
-32.0
 30
0.0
 11
47.000000000000021
 21
-32.0
 31
0.0
  0
LINE
  5
101
  8
1
 62
     7
 10
14.0
 20
-26.0
 30
0.0
 11
23.0
 21
-26.0
 31
0.0
  0
LINE
  5
102
  8
1
 62
     7
 10
0.0
 20
28.0
 30
0.0
 11
17.0
 21
28.0
 31
0.0
  0
LINE
  5
103
  8
1
 62
     7
 10
0.0
 20
-28.0
 30
0.0
 11
17.0
 21
-28.0
 31
0.0
  0
LINE
  5
104
  8
1
  6
DASHED
 62
     7
 10
28.0
 20
66.000000000000014
 30
0.0
 11
28.0
 21
61.500000000000007
 31
0.0
  0
LINE
  5
105
  8
1
 62
     7
 10
17.0
 20
-28.0
 30
0.0
 11
17.0
 21
-26.0
 31
0.0
  0
LINE
  5
106
  8
1
 62
     7
 10
13.0
 20
20.0
 30
0.0
 11
32.0
 21
20.0
 31
0.0
  0
LINE
  5
107
  8
1
 62
     7
 10
32.0
 20
20.5
 30
0.0
 11
38.0
 21
20.5
 31
0.0
  0
LINE
  5
108
  8
1
 62
     7
 10
32.0
 20
-20.5
 30
0.0
 11
32.0
 21
20.5
 31
0.0
  0
LINE
  5
109
  8
1
 62
     7
 10
13.0
 20
-20.0
 30
0.0
 11
32.0
 21
-20.0
 31
0.0
  0
LINE
  5
10A
  8
1
 62
     7
 10
38.0
 20
-20.5
 30
0.0
 11
32.0
 21
-20.5
 31
0.0
  0
LINE
  5
10B
  8
1
 62
     7
 10
38.0
 20
20.5
 30
0.0
 11
38.0
 21
-20.5
 31
0.0
  0
LINE
  5
10C
  8
1
 62
     7
 10
14.0
 20
26.0
 30
0.0
 11
13.0
 21
25.0
 31
0.0
  0
LINE
  5
10D
  8
1
 62
     7
 10
24.0
 20
32.0
 30
0.0
 11
23.0
 21
31.0
 31
0.0
  0
LINE
  5
10E
  8
1
 62
     7
 10
47.000000000000021
 20
32.0
 30
0.0
 11
48.000000000000028
 21
31.0
 31
0.0
  0
LINE
  5
10F
  8
1
 62
     7
 10
48.000000000000028
 20
-31.0
 30
0.0
 11
47.000000000000021
 21
-32.0
 31
0.0
  0
LINE
  5
110
  8
1
 62
     7
 10
23.0
 20
-31.0
 30
0.0
 11
24.0
 21
-32.0
 31
0.0
  0
LINE
  5
111
  8
1
 62
     7
 10
13.0
 20
-25.0
 30
0.0
 11
14.0
 21
-26.0
 31
0.0
  0
LINE
  5
112
  8
1
 62
     7
 10
38.0
 20
20.0
 30
0.0
 11
48.000000000000028
 21
20.0
 31
0.0
  0
LINE
  5
113
  8
1
 62
     7
 10
38.0
 20
-20.0
 30
0.0
 11
48.000000000000028
 21
-20.0
 31
0.0
  0
LINE
  5
114
  8
1
 62
     7
 10
23.0
 20
27.5
 30
0.0
 11
48.000000000000028
 21
27.5
 31
0.0
  0
LINE
  5
115
  8
1
 62
     7
 10
23.0
 20
-27.5
 30
0.0
 11
48.000000000000028
 21
-27.5
 31
0.0
  0
LINE
  5
116
  8
1
 62
     7
 10
50.100000000000009
 20
59.750000000000007
 30
0.0
 11
47.600000000000009
 21
59.750000000000007
 31
0.0
  0
LINE
  5
117
  8
1
 62
     7
 10
47.600000000000009
 20
-59.75
 30
0.0
 11
50.100000000000009
 21
-59.75
 31
0.0
  0
LINE
  5
118
  8
1
 62
     7
 10
46.100000000000023
 20
60.750000000000007
 30
0.0
 11
47.600000000000009
 21
60.750000000000007
 31
0.0
  0
LINE
  5
119
  8
1
 62
     7
 10
42.600000000000023
 20
60.750000000000007
 30
0.0
 11
44.000000000000028
 21
60.750000000000007
 31
0.0
  0
LINE
  5
11A
  8
1
 62
     7
 10
44.000000000000028
 20
59.500000000000007
 30
0.0
 11
46.100000000000023
 21
59.500000000000007
 31
0.0
  0
LINE
  5
11B
  8
1
 62
     7
 10
47.600000000000009
 20
56.000000000000007
 30
0.0
 11
50.100000000000009
 21
56.000000000000007
 31
0.0
  0
LINE
  5
11C
  8
1
 62
     7
 10
47.600000000000009
 20
56.000000000000007
 30
0.0
 11
47.600000000000009
 21
63.150000000000013
 31
0.0
  0
LINE
  5
11D
  8
1
 62
     7
 10
46.100000000000023
 20
59.500000000000007
 30
0.0
 11
46.100000000000023
 21
60.750000000000007
 31
0.0
  0
LINE
  5
11E
  8
1
 62
     7
 10
44.000000000000028
 20
59.500000000000007
 30
0.0
 11
44.000000000000028
 21
60.750000000000007
 31
0.0
  0
LINE
  5
11F
  8
1
 62
     7
 10
42.600000000000023
 20
34.5
 30
0.0
 11
49.100000000000009
 21
34.5
 31
0.0
  0
LINE
  5
120
  8
1
 62
     7
 10
49.100000000000009
 20
34.5
 30
0.0
 11
50.100000000000009
 21
35.5
 31
0.0
  0
LINE
  5
121
  8
1
 62
     7
 10
42.600000000000023
 20
27.5
 30
0.0
 11
42.600000000000023
 21
61.500000000000007
 31
0.0
  0
LINE
  5
122
  8
1
  6
DASHED
 62
     7
 10
42.600000000000023
 20
-66.0
 30
0.0
 11
42.600000000000023
 21
-61.5
 31
0.0
  0
LINE
  5
123
  8
1
 62
     7
 10
50.100000000000009
 20
-56.0
 30
0.0
 11
47.600000000000009
 21
-56.0
 31
0.0
  0
LINE
  5
124
  8
1
 62
     7
 10
47.600000000000009
 20
-63.150000000000013
 30
0.0
 11
47.600000000000009
 21
-56.0
 31
0.0
  0
LINE
  5
125
  8
1
 62
     7
 10
47.600000000000009
 20
-60.75
 30
0.0
 11
46.100000000000023
 21
-60.75
 31
0.0
  0
LINE
  5
126
  8
1
 62
     7
 10
44.000000000000028
 20
-60.75
 30
0.0
 11
42.600000000000023
 21
-60.75
 31
0.0
  0
LINE
  5
127
  8
1
 62
     7
 10
46.100000000000023
 20
-59.5
 30
0.0
 11
44.000000000000028
 21
-59.5
 31
0.0
  0
LINE
  5
128
  8
1
 62
     7
 10
46.100000000000023
 20
-60.75
 30
0.0
 11
46.100000000000023
 21
-59.5
 31
0.0
  0
LINE
  5
129
  8
1
 62
     7
 10
44.000000000000028
 20
-60.75
 30
0.0
 11
44.000000000000028
 21
-59.5
 31
0.0
  0
LINE
  5
12A
  8
1
 62
     7
 10
50.100000000000009
 20
-35.5
 30
0.0
 11
49.100000000000009
 21
-34.5
 31
0.0
  0
LINE
  5
12B
  8
1
 62
     7
 10
49.100000000000009
 20
-34.5
 30
0.0
 11
42.600000000000023
 21
-34.5
 31
0.0
  0
LINE
  5
12C
  8
1
 62
     3
 10
42.600000000000023
 20
27.5
 30
0.0
 11
28.0
 21
66.000000000000014
 31
0.0
  0
LINE
  5
12D
  8
1
 62
     3
 10
28.0
 20
27.5
 30
0.0
 11
42.600000000000023
 21
66.000000000000014
 31
0.0
  0
LINE
  5
12E
  8
1
 62
     7
 10
28.0
 20
53.0
 30
0.0
 11
42.600000000000023
 21
53.0
 31
0.0
  0
LINE
  5
12F
  8
1
 62
     7
 10
28.0
 20
45.0
 30
0.0
 11
42.600000000000023
 21
45.0
 31
0.0
  0
LINE
  5
130
  8
1
 62
     3
 10
42.600000000000023
 20
-66.0
 30
0.0
 11
28.0
 21
-27.5
 31
0.0
  0
LINE
  5
131
  8
1
 62
     3
 10
28.0
 20
-66.0
 30
0.0
 11
42.600000000000023
 21
-27.5
 31
0.0
  0
LINE
  5
132
  8
1
 62
     7
 10
42.600000000000023
 20
-45.0
 30
0.0
 11
28.0
 21
-45.0
 31
0.0
  0
LINE
  5
133
  8
1
 62
     7
 10
42.600000000000023
 20
-53.0
 30
0.0
 11
28.0
 21
-53.0
 31
0.0
  0
LINE
  5
134
  8
1
  6
DASHDOT
 62
     3
 10
35.0
 20
-28.665342887156982
 30
0.0
 11
35.0
 21
-19.553970539133982
 31
0.0
  0
LINE
  5
135
  8
1
 62
     7
 10
33.5
 20
-27.5
 30
0.0
 11
33.5
 21
-20.5
 31
0.0
  0
LINE
  5
136
  8
1
 62
     7
 10
36.5
 20
-27.5
 30
0.0
 11
36.5
 21
-20.5
 31
0.0
  0
LINE
  5
137
  8
1
 62
     7
 10
-262.10000000000002
 20
22.5
 30
0.0
 11
-250.09999999999991
 21
22.5
 31
0.0
  0
LINE
  5
138
  8
1
 62
     7
 10
-250.09999999999991
 20
22.5
 30
0.0
 11
-250.09999999999991
 21
19.078784028338891
 31
0.0
  0
LINE
  5
139
  8
1
 62
     7
 10
-262.10000000000002
 20
22.5
 30
0.0
 11
-262.10000000000002
 21
19.078784028338891
 31
0.0
  0
LINE
  5
13A
  8
1
 62
     7
 10
13.0
 20
22.5
 30
0.0
 11
48.000000000000028
 21
22.5
 31
0.0
  0
LINE
  5
13B
  8
1
  6
DASHDOT
 62
     3
 10
-235.9781589436565
 20
20.121841056343499
 30
0.0
 11
-242.40184570135801
 21
13.69815429864201
 31
0.0
  0
LINE
  5
13C
  8
1
  6
DASHED
 62
     7
 10
-240.93703505204959
 20
13.0416446043906
 30
0.0
 11
-235.4458141118005
 21
18.532865544639922
 31
0.0
  0
LINE
  5
13D
  8
1
  6
DASHED
 62
     7
 10
-237.5671344553601
 20
20.654185888199521
 30
0.0
 11
-243.05835539560931
 21
15.162964947950311
 31
0.0
  0
LINE
  5
13E
  8
1
  6
DASHED
 62
     7
 10
-276.75418588819952
 20
18.532865544639922
 30
0.0
 11
-271.26296494795031
 21
13.0416446043906
 31
0.0
  0
LINE
  5
13F
  8
1
  6
DASHED
 62
     7
 10
-274.63286554463991
 20
-20.654185888199478
 30
0.0
 11
-269.14164460439059
 21
-15.162964947950289
 31
0.0
  0
LINE
  5
140
  8
1
  6
DASHED
 62
     7
 10
-235.4458141118005
 20
-18.532865544639801
 30
0.0
 11
-240.93703505204959
 21
-13.0416446043906
 31
0.0
  0
LINE
  5
141
  8
1
  6
DASHDOT
 62
     3
 10
-276.22184105634352
 20
20.121841056343499
 30
0.0
 11
-269.79815429864198
 21
13.69815429864201
 31
0.0
  0
LINE
  5
142
  8
1
  6
DASHDOT
 62
     3
 10
-276.22184105634352
 20
-20.121841056343371
 30
0.0
 11
-269.79815429864198
 21
-13.698154298641979
 31
0.0
  0
LINE
  5
143
  8
1
  6
DASHDOT
 62
     3
 10
-235.9781589436565
 20
-20.121841056343371
 30
0.0
 11
-242.40184570135801
 21
-13.698154298641979
 31
0.0
  0
LINE
  5
144
  8
1
  6
DASHED
 62
     7
 10
-269.14164460439059
 20
15.162964947950311
 30
0.0
 11
-274.63286554463991
 21
20.654185888199521
 31
0.0
  0
LINE
  5
145
  8
1
  6
DASHED
 62
     7
 10
-271.26296494795031
 20
-13.0416446043906
 30
0.0
 11
-276.75418588819952
 21
-18.53286554463989
 31
0.0
  0
LINE
  5
146
  8
1
  6
DASHED
 62
     7
 10
-243.05835539560931
 20
-15.162964947950289
 30
0.0
 11
-237.5671344553601
 21
-20.654185888199478
 31
0.0
  0
LINE
  5
147
  8
1
 62
     3
 10
54.100000000000009
 20
0.0
 30
0.0
 11
50.100000000000009
 21
0.0
 31
0.0
  0
ARC
  5
148
  8
1
  6
DASHDOT
 62
     3
 10
-256.10000000000002
 20
0.0
 30
0.0
 40
34.999999999999943
 50
351.84194370292039
 51
7.8288714919570914
  0
ARC
  5
149
  8
1
  6
DASHDOT
 62
     3
 10
-256.10000000000002
 20
0.0
 30
0.0
 40
34.99999999999995
 50
261.8419437029201
 51
277.82887149195699
  0
ARC
  5
14A
  8
1
  6
DASHDOT
 62
     3
 10
-256.10000000000002
 20
0.0
 30
0.0
 40
34.999999999999893
 50
171.84194370292019
 51
187.8288714919571
  0
ARC
  5
14B
  8
1
  6
DASHDOT
 62
     3
 10
-256.10000000000002
 20
0.0
 30
0.0
 40
34.999999999999943
 50
81.841943702920247
 51
97.828871491957074
  0
ARC
  5
14C
  8
1
 62
     7
 10
-75.050000000000026
 20
-60.5
 30
0.0
 40
1.0
 50
180.0
 51
0.0
  0
ARC
  5
14D
  8
1
 62
     7
 10
-75.050000000000026
 20
60.5
 30
0.0
 40
1.0
 50
0.0
 51
180.0
  0
ARC
  5
14E
  8
1
 62
     7
 10
-256.10000000000002
 20
0.0
 30
0.0
 40
66.000000000000043
 50
92.275066617163432
 51
87.724933382836554
  0
ARC
  5
14F
  8
1
 62
     7
 10
-256.10000000000002
 20
0.0
 30
0.0
 40
65.000000000000071
 50
92.310086476128788
 51
87.689913523871141
  0
ARC
  5
150
  8
1
 62
     7
 10
-256.10000000000002
 20
0.0
 30
0.0
 40
19.999999999999989
 50
107.45760312372209
 51
72.54239687627782
  0
CIRCLE
  5
151
  8
1
 62
     3
 10
-256.10000000000002
 20
35.0
 30
0.0
 40
4.0000000000000284
  0
CIRCLE
  5
152
  8
1
 62
     7
 10
-256.10000000000002
 20
35.0
 30
0.0
 40
3.1999999999999309
  0
CIRCLE
  5
153
  8
1
 62
     7
 10
45.050000000000011
 20
60.5
 30
0.0
 40
1.0
  0
CIRCLE
  5
154
  8
1
 62
     7
 10
45.050000000000011
 20
-60.5
 30
0.0
 40
1.0
  0
CIRCLE
  5
155
  8
1
 62
     7
 10
-256.10000000000002
 20
0.0
 30
0.0
 40
61.000000000000028
  0
CIRCLE
  5
156
  8
1
 62
     7
 10
-256.10000000000002
 20
0.0
 30
0.0
 40
60.000000000000028
  0
CIRCLE
  5
157
  8
1
 62
     7
 10
-256.10000000000002
 20
0.0
 30
0.0
 40
47.500000000000021
  0
CIRCLE
  5
158
  8
1
 62
     7
 10
-256.10000000000002
 20
0.0
 30
0.0
 40
28.000000000000028
  0
CIRCLE
  5
159
  8
1
 62
     3
 10
-291.10000000000002
 20
0.0
 30
0.0
 40
4.0
  0
CIRCLE
  5
15A
  8
1
 62
     7
 10
-291.10000000000002
 20
0.0
 30
0.0
 40
3.2000000000000459
  0
CIRCLE
  5
15B
  8
1
 62
     3
 10
-256.10000000000002
 20
-35.0
 30
0.0
 40
4.0000000000000284
  0
CIRCLE
  5
15C
  8
1
 62
     7
 10
-256.10000000000002
 20
-35.0
 30
0.0
 40
3.2000000000001312
  0
CIRCLE
  5
15D
  8
1
 62
     3
 10
-221.09999999999991
 20
0.0
 30
0.0
 40
4.0
  0
CIRCLE
  5
15E
  8
1
 62
     7
 10
-221.09999999999991
 20
0.0
 30
0.0
 40
3.1999999999999882
  0
CIRCLE
  5
15F
  8
1
 62
     7
 10
-256.10000000000002
 20
0.0
 30
0.0
 40
26.000000000000028
  0
TEXT
  5
161
  8
1
 62
     7
 10
-270.32214708412391
 20
115.9577282031089
 30
0.0
 40
5.0
  1
MWB 10
 41
0.9
  7
SIMPLEX
  0
INSERT
  5
162
  8
0
  2
_X1
 10
0.0
 20
0.0
 30
0.0
  0
INSERT
  5
163
  8
0
  2
_X0
 10
0.0
 20
0.0
 30
0.0
  0
ENDSEC
  0
EOF
