  0
SECTION
  2
HEADER
  9
$ACADVER
  1
AC1009
  9
$INSBASE
 10
0.0
 20
0.0
 30
0.0
  9
$EXTMIN
 10
-212.1367133260799
 20
-40.0
 30
0.0
  9
$EXTMAX
 10
30.999999999999879
 20
92.912348655271074
 30
0.0
  9
$LIMMIN
 10
-212.1367133260799
 20
-40.0
  9
$LIMMAX
 10
30.999999999999879
 20
92.912348655271074
  9
$ORTHOMODE
 70
     0
  9
$REGENMODE
 70
     1
  9
$FILLMODE
 70
     1
  9
$QTEXTMODE
 70
     0
  9
$MIRRTEXT
 70
     1
  9
$DRAGMODE
 70
     2
  9
$LTSCALE
 40
1.0
  9
$OSMODE
 70
    37
  9
$ATTMODE
 70
     1
  9
$TEXTSIZE
 40
3.5
  9
$TRACEWID
 40
0.5
  9
$TEXTSTYLE
  7
STANDARD
  9
$CLAYER
  8
0
  9
$CELTYPE
  6
BYLAYER
  9
$CECOLOR
 62
   256
  9
$DIMSCALE
 40
1.0
  9
$DIMASZ
 40
0.18
  9
$DIMEXO
 40
0.0625
  9
$DIMDLI
 40
0.38
  9
$DIMRND
 40
0.0
  9
$DIMDLE
 40
0.0
  9
$DIMEXE
 40
0.18
  9
$DIMTP
 40
0.0
  9
$DIMTM
 40
0.0
  9
$DIMTXT
 40
0.18
  9
$DIMCEN
 40
0.09
  9
$DIMTSZ
 40
0.0
  9
$DIMTOL
 70
     0
  9
$DIMLIM
 70
     0
  9
$DIMTIH
 70
     1
  9
$DIMTOH
 70
     1
  9
$DIMSE1
 70
     0
  9
$DIMSE2
 70
     0
  9
$DIMTAD
 70
     0
  9
$DIMZIN
 70
     0
  9
$DIMBLK
  1

  9
$DIMASO
 70
     1
  9
$DIMSHO
 70
     1
  9
$DIMPOST
  1

  9
$DIMAPOST
  1

  9
$DIMALT
 70
     0
  9
$DIMALTD
 70
     2
  9
$DIMALTF
 40
25.399999999999999
  9
$DIMLFAC
 40
1.0
  9
$DIMTOFL
 70
     0
  9
$DIMTVP
 40
0.0
  9
$DIMTIX
 70
     0
  9
$DIMSOXD
 70
     0
  9
$DIMSAH
 70
     0
  9
$DIMBLK1
  1

  9
$DIMBLK2
  1

  9
$DIMSTYLE
  2
STANDARD
  9
$DIMCLRD
 70
     0
  9
$DIMCLRE
 70
     0
  9
$DIMCLRT
 70
     0
  9
$DIMTFAC
 40
1.0
  9
$DIMGAP
 40
0.09
  9
$LUNITS
 70
     2
  9
$LUPREC
 70
     4
  9
$SKETCHINC
 40
0.1
  9
$FILLETRAD
 40
2.0
  9
$AUNITS
 70
     0
  9
$AUPREC
 70
     0
  9
$MENU
  1
ACAD
  9
$ELEVATION
 40
0.0
  9
$PELEVATION
 40
0.0
  9
$THICKNESS
 40
0.0
  9
$LIMCHECK
 70
     0
  9
$BLIPMODE
 70
     0
  9
$CHAMFERA
 40
0.0
  9
$CHAMFERB
 40
0.0
  9
$SKPOLY
 70
     0
  9
$TDCREATE
 40
2452095.0687877312
  9
$TDUPDATE
 40
2452095.069414583
  9
$TDINDWG
 40
0.0006471065
  9
$TDUSRTIMER
 40
0.0006471065
  9
$USRTIMER
 70
     1
  9
$ANGBASE
 50
0.0
  9
$ANGDIR
 70
     0
  9
$PDMODE
 70
     0
  9
$PDSIZE
 40
0.0
  9
$PLINEWID
 40
0.0
  9
$COORDS
 70
     1
  9
$SPLFRAME
 70
     0
  9
$SPLINETYPE
 70
     6
  9
$SPLINESEGS
 70
     8
  9
$ATTDIA
 70
     0
  9
$ATTREQ
 70
     1
  9
$HANDLING
 70
 10241
  9
$HANDSEED
  5
137
  9
$SURFTAB1
 70
     6
  9
$SURFTAB2
 70
     6
  9
$SURFTYPE
 70
     6
  9
$SURFU
 70
     6
  9
$SURFV
 70
     6
  9
$UCSNAME
  2

  9
$UCSORG
 10
0.0
 20
0.0
 30
0.0
  9
$UCSXDIR
 10
1.0
 20
0.0
 30
0.0
  9
$UCSYDIR
 10
0.0
 20
1.0
 30
0.0
  9
$PUCSNAME
  2

  9
$PUCSORG
 10
0.0
 20
0.0
 30
0.0
  9
$PUCSXDIR
 10
1.0
 20
0.0
 30
0.0
  9
$PUCSYDIR
 10
0.0
 20
1.0
 30
0.0
  9
$USERI1
 70
     0
  9
$USERI2
 70
     0
  9
$USERI3
 70
     0
  9
$USERI4
 70
     0
  9
$USERI5
 70
     0
  9
$USERR1
 40
0.0
  9
$USERR2
 40
0.0
  9
$USERR3
 40
0.0
  9
$USERR4
 40
0.0
  9
$USERR5
 40
0.0
  9
$WORLDVIEW
 70
     1
  9
$SHADEDGE
 70
     3
  9
$SHADEDIF
 70
    70
  9
$TILEMODE
 70
     1
  9
$MAXACTVP
 70
    64
  9
$PLIMCHECK
 70
     0
  9
$PEXTMIN
 10
1.0000000000000000E+020
 20
1.0000000000000000E+020
 30
1.0000000000000000E+020
  9
$PEXTMAX
 10
-1.0000000000000000E+020
 20
-1.0000000000000000E+020
 30
-1.0000000000000000E+020
  9
$PLIMMIN
 10
0.0
 20
0.0
  9
$PLIMMAX
 10
12.0
 20
9.0
  9
$UNITMODE
 70
     0
  9
$VISRETAIN
 70
     1
  9
$PLINEGEN
 70
     0
  9
$PSLTSCALE
 70
     1
  0
ENDSEC
  0
SECTION
  2
TABLES
  0
TABLE
  2
VPORT
 70
     2
  0
VPORT
  2
*ACTIVE
 70
     0
 10
0.0
 20
0.0
 11
1.0
 21
1.0
 12
-180.71157546897041
 22
88.654500984289328
 13
0.0
 23
0.0
 14
1.0
 24
1.0
 15
0.0
 25
0.0
 16
0.0
 26
0.0
 36
1.0
 17
0.0
 27
0.0
 37
0.0
 40
9.0000000019806823
 41
2.4144144144144142
 42
50.0
 43
0.0
 44
0.0
 50
0.0
 51
0.0
 71
     0
 72
   100
 73
     1
 74
     1
 75
     0
 76
     0
 77
     0
 78
     0
  0
ENDTAB
  0
TABLE
  2
LTYPE
 70
     9
  0
LTYPE
  2
CONTINUOUS
 70
     0
  3
Solid line
 72
    65
 73
     0
 40
0.0
  0
LTYPE
  2
BORDER
 70
     0
  3
__ __ . __ __ .
 72
    65
 73
     6
 40
11.197085482122089
 49
3.1991672806063121
 49
-1.599583640303156
 49
3.1991672806063121
 49
-1.599583640303156
 49
0.0
 49
-1.599583640303156
  0
LTYPE
  2
CENTER
 70
     0
  3
____ _ ____ _
 72
    65
 73
     4
 40
12.79666912242525
 49
7.9979182015157821
 49
-1.599583640303156
 49
1.599583640303156
 49
-1.599583640303156
  0
LTYPE
  2
DASHDOT
 70
     0
  3
__ . __ . __ .
 72
    65
 73
     4
 40
6.398334561212625
 49
3.1991672806063121
 49
-1.599583640303156
 49
0.0
 49
-1.599583640303156
  0
LTYPE
  2
DASHED
 70
     0
  3
__ __ __ __ __
 72
    65
 73
     2
 40
4.7987509209094688
 49
3.1991672806063121
 49
-1.599583640303156
  0
LTYPE
  2
DIVIDE
 70
     0
  3
__ . . __ . . 
 72
    65
 73
     6
 40
7.9979182015157821
 49
3.1991672806063121
 49
-1.599583640303156
 49
0.0
 49
-1.599583640303156
 49
0.0
 49
-1.599583640303156
  0
LTYPE
  2
DOT
 70
     0
  3
..............
 72
    65
 73
     4
 40
3.1991672806063121
 49
0.0
 49
-1.599583640303156
 49
0.0
 49
-1.599583640303156
  0
LTYPE
  2
HIDDEN
 70
     0
  3
_ _ _ _ _ _ _
 72
    65
 73
     2
 40
2.3993754604547339
 49
1.599583640303156
 49
-0.7997918201515784
  0
LTYPE
  2
PHANTOM
 70
     0
  3
_____ _ _ _____ _ _ 
 72
    65
 73
     6
 40
15.995836403031561
 49
7.9979182015157821
 49
-1.599583640303156
 49
1.599583640303156
 49
-1.599583640303156
 49
1.599583640303156
 49
-1.599583640303156
  0
ENDTAB
  0
TABLE
  2
LAYER
 70
     2
  0
LAYER
  2
0
 70
     0
 62
     7
  6
CONTINUOUS
  0
LAYER
  2
1
 70
     0
 62
     7
  6
CONTINUOUS
  0
ENDTAB
  0
TABLE
  2
STYLE
 70
     4
  0
STYLE
  2
STANDARD
 70
     0
 40
0.0
 41
1.0
 50
0.0
 71
     0
 42
3.5
  3
txt
  4

  0
STYLE
  2
SIMPLEX
 70
     0
 40
0.0
 41
1.0
 50
0.0
 71
     0
 42
3.5
  3
simplex
  4

  0
STYLE
  2
COMPLEX
 70
     0
 40
0.0
 41
1.0
 50
0.0
 71
     0
 42
3.5
  3
complex
  4

  0
STYLE
  2
ITALIC
 70
     0
 40
0.0
 41
1.0
 50
0.0
 71
     0
 42
3.5
  3
italic
  4

  0
ENDTAB
  0
TABLE
  2
VIEW
 70
     0
  0
ENDTAB
  0
TABLE
  2
UCS
 70
     0
  0
ENDTAB
  0
TABLE
  2
APPID
 70
     1
  0
APPID
  2
ACAD
 70
     0
  0
ENDTAB
  0
TABLE
  2
DIMSTYLE
 70
     1
  0
DIMSTYLE
  2
STANDARD
 70
     0
  3

  4

  5

  6

  7

 40
1.0
 41
0.18
 42
0.0625
 43
0.38
 44
0.18
 45
0.0
 46
0.0
 47
0.0
 48
0.0
140
0.18
141
0.09
142
0.0
143
25.399999999999999
144
1.0
145
0.0
146
1.0
147
0.09
 71
     0
 72
     0
 73
     1
 74
     1
 75
     0
 76
     0
 77
     0
 78
     0
170
     0
171
     2
172
     0
173
     0
174
     0
175
     0
176
     0
177
     0
178
     0
  0
ENDTAB
  0
ENDSEC
  0
SECTION
  2
BLOCKS
  0
BLOCK
  8
0
  2
$MODEL_SPACE
 70
     0
 10
0.0
 20
0.0
 30
0.0
  3
$MODEL_SPACE
  1

  0
ENDBLK
  5
20
  8
0
  0
BLOCK
 67
     1
  8
0
  2
$PAPER_SPACE
 70
     0
 10
0.0
 20
0.0
 30
0.0
  3
$PAPER_SPACE
  1

  0
ENDBLK
  5
1C
 67
     1
  8
0
  0
BLOCK
  8
0
  2
_X2
 70
     0
 10
0.0
 20
0.0
 30
0.0
  3
_X2
  1

  0
ENDBLK
  5
35
  8
0
  0
BLOCK
  8
0
  2
_X1
 70
     0
 10
0.0
 20
0.0
 30
0.0
  3
_X1
  1

  0
ENDBLK
  5
38
  8
0
  0
BLOCK
  8
0
  2
_X0
 70
     0
 10
0.0
 20
0.0
 30
0.0
  3
_X0
  1

  0
ENDBLK
  5
3B
  8
0
  0
ENDSEC
  0
SECTION
  2
ENTITIES
  0
LINE
  5
3C
  8
1
  6
DASHED
 62
     7
 10
23.99999999999989
 20
37.0
 30
0.0
 11
23.99999999999989
 21
40.0
 31
0.0
  0
LINE
  5
3D
  8
1
 62
     7
 10
5.8999999999999551
 20
63.856728749953007
 30
0.0
 11
5.8999999999999551
 21
60.356728749953007
 31
0.0
  0
LINE
  5
3E
  8
1
 62
     7
 10
6.1999999999999593
 20
63.856728749953007
 30
0.0
 11
6.1999999999999593
 21
60.356728749953007
 31
0.0
  0
LINE
  5
3F
  8
1
 62
     7
 10
7.1000000000000218
 20
63.856728749953007
 30
0.0
 11
7.1000000000000218
 21
60.356728749953007
 31
0.0
  0
LINE
  5
40
  8
1
 62
     7
 10
6.8000000000000123
 20
63.856728749953007
 30
0.0
 11
6.8000000000000123
 21
60.356728749953007
 31
0.0
  0
LINE
  5
41
  8
1
 62
     7
 10
6.5
 20
63.856728749953007
 30
0.0
 11
6.5
 21
60.356728749953007
 31
0.0
  0
LINE
  5
42
  8
1
 62
     7
 10
-74.099999999999923
 20
63.856728749953007
 30
0.0
 11
-74.099999999999923
 21
60.356728749953007
 31
0.0
  0
LINE
  5
43
  8
1
 62
     7
 10
-73.799999999999898
 20
63.856728749953007
 30
0.0
 11
-73.799999999999898
 21
60.356728749953007
 31
0.0
  0
LINE
  5
44
  8
1
 62
     7
 10
-72.899999999999878
 20
63.856728749953007
 30
0.0
 11
-72.899999999999878
 21
60.356728749953007
 31
0.0
  0
LINE
  5
45
  8
1
 62
     7
 10
-73.199999999999889
 20
63.856728749953007
 30
0.0
 11
-73.199999999999889
 21
60.356728749953007
 31
0.0
  0
LINE
  5
46
  8
1
 62
     7
 10
-73.499999999999901
 20
63.856728749953007
 30
0.0
 11
-73.499999999999901
 21
60.356728749953007
 31
0.0
  0
LINE
  5
47
  8
1
 62
     7
 10
-173.90171332607991
 20
63.856728749953007
 30
0.0
 11
-173.90171332607991
 21
60.356728749953007
 31
0.0
  0
LINE
  5
48
  8
1
 62
     7
 10
-173.6017133260799
 20
63.856728749953007
 30
0.0
 11
-173.6017133260799
 21
60.356728749953007
 31
0.0
  0
LINE
  5
49
  8
1
 62
     7
 10
-172.70171332608001
 20
63.856728749953007
 30
0.0
 11
-172.70171332608001
 21
60.356728749953007
 31
0.0
  0
LINE
  5
4A
  8
1
 62
     7
 10
-173.00171332607991
 20
63.856728749953007
 30
0.0
 11
-173.00171332607991
 21
60.356728749953007
 31
0.0
  0
LINE
  5
4B
  8
1
 62
     7
 10
-171.57171332607979
 20
63.856728749953007
 30
0.0
 11
-171.57171332607979
 21
60.356728749953007
 31
0.0
  0
LINE
  5
4C
  8
1
 62
     7
 10
-171.27171332607981
 20
63.856728749953007
 30
0.0
 11
-171.27171332607981
 21
60.356728749953007
 31
0.0
  0
LINE
  5
4D
  8
1
 62
     7
 10
-170.37171332607991
 20
63.856728749953007
 30
0.0
 11
-170.37171332607991
 21
60.356728749953007
 31
0.0
  0
LINE
  5
4E
  8
1
 62
     7
 10
-170.67171332608001
 20
63.856728749953007
 30
0.0
 11
-170.67171332608001
 21
60.356728749953007
 31
0.0
  0
LINE
  5
4F
  8
1
 62
     7
 10
-173.30171332607981
 20
63.856728749953007
 30
0.0
 11
-173.30171332607981
 21
60.356728749953007
 31
0.0
  0
LINE
  5
50
  8
1
 62
     7
 10
-170.97171332607991
 20
63.856728749953007
 30
0.0
 11
-170.97171332607991
 21
60.356728749953007
 31
0.0
  0
LINE
  5
51
  8
1
  6
DASHDOT
 62
     3
 10
-154.13722136167189
 20
-0.0000000000000071
 30
0.0
 11
-148.274854116206
 21
-0.0000000000000071
 31
0.0
  0
LINE
  5
52
  8
1
  6
DASHDOT
 62
     3
 10
-172.13671332607981
 20
-17.999491964407959
 30
0.0
 11
-172.13671332607981
 21
-23.861859209873831
 31
0.0
  0
LINE
  5
53
  8
1
  6
DASHDOT
 62
     3
 10
-190.13620529048791
 20
0.0
 30
0.0
 11
-195.99857253595371
 21
0.0
 31
0.0
  0
LINE
  5
54
  8
1
  6
DASHDOT
 62
     3
 10
-172.13671332607981
 20
17.999491964407959
 30
0.0
 11
-172.13671332607981
 21
23.861859209873831
 31
0.0
  0
LINE
  5
55
  8
1
  6
DASHDOT
 62
     3
 10
-172.13671332607981
 20
3.1232158017925009
 30
0.0
 11
-172.13671332607981
 21
-3.123215801792496
 31
0.0
  0
LINE
  5
56
  8
1
  6
DASHDOT
 62
     3
 10
-169.0134975242874
 20
0.0
 30
0.0
 11
-175.25992912787251
 21
0.0
 31
0.0
  0
LINE
  5
57
  8
1
 62
     3
 10
27.99999999999989
 20
0.0
 30
0.0
 11
30.999999999999879
 21
0.0
 31
0.0
  0
LINE
  5
58
  8
1
 62
     3
 10
-3.0
 20
0.0
 30
0.0
 11
0.0
 21
0.0
 31
0.0
  0
LINE
  5
59
  8
1
 62
     3
 10
-82.999999999999901
 20
0.0
 30
0.0
 11
-79.999999999999901
 21
0.0
 31
0.0
  0
LINE
  5
5A
  8
1
 62
     3
 10
-52.0
 20
0.0
 30
0.0
 11
-49.0
 21
0.0
 31
0.0
  0
LINE
  5
5B
  8
1
 62
     7
 10
-62.999999999999901
 20
40.0
 30
0.0
 11
-62.999999999999901
 21
-16.435647126994649
 31
0.0
  0
LINE
  5
5C
  8
1
 62
     7
 10
-63.5
 20
40.0
 30
0.0
 11
-63.5
 21
-16.435647126994649
 31
0.0
  0
LINE
  5
5D
  8
1
 62
     7
 10
-78.999999999999872
 20
36.5
 30
0.0
 11
-78.999999999999901
 21
-36.5
 31
0.0
  0
LINE
  5
5E
  8
1
 62
     7
 10
-70.499999999999872
 20
36.5
 30
0.0
 11
-69.499999999999872
 21
37.5
 31
0.0
  0
LINE
  5
5F
  8
1
 62
     7
 10
23.99999999999989
 20
-40.0
 30
0.0
 11
25.999999999999879
 21
-40.0
 31
0.0
  0
LINE
  5
60
  8
1
 62
     7
 10
17.0
 20
-40.0
 30
0.0
 11
23.499999999999879
 21
-40.0
 31
0.0
  0
LINE
  5
61
  8
1
 62
     7
 10
16.499999999999879
 20
-40.0
 30
0.0
 11
16.499999999999879
 21
-35.5
 31
0.0
  0
LINE
  5
62
  8
1
  6
DASHDOT
 62
     3
 10
19.5
 20
-16.8060481215594
 30
0.0
 11
19.5
 21
-10.116887012324741
 31
0.0
  0
LINE
  5
63
  8
1
 62
     7
 10
20.5
 20
-15.75
 30
0.0
 11
20.5
 21
-10.5
 31
0.0
  0
LINE
  5
64
  8
1
 62
     7
 10
18.5
 20
-15.75
 30
0.0
 11
18.5
 21
-10.5
 31
0.0
  0
LINE
  5
65
  8
1
 62
     7
 10
10.5
 20
-37.5
 30
0.0
 11
9.5
 21
-36.5
 31
0.0
  0
LINE
  5
66
  8
1
 62
     7
 10
0.0
 20
-35.5
 30
0.0
 11
1.0
 21
-36.5
 31
0.0
  0
LINE
  5
67
  8
1
 62
     7
 10
11.0
 20
-16.0
 30
0.0
 11
11.0
 21
-15.0
 31
0.0
  0
LINE
  5
68
  8
1
 62
     7
 10
11.0
 20
-16.0
 30
0.0
 11
0.0
 21
-16.0
 31
0.0
  0
LINE
  5
69
  8
1
 62
     7
 10
17.0
 20
-20.0
 30
0.0
 11
15.00710431654673
 21
-20.0
 31
0.0
  0
LINE
  5
6A
  8
1
 62
     7
 10
11.0
 20
-16.0
 30
0.0
 11
15.00710431654673
 21
-20.0
 31
0.0
  0
LINE
  5
6B
  8
1
 62
     7
 10
0.0
 20
-35.5
 30
0.0
 11
0.0
 21
35.5
 31
0.0
  0
LINE
  5
6C
  8
1
 62
     7
 10
10.5
 20
-36.5
 30
0.0
 11
1.0
 21
-36.5
 31
0.0
  0
LINE
  5
6D
  8
1
 62
     7
 10
17.0
 20
-35.5
 30
0.0
 11
10.5
 21
-35.5
 31
0.0
  0
LINE
  5
6E
  8
1
 62
     7
 10
16.499999999999879
 20
-35.5
 30
0.0
 11
10.5
 21
-35.5
 31
0.0
  0
LINE
  5
6F
  8
1
 62
     7
 10
27.99999999999989
 20
-38.0
 30
0.0
 11
25.999999999999879
 21
-38.0
 31
0.0
  0
LINE
  5
70
  8
1
 62
     7
 10
10.5
 20
-40.0
 30
0.0
 11
16.499999999999879
 21
-40.0
 31
0.0
  0
LINE
  5
71
  8
1
 62
     7
 10
10.5
 20
-40.0
 30
0.0
 11
10.5
 21
-35.5
 31
0.0
  0
LINE
  5
72
  8
1
 62
     7
 10
25.999999999999879
 20
-34.25
 30
0.0
 11
25.999999999999879
 21
-40.0
 31
0.0
  0
LINE
  5
73
  8
1
 62
     7
 10
27.99999999999989
 20
-35.200000000000003
 30
0.0
 11
25.999999999999879
 21
-35.200000000000003
 31
0.0
  0
LINE
  5
74
  8
1
 62
     7
 10
25.999999999999879
 20
-34.25
 30
0.0
 11
26.99999999999989
 21
-34.25
 31
0.0
  0
LINE
  5
75
  8
1
 62
     7
 10
23.99999999999989
 20
-36.0
 30
0.0
 11
23.99999999999989
 21
-40.0
 31
0.0
  0
LINE
  5
76
  8
1
 62
     7
 10
23.99999999999989
 20
-36.0
 30
0.0
 11
23.499999999999879
 21
-36.0
 31
0.0
  0
LINE
  5
77
  8
1
 62
     7
 10
23.499999999999879
 20
-15.750000000000011
 30
0.0
 11
23.499999999999879
 21
-40.0
 31
0.0
  0
LINE
  5
78
  8
1
 62
     7
 10
23.99999999999989
 20
-21.0
 30
0.0
 11
23.499999999999879
 21
-21.0
 31
0.0
  0
LINE
  5
79
  8
1
 62
     7
 10
23.99999999999989
 20
-21.0
 30
0.0
 11
23.99999999999989
 21
-18.449999999999989
 31
0.0
  0
LINE
  5
7A
  8
1
 62
     7
 10
26.49999999999989
 20
-18.75
 30
0.0
 11
24.49999999999989
 21
-18.75
 31
0.0
  0
LINE
  5
7B
  8
1
 62
     7
 10
27.99999999999989
 20
-20.249999999999989
 30
0.0
 11
26.49999999999989
 21
-18.75
 31
0.0
  0
LINE
  5
7C
  8
1
 62
     7
 10
26.99999999999989
 20
-34.25
 30
0.0
 11
27.99999999999989
 21
-33.25
 31
0.0
  0
LINE
  5
7D
  8
1
 62
     7
 10
26.5
 20
-17.449999999999999
 30
0.0
 11
26.5
 21
17.449999999999999
 31
0.0
  0
LINE
  5
7E
  8
1
 62
     7
 10
25.5
 20
-18.449999999999989
 30
0.0
 11
15.5
 21
-18.449999999999989
 31
0.0
  0
LINE
  5
7F
  8
1
 62
     7
 10
14.5
 20
-17.449999999999999
 30
0.0
 11
14.5
 21
-15.0
 31
0.0
  0
LINE
  5
80
  8
1
 62
     7
 10
14.5
 20
-15.0
 30
0.0
 11
4.5
 21
-15.0
 31
0.0
  0
LINE
  5
81
  8
1
 62
     7
 10
3.5
 20
-14.0
 30
0.0
 11
3.5
 21
14.0
 31
0.0
  0
LINE
  5
82
  8
1
 62
     7
 10
23.99999999999989
 20
-19.25
 30
0.0
 11
24.49999999999989
 21
-18.75
 31
0.0
  0
LINE
  5
83
  8
1
 62
     7
 10
14.5
 20
-15.750000000000011
 30
0.0
 11
26.5
 21
-15.750000000000011
 31
0.0
  0
LINE
  5
84
  8
1
 62
     7
 10
22.0
 20
-10.5
 30
0.0
 11
17.0
 21
-10.5
 31
0.0
  0
LINE
  5
85
  8
1
 62
     7
 10
17.0
 20
-10.0
 30
0.0
 11
3.5
 21
-10.0
 31
0.0
  0
LINE
  5
86
  8
1
 62
     7
 10
22.0
 20
-10.5
 30
0.0
 11
22.0
 21
10.5
 31
0.0
  0
LINE
  5
87
  8
1
 62
     7
 10
17.0
 20
-10.5
 30
0.0
 11
17.0
 21
10.5
 31
0.0
  0
LINE
  5
88
  8
1
 62
     7
 10
26.5
 20
-10.0
 30
0.0
 11
22.0
 21
-10.0
 31
0.0
  0
LINE
  5
89
  8
1
 62
     7
 10
3.5
 20
-14.0
 30
0.0
 11
4.5
 21
-15.0
 31
0.0
  0
LINE
  5
8A
  8
1
 62
     7
 10
25.5
 20
-18.449999999999989
 30
0.0
 11
26.5
 21
-17.449999999999999
 31
0.0
  0
LINE
  5
8B
  8
1
 62
     7
 10
14.5
 20
-17.449999999999999
 30
0.0
 11
15.5
 21
-18.449999999999989
 31
0.0
  0
LINE
  5
8C
  8
1
 62
     7
 10
17.0
 20
-40.0
 30
0.0
 11
17.0
 21
-15.750000000000011
 31
0.0
  0
LINE
  5
8D
  8
1
 62
     3
 10
17.0
 20
-40.0
 30
0.0
 11
23.499999999999879
 21
-15.750000000000011
 31
0.0
  0
LINE
  5
8E
  8
1
 62
     3
 10
23.499999999999879
 20
-40.0
 30
0.0
 11
17.0
 21
-15.750000000000011
 31
0.0
  0
LINE
  5
8F
  8
1
 62
     7
 10
23.499999999999879
 20
-32.0
 30
0.0
 11
17.0
 21
-32.0
 31
0.0
  0
LINE
  5
90
  8
1
 62
     7
 10
23.499999999999879
 20
-26.0
 30
0.0
 11
17.0
 21
-26.0
 31
0.0
  0
LINE
  5
91
  8
1
 62
     7
 10
-70.499999999999901
 20
-36.5
 30
0.0
 11
-70.499999999999872
 21
36.5
 31
0.0
  0
LINE
  5
92
  8
1
 62
     7
 10
-69.499999999999872
 20
-39.999999999999993
 30
0.0
 11
-69.499999999999872
 21
40.0
 31
0.0
  0
LINE
  5
93
  8
1
 62
     7
 10
-69.499999999999901
 20
-37.5
 30
0.0
 11
-70.499999999999901
 21
-36.5
 31
0.0
  0
LINE
  5
94
  8
1
 62
     7
 10
-70.499999999999872
 20
36.5
 30
0.0
 11
-69.499999999999872
 21
37.5
 31
0.0
  0
LINE
  5
95
  8
1
 62
     7
 10
-78.999999999999872
 20
36.5
 30
0.0
 11
-70.499999999999872
 21
36.5
 31
0.0
  0
LINE
  5
96
  8
1
 62
     7
 10
-74.659999999999911
 20
60.356728749953007
 30
0.0
 11
-72.339999999999904
 21
60.356728749953007
 31
0.0
  0
LINE
  5
97
  8
1
 62
     7
 10
-74.659999999999911
 20
60.356728749953007
 30
0.0
 11
-74.659999999999883
 21
36.5
 31
0.0
  0
LINE
  5
98
  8
1
 62
     7
 10
-72.339999999999904
 20
60.356728749953007
 30
0.0
 11
-72.33999999999989
 21
36.5
 31
0.0
  0
LINE
  5
99
  8
1
 62
     7
 10
-78.999999999999901
 20
-36.5
 30
0.0
 11
-79.999999999999901
 21
-35.5
 31
0.0
  0
LINE
  5
9A
  8
1
 62
     7
 10
-78.999999999999872
 20
36.5
 30
0.0
 11
-79.999999999999872
 21
35.5
 31
0.0
  0
LINE
  5
9B
  8
1
 62
     7
 10
-70.499999999999901
 20
-36.5
 30
0.0
 11
-78.999999999999901
 21
-36.5
 31
0.0
  0
LINE
  5
9C
  8
1
 62
     7
 10
-79.999999999999872
 20
35.5
 30
0.0
 11
-79.999999999999901
 21
-35.5
 31
0.0
  0
LINE
  5
9D
  8
1
 62
     7
 10
-69.499999999999872
 20
-39.999999999999993
 30
0.0
 11
-63.499999999999993
 21
-39.999999999999993
 31
0.0
  0
LINE
  5
9E
  8
1
 62
     7
 10
-63.499999999999993
 20
-39.999999999999993
 30
0.0
 11
-63.499999999999993
 21
-23.36385035727011
 31
0.0
  0
LINE
  5
9F
  8
1
 62
     7
 10
-54.0
 20
38.0
 30
0.0
 11
-52.0
 21
38.0
 31
0.0
  0
LINE
  5
A0
  8
1
 62
     7
 10
-52.0
 20
-38.0
 30
0.0
 11
-51.999999999999893
 21
-16.435647126994649
 31
0.0
  0
LINE
  5
A1
  8
1
 62
     7
 10
-53.999999999999879
 20
-23.36385035727011
 30
0.0
 11
-53.999999999999993
 21
-39.993465370038003
 31
0.0
  0
LINE
  5
A2
  8
1
 62
     7
 10
-62.999999999999858
 20
-39.993465370038003
 30
0.0
 11
-62.999999999999893
 21
-23.36385035727011
 31
0.0
  0
LINE
  5
A3
  8
1
 62
     7
 10
-55.999999999999993
 20
-39.993465370038003
 30
0.0
 11
-55.999999999999993
 21
-23.36385035727011
 31
0.0
  0
LINE
  5
A4
  8
1
 62
     7
 10
-54.0
 20
-38.0
 30
0.0
 11
-52.0
 21
-38.0
 31
0.0
  0
LINE
  5
A5
  8
1
 62
     7
 10
-55.999999999999993
 20
-39.993465370038003
 30
0.0
 11
-53.999999999999993
 21
-39.993465370038003
 31
0.0
  0
LINE
  5
A6
  8
1
 62
     7
 10
-56.499999999999993
 20
-39.993465370038003
 30
0.0
 11
-62.999999999999858
 21
-39.993465370038003
 31
0.0
  0
LINE
  5
A7
  8
1
 62
     7
 10
-56.500000000000021
 20
-23.36385035727011
 30
0.0
 11
-56.499999999999993
 21
-39.993465370038003
 31
0.0
  0
LINE
  5
A8
  8
1
 62
     7
 10
9.5
 20
36.5
 30
0.0
 11
10.5
 21
37.5
 31
0.0
  0
LINE
  5
A9
  8
1
  6
DASHDOT
 62
     3
 10
-0.8803647682983921
 20
21.0
 30
0.0
 11
14.20563032762478
 21
21.0
 31
0.0
  0
LINE
  5
AA
  8
1
 62
     3
 10
9.0392304845413207
 20
22.899999999999999
 30
0.0
 11
8.0
 21
23.5
 31
0.0
  0
LINE
  5
AB
  8
1
 62
     3
 10
9.0392304845413207
 20
19.100000000000009
 30
0.0
 11
8.0
 21
18.500000000000011
 31
0.0
  0
LINE
  5
AC
  8
1
 62
     3
 10
0.0
 20
23.5
 30
0.0
 11
8.0
 21
23.5
 31
0.0
  0
LINE
  5
AD
  8
1
 62
     7
 10
8.0
 20
23.5
 30
0.0
 11
8.0
 21
18.500000000000011
 31
0.0
  0
LINE
  5
AE
  8
1
 62
     3
 10
8.0
 20
18.500000000000011
 30
0.0
 11
0.0
 21
18.500000000000011
 31
0.0
  0
LINE
  5
AF
  8
1
 62
     7
 10
11.799999999999979
 20
22.899999999999999
 30
0.0
 11
13.24337567297405
 21
21.0
 31
0.0
  0
LINE
  5
B0
  8
1
 62
     7
 10
13.24337567297405
 20
21.0
 30
0.0
 11
11.799999999999979
 21
19.100000000000009
 31
0.0
  0
LINE
  5
B1
  8
1
 62
     7
 10
0.0
 20
22.899999999999999
 30
0.0
 11
11.799999999999979
 21
22.899999999999999
 31
0.0
  0
LINE
  5
B2
  8
1
 62
     7
 10
11.799999999999979
 20
22.899999999999999
 30
0.0
 11
11.799999999999979
 21
19.100000000000009
 31
0.0
  0
LINE
  5
B3
  8
1
 62
     7
 10
11.799999999999979
 20
19.100000000000009
 30
0.0
 11
0.0
 21
19.100000000000001
 31
0.0
  0
LINE
  5
B4
  8
1
 62
     7
 10
-169.80671332607989
 20
36.40512463925922
 30
0.0
 11
-169.80671332607989
 21
60.356728749953007
 31
0.0
  0
LINE
  5
B5
  8
1
 62
     7
 10
-174.46671332607991
 20
60.356728749953007
 30
0.0
 11
-169.80671332607989
 21
60.356728749953007
 31
0.0
  0
LINE
  5
B6
  8
1
 62
     7
 10
-172.13671332607981
 20
60.356728749953007
 30
0.0
 11
-172.13671332607981
 21
36.5
 31
0.0
  0
LINE
  5
B7
  8
1
 62
     7
 10
-174.46671332607991
 20
36.5
 30
0.0
 11
-174.46671332607991
 21
60.356728749953007
 31
0.0
  0
LINE
  5
B8
  8
1
 62
     7
 10
5.3399999999999954
 20
60.356728749953007
 30
0.0
 11
7.6599999999999868
 21
60.356728749953007
 31
0.0
  0
LINE
  5
B9
  8
1
 62
     7
 10
5.3399999999999954
 20
60.356728749953007
 30
0.0
 11
5.3399999999999954
 21
36.5
 31
0.0
  0
LINE
  5
BA
  8
1
 62
     7
 10
7.6599999999999966
 20
36.5
 30
0.0
 11
7.6599999999999868
 21
60.356728749953007
 31
0.0
  0
LINE
  5
BB
  8
1
 62
     7
 10
27.99999999999989
 20
38.0
 30
0.0
 11
27.99999999999989
 21
-38.0
 31
0.0
  0
LINE
  5
BC
  8
1
 62
     7
 10
1.0
 20
36.5
 30
0.0
 11
0.0
 21
35.5
 31
0.0
  0
LINE
  5
BD
  8
1
 62
     7
 10
11.0
 20
15.0
 30
0.0
 11
11.0
 21
16.0
 31
0.0
  0
LINE
  5
BE
  8
1
 62
     7
 10
0.0
 20
16.0
 30
0.0
 11
11.0
 21
16.0
 31
0.0
  0
LINE
  5
BF
  8
1
 62
     7
 10
15.00710431654673
 20
20.000000000000011
 30
0.0
 11
17.0
 21
20.000000000000011
 31
0.0
  0
LINE
  5
C0
  8
1
 62
     7
 10
15.00710431654673
 20
20.000000000000011
 30
0.0
 11
11.0
 21
16.0
 31
0.0
  0
LINE
  5
C1
  8
1
 62
     7
 10
1.0
 20
36.5
 30
0.0
 11
10.5
 21
36.5
 31
0.0
  0
LINE
  5
C2
  8
1
 62
     7
 10
10.5
 20
35.5
 30
0.0
 11
17.0
 21
35.5
 31
0.0
  0
LINE
  5
C3
  8
1
 62
     7
 10
27.99999999999989
 20
40.0
 30
0.0
 11
29.99999999999989
 21
38.0
 31
0.0
  0
LINE
  5
C4
  8
1
 62
     7
 10
10.5
 20
35.5
 30
0.0
 11
16.499999999999879
 21
35.5
 31
0.0
  0
LINE
  5
C5
  8
1
 62
     7
 10
16.499999999999879
 20
37.0
 30
0.0
 11
25.999999999999879
 21
37.0
 31
0.0
  0
LINE
  5
C6
  8
1
 62
     7
 10
25.999999999999879
 20
38.0
 30
0.0
 11
27.99999999999989
 21
38.0
 31
0.0
  0
LINE
  5
C7
  8
1
 62
     7
 10
27.99999999999989
 20
37.0
 30
0.0
 11
29.99999999999989
 21
37.0
 31
0.0
  0
LINE
  5
C8
  8
1
 62
     7
 10
29.99999999999989
 20
37.0
 30
0.0
 11
29.99999999999989
 21
38.0
 31
0.0
  0
LINE
  5
C9
  8
1
 62
     7
 10
27.99999999999989
 20
40.0
 30
0.0
 11
10.5
 21
40.0
 31
0.0
  0
LINE
  5
CA
  8
1
 62
     7
 10
10.5
 20
40.0
 30
0.0
 11
10.5
 21
35.5
 31
0.0
  0
LINE
  5
CB
  8
1
 62
     7
 10
16.499999999999879
 20
35.5
 30
0.0
 11
16.499999999999879
 21
37.0
 31
0.0
  0
LINE
  5
CC
  8
1
 62
     7
 10
25.999999999999879
 20
34.25
 30
0.0
 11
25.999999999999879
 21
38.0
 31
0.0
  0
LINE
  5
CD
  8
1
 62
     7
 10
25.999999999999879
 20
35.20000000000001
 30
0.0
 11
27.99999999999989
 21
35.20000000000001
 31
0.0
  0
LINE
  5
CE
  8
1
 62
     7
 10
26.99999999999989
 20
34.25
 30
0.0
 11
25.999999999999879
 21
34.25
 31
0.0
  0
LINE
  5
CF
  8
1
 62
     7
 10
23.99999999999989
 20
36.0
 30
0.0
 11
23.99999999999989
 21
37.0
 31
0.0
  0
LINE
  5
D0
  8
1
 62
     7
 10
23.499999999999879
 20
36.0
 30
0.0
 11
23.99999999999989
 21
36.0
 31
0.0
  0
LINE
  5
D1
  8
1
 62
     7
 10
23.499999999999879
 20
15.750000000000011
 30
0.0
 11
23.499999999999879
 21
37.0
 31
0.0
  0
LINE
  5
D2
  8
1
 62
     7
 10
23.499999999999879
 20
21.0
 30
0.0
 11
23.99999999999989
 21
21.0
 31
0.0
  0
LINE
  5
D3
  8
1
 62
     7
 10
23.99999999999989
 20
18.449999999999989
 30
0.0
 11
23.99999999999989
 21
21.0
 31
0.0
  0
LINE
  5
D4
  8
1
 62
     7
 10
24.49999999999989
 20
18.750000000000011
 30
0.0
 11
26.49999999999989
 21
18.750000000000011
 31
0.0
  0
LINE
  5
D5
  8
1
 62
     7
 10
26.49999999999989
 20
18.750000000000011
 30
0.0
 11
27.99999999999989
 21
20.250000000000011
 31
0.0
  0
LINE
  5
D6
  8
1
 62
     7
 10
27.99999999999989
 20
33.25
 30
0.0
 11
26.99999999999989
 21
34.25
 31
0.0
  0
LINE
  5
D7
  8
1
 62
     7
 10
15.5
 20
18.449999999999989
 30
0.0
 11
25.5
 21
18.449999999999989
 31
0.0
  0
LINE
  5
D8
  8
1
 62
     7
 10
14.5
 20
15.0
 30
0.0
 11
14.5
 21
17.449999999999999
 31
0.0
  0
LINE
  5
D9
  8
1
 62
     7
 10
4.5
 20
15.0
 30
0.0
 11
14.5
 21
15.0
 31
0.0
  0
LINE
  5
DA
  8
1
 62
     7
 10
17.0
 20
15.750000000000011
 30
0.0
 11
17.0
 21
37.0
 31
0.0
  0
LINE
  5
DB
  8
1
 62
     7
 10
24.49999999999989
 20
18.750000000000011
 30
0.0
 11
23.99999999999989
 21
19.250000000000011
 31
0.0
  0
LINE
  5
DC
  8
1
 62
     7
 10
26.5
 20
15.750000000000011
 30
0.0
 11
14.5
 21
15.750000000000011
 31
0.0
  0
LINE
  5
DD
  8
1
 62
     7
 10
17.0
 20
10.5
 30
0.0
 11
22.0
 21
10.5
 31
0.0
  0
LINE
  5
DE
  8
1
 62
     7
 10
3.5
 20
10.0
 30
0.0
 11
17.0
 21
10.0
 31
0.0
  0
LINE
  5
DF
  8
1
 62
     7
 10
22.0
 20
10.0
 30
0.0
 11
26.5
 21
10.0
 31
0.0
  0
LINE
  5
E0
  8
1
 62
     7
 10
4.5
 20
15.0
 30
0.0
 11
3.5
 21
14.0
 31
0.0
  0
LINE
  5
E1
  8
1
 62
     7
 10
26.5
 20
17.449999999999999
 30
0.0
 11
25.5
 21
18.449999999999989
 31
0.0
  0
LINE
  5
E2
  8
1
 62
     7
 10
15.5
 20
18.449999999999989
 30
0.0
 11
14.5
 21
17.449999999999999
 31
0.0
  0
LINE
  5
E3
  8
1
 62
     7
 10
3.5
 20
11.69999999999999
 30
0.0
 11
26.5
 21
11.70000000000001
 31
0.0
  0
LINE
  5
E4
  8
1
  6
DASHED
 62
     7
 10
23.499999999999879
 20
37.0
 30
0.0
 11
23.499999999999879
 21
40.0
 31
0.0
  0
LINE
  5
E5
  8
1
  6
DASHED
 62
     7
 10
17.0
 20
37.0
 30
0.0
 11
17.0
 21
40.0
 31
0.0
  0
LINE
  5
E6
  8
1
  6
DASHED
 62
     7
 10
25.999999999999879
 20
40.0
 30
0.0
 11
25.999999999999879
 21
38.0
 31
0.0
  0
LINE
  5
E7
  8
1
 62
     3
 10
23.499999999999879
 20
15.750000000000011
 30
0.0
 11
17.0
 21
40.0
 31
0.0
  0
LINE
  5
E8
  8
1
 62
     3
 10
17.0
 20
15.750000000000011
 30
0.0
 11
23.499999999999879
 21
40.0
 31
0.0
  0
LINE
  5
E9
  8
1
 62
     7
 10
17.0
 20
32.0
 30
0.0
 11
23.499999999999879
 21
32.0
 31
0.0
  0
LINE
  5
EA
  8
1
 62
     7
 10
17.0
 20
26.000000000000011
 30
0.0
 11
23.499999999999879
 21
26.000000000000011
 31
0.0
  0
LINE
  5
EB
  8
1
 62
     7
 10
-175.13671332607981
 20
11.69999999999999
 30
0.0
 11
-175.13671332607981
 21
9.5393920141694633
 31
0.0
  0
LINE
  5
EC
  8
1
 62
     7
 10
-169.1367133260799
 20
11.69999999999999
 30
0.0
 11
-169.1367133260799
 21
9.5393920141694633
 31
0.0
  0
LINE
  5
ED
  8
1
 62
     7
 10
-175.13671332607981
 20
11.69999999999999
 30
0.0
 11
-169.1367133260799
 21
11.69999999999999
 31
0.0
  0
LINE
  5
EE
  8
1
  6
DASHDOT
 62
     3
 10
-165.56288332949529
 20
6.5738299965846121
 30
0.0
 11
-160.43671332607991
 21
11.69999999999999
 31
0.0
  0
LINE
  5
EF
  8
1
  6
DASHED
 62
     7
 10
-164.39398290515831
 20
6.32851685854859
 30
0.0
 11
-160.138016754257
 21
10.58448300944965
 31
0.0
  0
LINE
  5
F0
  8
1
  6
DASHED
 62
     7
 10
-165.8081964675313
 20
7.7427304209216921
 30
0.0
 11
-161.55223031663019
 21
11.99869657182278
 31
0.0
  0
LINE
  5
F1
  8
1
  6
DASHDOT
 62
     3
 10
-178.71054332266439
 20
6.5738299965845899
 30
0.0
 11
-183.83671332607989
 21
11.69999999999998
 31
0.0
  0
LINE
  5
F2
  8
1
  6
DASHED
 62
     7
 10
-178.46523018462861
 20
7.7427304209216921
 30
0.0
 11
-182.7211963355295
 21
11.998696571822819
 31
0.0
  0
LINE
  5
F3
  8
1
  6
DASHED
 62
     7
 10
-179.87944374700149
 20
6.328516858548582
 30
0.0
 11
-184.13540989790249
 21
10.58448300944969
 31
0.0
  0
LINE
  5
F4
  8
1
  6
DASHDOT
 62
     3
 10
-178.71054332266439
 20
-6.5738299965846156
 30
0.0
 11
-183.83671332607989
 21
-11.70000000000001
 31
0.0
  0
LINE
  5
F5
  8
1
  6
DASHED
 62
     7
 10
-179.87944374700149
 20
-6.3285168585486096
 30
0.0
 11
-184.13540989790249
 21
-10.58448300944967
 31
0.0
  0
LINE
  5
F6
  8
1
  6
DASHED
 62
     7
 10
-178.46523018462861
 20
-7.7427304209217089
 30
0.0
 11
-182.7211963355295
 21
-11.998696571822819
 31
0.0
  0
LINE
  5
F7
  8
1
  6
DASHDOT
 62
     3
 10
-165.56288332949529
 20
-6.5738299965846156
 30
0.0
 11
-160.43671332607991
 21
-11.69999999999999
 31
0.0
  0
LINE
  5
F8
  8
1
  6
DASHED
 62
     7
 10
-165.8081964675313
 20
-7.7427304209217089
 30
0.0
 11
-161.55223031663019
 21
-11.998696571822761
 31
0.0
  0
LINE
  5
F9
  8
1
  6
DASHED
 62
     7
 10
-164.39398290515831
 20
-6.3285168585485989
 30
0.0
 11
-160.138016754257
 21
-10.584483009449681
 31
0.0
  0
LINE
  5
FA
  8
1
 62
     7
 10
-56.499999999999993
 20
-36.0
 30
0.0
 11
-55.999999999999993
 21
-36.0
 31
0.0
  0
LINE
  5
FB
  8
1
 62
     7
 10
-62.999999999999858
 20
-35.5
 30
0.0
 11
-63.499999999999993
 21
-35.5
 31
0.0
  0
LINE
  5
FC
  8
1
 62
     7
 10
-63.5
 20
35.5
 30
0.0
 11
-62.999999999999858
 21
35.5
 31
0.0
  0
LINE
  5
FD
  8
1
 62
     7
 10
-55.999999999999993
 20
36.0
 30
0.0
 11
-56.499999999999993
 21
36.0
 31
0.0
  0
LINE
  5
FE
  8
1
 62
     7
 10
-52.0
 20
40.0
 30
0.0
 11
-50.0
 21
38.0
 31
0.0
  0
LINE
  5
FF
  8
1
 62
     7
 10
-52.0
 20
40.0
 30
0.0
 11
-69.499999999999872
 21
40.0
 31
0.0
  0
LINE
  5
100
  8
1
 62
     7
 10
-52.0
 20
37.0
 30
0.0
 11
-50.0
 21
37.0
 31
0.0
  0
LINE
  5
101
  8
1
 62
     7
 10
-50.0
 20
38.0
 30
0.0
 11
-50.0
 21
37.0
 31
0.0
  0
LINE
  5
102
  8
1
 62
     7
 10
-63.499999999999993
 20
-23.36385035727011
 30
0.0
 11
-51.999999999999879
 21
-23.36385035727011
 31
0.0
  0
LINE
  5
103
  8
1
 62
     7
 10
-51.999999999999879
 20
-23.36385035727011
 30
0.0
 11
-50.0
 21
-22.358545242828878
 31
0.0
  0
LINE
  5
104
  8
1
 62
     7
 10
-52.0
 20
-14.92747254261174
 30
0.0
 11
-50.0
 21
-14.92747254261174
 31
0.0
  0
LINE
  5
105
  8
1
 62
     7
 10
-51.999999999999893
 20
-16.435647126994649
 30
0.0
 11
-63.5
 21
-16.435647126994649
 31
0.0
  0
LINE
  5
106
  8
1
 62
     7
 10
-51.999999999999893
 20
-16.435647126994649
 30
0.0
 11
-50.0
 21
-15.43034201255341
 31
0.0
  0
LINE
  5
107
  8
1
 62
     7
 10
-52.0
 20
38.0
 30
0.0
 11
-52.0
 21
-15.43034201255341
 31
0.0
  0
LINE
  5
108
  8
1
 62
     7
 10
-50.0
 20
-14.92747254261174
 30
0.0
 11
-50.0
 21
-22.358545242828878
 31
0.0
  0
LINE
  5
109
  8
1
 62
     7
 10
-52.0
 20
-15.43034201255341
 30
0.0
 11
-53.999999999999879
 21
-15.43034201255341
 31
0.0
  0
LINE
  5
10A
  8
1
 62
     7
 10
-53.999999999999879
 20
-16.435647126994649
 30
0.0
 11
-54.0
 21
40.0
 31
0.0
  0
LINE
  5
10B
  8
1
 62
     7
 10
-56.0
 20
-14.92747254261174
 30
0.0
 11
-56.500000000000057
 21
-14.92747254261174
 31
0.0
  0
LINE
  5
10C
  8
1
 62
     7
 10
-56.0
 20
40.0
 30
0.0
 11
-56.0
 21
-16.435647126994649
 31
0.0
  0
LINE
  5
10D
  8
1
 62
     7
 10
-56.5
 20
40.0
 30
0.0
 11
-56.50000000000005
 21
-16.435647126994649
 31
0.0
  0
LINE
  5
10E
  8
1
 62
     7
 10
-56.0
 20
37.0
 30
0.0
 11
-56.5
 21
37.0
 31
0.0
  0
LINE
  5
10F
  8
1
 62
     7
 10
-62.999999999999901
 20
37.0
 30
0.0
 11
-63.5
 21
37.0
 31
0.0
  0
LINE
  5
110
  8
1
 62
     7
 10
-62.999999999999901
 20
-14.92747254261174
 30
0.0
 11
-63.5
 21
-14.92747254261174
 31
0.0
  0
LINE
  5
111
  8
1
 62
     3
 10
-62.999999999999901
 20
40.0
 30
0.0
 11
-56.50000000000005
 21
-16.435647126994649
 31
0.0
  0
LINE
  5
112
  8
1
 62
     3
 10
-62.999999999999901
 20
-16.435647126994649
 30
0.0
 11
-56.5
 21
40.0
 31
0.0
  0
LINE
  5
113
  8
1
 62
     3
 10
-56.500000000000021
 20
-23.36385035727011
 30
0.0
 11
-62.999999999999858
 21
-39.993465370038003
 31
0.0
  0
LINE
  5
114
  8
1
 62
     3
 10
-56.499999999999993
 20
-39.993465370038003
 30
0.0
 11
-62.999999999999893
 21
-23.36385035727011
 31
0.0
  0
LINE
  5
115
  8
1
 62
     7
 10
27.99999999999989
 20
-14.92747254261179
 30
0.0
 11
29.99999999999989
 21
-14.92747254261179
 31
0.0
  0
LINE
  5
116
  8
1
 62
     7
 10
29.99999999999989
 20
-14.92747254261179
 30
0.0
 11
29.99999999999989
 21
-22.358545242828949
 31
0.0
  0
LINE
  5
117
  8
1
 62
     7
 10
29.99999999999989
 20
-22.358545242828949
 30
0.0
 11
27.99999999999989
 21
-23.36385035727017
 31
0.0
  0
LINE
  5
118
  8
1
 62
     7
 10
27.99999999999989
 20
-21.855675772887299
 30
0.0
 11
29.99999999999989
 21
-21.855675772887299
 31
0.0
  0
ARC
  5
119
  8
1
 62
     7
 10
-172.13671332607981
 20
0.0
 30
0.0
 40
40.0
 50
93.339369423497416
 51
86.660630576502584
  0
ARC
  5
11A
  8
1
  6
DASHDOT
 62
     3
 10
-172.13671332607981
 20
0.0
 30
0.0
 40
21.000000000000039
 50
352.08363576054859
 51
7.9433095967175831
  0
ARC
  5
11B
  8
1
  6
DASHDOT
 62
     3
 10
-172.13671332607981
 20
0.0
 30
0.0
 40
21.0
 50
262.08363576054882
 51
277.94330959671743
  0
ARC
  5
11C
  8
1
  6
DASHDOT
 62
     3
 10
-172.13671332607981
 20
0.0
 30
0.0
 40
20.999999999999929
 50
172.0836357605485
 51
187.94330959671751
  0
ARC
  5
11D
  8
1
  6
DASHDOT
 62
     3
 10
-172.13671332607981
 20
0.0
 30
0.0
 40
21.0
 50
82.083635760548802
 51
97.943309596717498
  0
ARC
  5
11E
  8
1
 62
     7
 10
-172.13671332607981
 20
0.0
 30
0.0
 40
10.0
 50
107.45760312372209
 51
72.54239687627792
  0
CIRCLE
  5
11F
  8
1
 62
     7
 10
-172.13671332607981
 20
0.0
 30
0.0
 40
36.5
  0
CIRCLE
  5
120
  8
1
 62
     7
 10
-172.13671332607981
 20
0.0
 30
0.0
 40
35.5
  0
CIRCLE
  5
121
  8
1
 62
     7
 10
-172.13671332607981
 20
0.0
 30
0.0
 40
16.0
  0
CIRCLE
  5
122
  8
1
 62
     3
 10
-151.13671332607981
 20
0.0
 30
0.0
 40
2.5
  0
CIRCLE
  5
123
  8
1
 62
     7
 10
-151.13671332607981
 20
0.0
 30
0.0
 40
1.900000000000005
  0
CIRCLE
  5
124
  8
1
 62
     3
 10
-172.13671332607981
 20
-21.0
 30
0.0
 40
2.5
  0
CIRCLE
  5
125
  8
1
 62
     7
 10
-172.13671332607981
 20
-21.0
 30
0.0
 40
1.900000000000005
  0
CIRCLE
  5
126
  8
1
 62
     3
 10
-193.1367133260799
 20
-0.0000000000000071
 30
0.0
 40
2.5
  0
CIRCLE
  5
127
  8
1
 62
     7
 10
-193.1367133260799
 20
-0.0000000000000071
 30
0.0
 40
1.900000000000005
  0
CIRCLE
  5
128
  8
1
 62
     3
 10
-172.13671332607981
 20
21.0
 30
0.0
 40
2.5
  0
CIRCLE
  5
129
  8
1
 62
     7
 10
-172.13671332607981
 20
21.0
 30
0.0
 40
1.8999999999998911
  0
CIRCLE
  5
12A
  8
1
 62
     7
 10
-172.13671332607981
 20
0.0
 30
0.0
 40
15.0
  0
TEXT
  5
12C
  8
1
 62
     7
 10
-184.5655830769293
 20
89.412348655271089
 30
0.0
 40
3.5
  1
MWB 1.2
 41
0.9
  7
SIMPLEX
  0
INSERT
  5
12D
  8
0
  2
_X2
 10
0.0
 20
0.0
 30
0.0
  0
INSERT
  5
12E
  8
0
  2
_X1
 10
0.0
 20
0.0
 30
0.0
  0
INSERT
  5
12F
  8
0
  2
_X0
 10
0.0
 20
0.0
 30
0.0
  0
ENDSEC
  0
EOF
