  0
SECTION
  2
HEADER
  9
$ACADVER
  1
AC1009
  9
$INSBASE
 10
0.0
 20
0.0
 30
0.0
  9
$EXTMIN
 10
-368.60000000000002
 20
-78.500000000000071
 30
0.0
  9
$EXTMAX
 10
56.59999999999993
 20
137.31122473141389
 30
0.0
  9
$LIMMIN
 10
-368.60000000000002
 20
-78.500000000000071
  9
$LIMMAX
 10
56.59999999999993
 20
137.31122473141389
  9
$ORTHOMODE
 70
     0
  9
$REGENMODE
 70
     1
  9
$FILLMODE
 70
     1
  9
$QTEXTMODE
 70
     0
  9
$MIRRTEXT
 70
     1
  9
$DRAGMODE
 70
     2
  9
$LTSCALE
 40
1.0
  9
$OSMODE
 70
    37
  9
$ATTMODE
 70
     1
  9
$TEXTSIZE
 40
3.5
  9
$TRACEWID
 40
0.5
  9
$TEXTSTYLE
  7
STANDARD
  9
$CLAYER
  8
0
  9
$CELTYPE
  6
BYLAYER
  9
$CECOLOR
 62
   256
  9
$DIMSCALE
 40
1.0
  9
$DIMASZ
 40
0.18
  9
$DIMEXO
 40
0.0625
  9
$DIMDLI
 40
0.38
  9
$DIMRND
 40
0.0
  9
$DIMDLE
 40
0.0
  9
$DIMEXE
 40
0.18
  9
$DIMTP
 40
0.0
  9
$DIMTM
 40
0.0
  9
$DIMTXT
 40
0.18
  9
$DIMCEN
 40
0.09
  9
$DIMTSZ
 40
0.0
  9
$DIMTOL
 70
     0
  9
$DIMLIM
 70
     0
  9
$DIMTIH
 70
     1
  9
$DIMTOH
 70
     1
  9
$DIMSE1
 70
     0
  9
$DIMSE2
 70
     0
  9
$DIMTAD
 70
     0
  9
$DIMZIN
 70
     0
  9
$DIMBLK
  1

  9
$DIMASO
 70
     1
  9
$DIMSHO
 70
     1
  9
$DIMPOST
  1

  9
$DIMAPOST
  1

  9
$DIMALT
 70
     0
  9
$DIMALTD
 70
     2
  9
$DIMALTF
 40
25.399999999999999
  9
$DIMLFAC
 40
1.0
  9
$DIMTOFL
 70
     0
  9
$DIMTVP
 40
0.0
  9
$DIMTIX
 70
     0
  9
$DIMSOXD
 70
     0
  9
$DIMSAH
 70
     0
  9
$DIMBLK1
  1

  9
$DIMBLK2
  1

  9
$DIMSTYLE
  2
STANDARD
  9
$DIMCLRD
 70
     0
  9
$DIMCLRE
 70
     0
  9
$DIMCLRT
 70
     0
  9
$DIMTFAC
 40
1.0
  9
$DIMGAP
 40
0.09
  9
$LUNITS
 70
     2
  9
$LUPREC
 70
     4
  9
$SKETCHINC
 40
0.1
  9
$FILLETRAD
 40
2.0
  9
$AUNITS
 70
     0
  9
$AUPREC
 70
     0
  9
$MENU
  1
ACAD
  9
$ELEVATION
 40
0.0
  9
$PELEVATION
 40
0.0
  9
$THICKNESS
 40
0.0
  9
$LIMCHECK
 70
     0
  9
$BLIPMODE
 70
     0
  9
$CHAMFERA
 40
0.0
  9
$CHAMFERB
 40
0.0
  9
$SKPOLY
 70
     0
  9
$TDCREATE
 40
2452095.0724837962
  9
$TDUPDATE
 40
2452095.072939584
  9
$TDINDWG
 40
0.000472338
  9
$TDUSRTIMER
 40
0.000472338
  9
$USRTIMER
 70
     1
  9
$ANGBASE
 50
0.0
  9
$ANGDIR
 70
     0
  9
$PDMODE
 70
     0
  9
$PDSIZE
 40
0.0
  9
$PLINEWID
 40
0.0
  9
$COORDS
 70
     1
  9
$SPLFRAME
 70
     0
  9
$SPLINETYPE
 70
     6
  9
$SPLINESEGS
 70
     8
  9
$ATTDIA
 70
     0
  9
$ATTREQ
 70
     1
  9
$HANDLING
 70
 10241
  9
$HANDSEED
  5
171
  9
$SURFTAB1
 70
     6
  9
$SURFTAB2
 70
     6
  9
$SURFTYPE
 70
     6
  9
$SURFU
 70
     6
  9
$SURFV
 70
     6
  9
$UCSNAME
  2

  9
$UCSORG
 10
0.0
 20
0.0
 30
0.0
  9
$UCSXDIR
 10
1.0
 20
0.0
 30
0.0
  9
$UCSYDIR
 10
0.0
 20
1.0
 30
0.0
  9
$PUCSNAME
  2

  9
$PUCSORG
 10
0.0
 20
0.0
 30
0.0
  9
$PUCSXDIR
 10
1.0
 20
0.0
 30
0.0
  9
$PUCSYDIR
 10
0.0
 20
1.0
 30
0.0
  9
$USERI1
 70
     0
  9
$USERI2
 70
     0
  9
$USERI3
 70
     0
  9
$USERI4
 70
     0
  9
$USERI5
 70
     0
  9
$USERR1
 40
0.0
  9
$USERR2
 40
0.0
  9
$USERR3
 40
0.0
  9
$USERR4
 40
0.0
  9
$USERR5
 40
0.0
  9
$WORLDVIEW
 70
     1
  9
$SHADEDGE
 70
     3
  9
$SHADEDIF
 70
    70
  9
$TILEMODE
 70
     1
  9
$MAXACTVP
 70
    64
  9
$PLIMCHECK
 70
     0
  9
$PEXTMIN
 10
1.0000000000000000E+020
 20
1.0000000000000000E+020
 30
1.0000000000000000E+020
  9
$PEXTMAX
 10
-1.0000000000000000E+020
 20
-1.0000000000000000E+020
 30
-1.0000000000000000E+020
  9
$PLIMMIN
 10
0.0
 20
0.0
  9
$PLIMMAX
 10
12.0
 20
9.0
  9
$UNITMODE
 70
     0
  9
$VISRETAIN
 70
     1
  9
$PLINEGEN
 70
     0
  9
$PSLTSCALE
 70
     1
  0
ENDSEC
  0
SECTION
  2
TABLES
  0
TABLE
  2
VPORT
 70
     2
  0
VPORT
  2
*ACTIVE
 70
     0
 10
0.0
 20
0.0
 11
1.0
 21
1.0
 12
-285.3898933009915
 22
133.0533767302706
 13
0.0
 23
0.0
 14
1.0
 24
1.0
 15
0.0
 25
0.0
 16
0.0
 26
0.0
 36
1.0
 17
0.0
 27
0.0
 37
0.0
 40
9.0000000770768338
 41
2.4144144144144142
 42
50.0
 43
0.0
 44
0.0
 50
0.0
 51
0.0
 71
     0
 72
   100
 73
     1
 74
     1
 75
     0
 76
     0
 77
     0
 78
     0
  0
ENDTAB
  0
TABLE
  2
LTYPE
 70
     9
  0
LTYPE
  2
CONTINUOUS
 70
     0
  3
Solid line
 72
    65
 73
     0
 40
0.0
  0
LTYPE
  2
BORDER
 70
     0
  3
__ __ . __ __ .
 72
    65
 73
     6
 40
19.581578947368421
 49
5.5947368421052621
 49
-2.7973684210526311
 49
5.5947368421052621
 49
-2.7973684210526311
 49
0.0
 49
-2.7973684210526311
  0
LTYPE
  2
CENTER
 70
     0
  3
____ _ ____ _
 72
    65
 73
     4
 40
22.378947368421041
 49
13.98684210526315
 49
-2.7973684210526311
 49
2.7973684210526311
 49
-2.7973684210526311
  0
LTYPE
  2
DASHDOT
 70
     0
  3
__ . __ . __ .
 72
    65
 73
     4
 40
11.189473684210521
 49
5.5947368421052621
 49
-2.7973684210526311
 49
0.0
 49
-2.7973684210526311
  0
LTYPE
  2
DASHED
 70
     0
  3
__ __ __ __ __
 72
    65
 73
     2
 40
8.3921052631578927
 49
5.5947368421052621
 49
-2.7973684210526311
  0
LTYPE
  2
DIVIDE
 70
     0
  3
__ . . __ . . 
 72
    65
 73
     6
 40
13.98684210526315
 49
5.5947368421052621
 49
-2.7973684210526311
 49
0.0
 49
-2.7973684210526311
 49
0.0
 49
-2.7973684210526311
  0
LTYPE
  2
DOT
 70
     0
  3
..............
 72
    65
 73
     4
 40
5.5947368421052621
 49
0.0
 49
-2.7973684210526311
 49
0.0
 49
-2.7973684210526311
  0
LTYPE
  2
HIDDEN
 70
     0
  3
_ _ _ _ _ _ _
 72
    65
 73
     2
 40
4.1960526315789464
 49
2.7973684210526311
 49
-1.3986842105263151
  0
LTYPE
  2
PHANTOM
 70
     0
  3
_____ _ _ _____ _ _ 
 72
    65
 73
     6
 40
27.973684210526311
 49
13.98684210526315
 49
-2.7973684210526311
 49
2.7973684210526311
 49
-2.7973684210526311
 49
2.7973684210526311
 49
-2.7973684210526311
  0
ENDTAB
  0
TABLE
  2
LAYER
 70
     2
  0
LAYER
  2
0
 70
     0
 62
     7
  6
CONTINUOUS
  0
LAYER
  2
1
 70
     0
 62
     7
  6
CONTINUOUS
  0
ENDTAB
  0
TABLE
  2
STYLE
 70
     4
  0
STYLE
  2
STANDARD
 70
     0
 40
0.0
 41
1.0
 50
0.0
 71
     0
 42
3.5
  3
txt
  4

  0
STYLE
  2
SIMPLEX
 70
     0
 40
0.0
 41
1.0
 50
0.0
 71
     0
 42
3.5
  3
simplex
  4

  0
STYLE
  2
COMPLEX
 70
     0
 40
0.0
 41
1.0
 50
0.0
 71
     0
 42
3.5
  3
complex
  4

  0
STYLE
  2
ITALIC
 70
     0
 40
0.0
 41
1.0
 50
0.0
 71
     0
 42
3.5
  3
italic
  4

  0
ENDTAB
  0
TABLE
  2
VIEW
 70
     0
  0
ENDTAB
  0
TABLE
  2
UCS
 70
     0
  0
ENDTAB
  0
TABLE
  2
APPID
 70
     1
  0
APPID
  2
ACAD
 70
     0
  0
ENDTAB
  0
TABLE
  2
DIMSTYLE
 70
     1
  0
DIMSTYLE
  2
STANDARD
 70
     0
  3

  4

  5

  6

  7

 40
1.0
 41
0.18
 42
0.0625
 43
0.38
 44
0.18
 45
0.0
 46
0.0
 47
0.0
 48
0.0
140
0.18
141
0.09
142
0.0
143
25.399999999999999
144
1.0
145
0.0
146
1.0
147
0.09
 71
     0
 72
     0
 73
     1
 74
     1
 75
     0
 76
     0
 77
     0
 78
     0
170
     0
171
     2
172
     0
173
     0
174
     0
175
     0
176
     0
177
     0
178
     0
  0
ENDTAB
  0
ENDSEC
  0
SECTION
  2
BLOCKS
  0
BLOCK
  8
0
  2
$MODEL_SPACE
 70
     0
 10
0.0
 20
0.0
 30
0.0
  3
$MODEL_SPACE
  1

  0
ENDBLK
  5
20
  8
0
  0
BLOCK
 67
     1
  8
0
  2
$PAPER_SPACE
 70
     0
 10
0.0
 20
0.0
 30
0.0
  3
$PAPER_SPACE
  1

  0
ENDBLK
  5
1C
 67
     1
  8
0
  0
BLOCK
  8
0
  2
_X1
 70
     0
 10
0.0
 20
0.0
 30
0.0
  3
_X1
  1

  0
ENDBLK
  5
35
  8
0
  0
BLOCK
  8
0
  2
_X0
 70
     0
 10
0.0
 20
0.0
 30
0.0
  3
_X0
  1

  0
ENDBLK
  5
38
  8
0
  0
ENDSEC
  0
SECTION
  2
ENTITIES
  0
LINE
  5
39
  8
1
  6
DASHDOT
 62
     3
 10
-240.20206797492381
 20
-0.0000000000000568
 30
0.0
 11
-249.97804292971699
 21
-0.0000000000000568
 31
0.0
  0
LINE
  5
3A
  8
1
  6
DASHDOT
 62
     3
 10
-290.10000000000008
 20
-49.897932025076052
 30
0.0
 11
-290.10000000000008
 21
-40.121957070283088
 31
0.0
  0
LINE
  5
3B
  8
1
  6
DASHDOT
 62
     3
 10
-339.99793202507601
 20
0.0
 30
0.0
 11
-330.22195707028288
 21
0.0
 31
0.0
  0
LINE
  5
3C
  8
1
  6
DASHDOT
 62
     3
 10
-290.10000000000002
 20
49.897932025076052
 30
0.0
 11
-290.10000000000002
 21
40.121957070283031
 31
0.0
  0
LINE
  5
3D
  8
1
  6
DASHDOT
 62
     3
 10
-290.10000000000002
 20
3.6831191973190021
 30
0.0
 11
-290.10000000000002
 21
-3.6831191973189439
 31
0.0
  0
LINE
  5
3E
  8
1
  6
DASHDOT
 62
     3
 10
-286.41688080268102
 20
0.0
 30
0.0
 11
-293.78311919731891
 21
0.0
 31
0.0
  0
LINE
  5
3F
  8
1
 62
     3
 10
-87.999999999999943
 20
-33.93902995836828
 30
0.0
 11
-102.59999999999999
 21
33.939029958368216
 31
0.0
  0
LINE
  5
40
  8
1
 62
     3
 10
-87.999999999999943
 20
33.939029958368216
 30
0.0
 11
-102.59999999999999
 21
-33.93902995836828
 31
0.0
  0
LINE
  5
41
  8
1
 62
     7
 10
-86.599999999999966
 20
31.180350982651021
 30
0.0
 11
-86.599999999999966
 21
-31.18035098265096
 31
0.0
  0
LINE
  5
42
  8
1
 62
     7
 10
-84.499999999999972
 20
31.180350982651021
 30
0.0
 11
-84.499999999999972
 21
-31.18035098265096
 31
0.0
  0
LINE
  5
43
  8
1
 62
     7
 10
-79.999999999999972
 20
-31.18035098265096
 30
0.0
 11
-79.999999999999972
 21
31.180350982651021
 31
0.0
  0
LINE
  5
44
  8
1
 62
     7
 10
-80.499999999999972
 20
32.43445347196365
 30
0.0
 11
-80.499999999999972
 21
-32.43445347196365
 31
0.0
  0
LINE
  5
45
  8
1
 62
     7
 10
-82.999999999999972
 20
32.43445347196365
 30
0.0
 11
-82.999999999999972
 21
-32.43445347196365
 31
0.0
  0
LINE
  5
46
  8
1
 62
     7
 10
-87.999999999999943
 20
33.939029958368216
 30
0.0
 11
-87.999999999999943
 21
-33.93902995836828
 31
0.0
  0
LINE
  5
47
  8
1
 62
     7
 10
-102.59999999999999
 20
33.939029958368216
 30
0.0
 11
-102.59999999999999
 21
-33.93902995836828
 31
0.0
  0
LINE
  5
48
  8
1
 62
     7
 10
-103.09999999999989
 20
33.939029958368216
 30
0.0
 11
-103.09999999999989
 21
-33.93902995836828
 31
0.0
  0
LINE
  5
49
  8
1
 62
     7
 10
-113.59999999999989
 20
78.5
 30
0.0
 11
-113.59999999999989
 21
-78.5
 31
0.0
  0
LINE
  5
4A
  8
1
 62
     7
 10
-115.59999999999989
 20
71.0
 30
0.0
 11
-115.59999999999989
 21
-71.000000000000071
 31
0.0
  0
LINE
  5
4B
  8
1
 62
     7
 10
-129.59999999999999
 20
-71.000000000000071
 30
0.0
 11
-129.59999999999999
 21
71.0
 31
0.0
  0
LINE
  5
4C
  8
1
 62
     3
 10
-102.59999999999999
 20
-78.5
 30
0.0
 11
-87.999999999999943
 21
-44.33133480378153
 31
0.0
  0
LINE
  5
4D
  8
1
 62
     3
 10
-102.59999999999999
 20
-44.33133480378153
 30
0.0
 11
-87.999999999999943
 21
-78.5
 31
0.0
  0
LINE
  5
4E
  8
1
 62
     7
 10
-102.59999999999999
 20
-70.0
 30
0.0
 11
-103.09999999999989
 21
-70.0
 31
0.0
  0
LINE
  5
4F
  8
1
 62
     7
 10
-103.09999999999989
 20
-44.33133480378153
 30
0.0
 11
-103.09999999999989
 21
-78.5
 31
0.0
  0
LINE
  5
50
  8
1
 62
     7
 10
-79.999999999999972
 20
-67.0
 30
0.0
 11
-79.999999999999972
 21
-44.180889019059343
 31
0.0
  0
LINE
  5
51
  8
1
 62
     7
 10
-79.999999999999972
 20
-67.0
 30
0.0
 11
-80.499999999999972
 21
-67.0
 31
0.0
  0
LINE
  5
52
  8
1
 62
     7
 10
-86.599999999999966
 20
-72.5
 30
0.0
 11
-86.599999999999966
 21
-44.33133480378153
 31
0.0
  0
LINE
  5
53
  8
1
 62
     7
 10
-84.499999999999972
 20
-72.5
 30
0.0
 11
-84.499999999999972
 21
-44.33133480378153
 31
0.0
  0
LINE
  5
54
  8
1
 62
     7
 10
-82.999999999999972
 20
-73.0
 30
0.0
 11
-87.999999999999943
 21
-73.0
 31
0.0
  0
LINE
  5
55
  8
1
 62
     7
 10
-87.999999999999943
 20
-78.5
 30
0.0
 11
-87.999999999999943
 21
-44.33133480378153
 31
0.0
  0
LINE
  5
56
  8
1
 62
     7
 10
-87.999999999999943
 20
-31.18035098265096
 30
0.0
 11
-82.999999999999972
 21
-31.18035098265096
 31
0.0
  0
LINE
  5
57
  8
1
 62
     7
 10
-80.499999999999972
 20
-32.43445347196365
 30
0.0
 11
-82.999999999999972
 21
-32.43445347196365
 31
0.0
  0
LINE
  5
58
  8
1
 62
     7
 10
-78.599999999999966
 20
-31.18035098265096
 30
0.0
 11
-80.499999999999972
 21
-31.18035098265096
 31
0.0
  0
LINE
  5
59
  8
1
 62
     7
 10
-102.59999999999999
 20
-31.18035098265096
 30
0.0
 11
-103.09999999999989
 21
-31.18035098265096
 31
0.0
  0
LINE
  5
5A
  8
1
 62
     7
 10
-103.09999999999989
 20
-33.93902995836828
 30
0.0
 11
-80.599999999999966
 21
-33.93902995836828
 31
0.0
  0
LINE
  5
5B
  8
1
 62
     7
 10
-80.599999999999966
 20
-33.93902995836828
 30
0.0
 11
-80.599999999999966
 21
-44.33133480378153
 31
0.0
  0
LINE
  5
5C
  8
1
 62
     7
 10
-78.599999999999966
 20
-33.437544009294299
 30
0.0
 11
-80.599999999999966
 21
-33.93902995836828
 31
0.0
  0
LINE
  5
5D
  8
1
 62
     7
 10
-78.599999999999966
 20
-31.18035098265096
 30
0.0
 11
-78.599999999999966
 21
-43.82984885470745
 31
0.0
  0
LINE
  5
5E
  8
1
 62
     7
 10
-78.599999999999966
 20
-43.82984885470745
 30
0.0
 11
-80.599999999999966
 21
-44.33133480378153
 31
0.0
  0
LINE
  5
5F
  8
1
 62
     7
 10
-80.599999999999966
 20
-44.33133480378153
 30
0.0
 11
-103.09999999999989
 21
-44.33133480378153
 31
0.0
  0
LINE
  5
60
  8
1
 62
     7
 10
-102.59999999999999
 20
-78.5
 30
0.0
 11
-102.59999999999999
 21
-44.33133480378153
 31
0.0
  0
LINE
  5
61
  8
1
 62
     7
 10
-86.599999999999966
 20
-72.5
 30
0.0
 11
-87.999999999999943
 21
-72.5
 31
0.0
  0
LINE
  5
62
  8
1
 62
     7
 10
-82.999999999999972
 20
-72.5
 30
0.0
 11
-84.499999999999972
 21
-72.5
 31
0.0
  0
LINE
  5
63
  8
1
 62
     7
 10
-80.499999999999972
 20
-75.5
 30
0.0
 11
-80.499999999999972
 21
-44.306260506327867
 31
0.0
  0
LINE
  5
64
  8
1
 62
     7
 10
-114.59999999999989
 20
-72.0
 30
0.0
 11
-115.59999999999989
 21
-71.000000000000071
 31
0.0
  0
LINE
  5
65
  8
1
 62
     7
 10
-113.59999999999989
 20
-78.5
 30
0.0
 11
-80.599999999999966
 21
-78.5
 31
0.0
  0
LINE
  5
66
  8
1
 62
     7
 10
-78.599999999999966
 20
-76.5
 30
0.0
 11
-78.599999999999966
 21
-74.0
 31
0.0
  0
LINE
  5
67
  8
1
 62
     7
 10
-78.599999999999966
 20
-74.0
 30
0.0
 11
-80.499999999999972
 21
-74.0
 31
0.0
  0
LINE
  5
68
  8
1
 62
     7
 10
-80.499999999999972
 20
-75.5
 30
0.0
 11
-82.999999999999972
 21
-75.5
 31
0.0
  0
LINE
  5
69
  8
1
 62
     7
 10
-82.999999999999972
 20
-75.5
 30
0.0
 11
-82.999999999999972
 21
-44.33133480378153
 31
0.0
  0
LINE
  5
6A
  8
1
 62
     7
 10
-102.59999999999999
 20
-73.0
 30
0.0
 11
-103.09999999999989
 21
-73.0
 31
0.0
  0
LINE
  5
6B
  8
1
 62
     7
 10
-78.599999999999966
 20
-76.5
 30
0.0
 11
-80.599999999999966
 21
-78.5
 31
0.0
  0
LINE
  5
6C
  8
1
 62
     7
 10
-113.59999999999989
 20
-78.5
 30
0.0
 11
-114.59999999999989
 21
-77.5
 31
0.0
  0
LINE
  5
6D
  8
1
 62
     3
 10
-87.999999999999943
 20
44.331334803781601
 30
0.0
 11
-102.59999999999999
 21
78.5
 31
0.0
  0
LINE
  5
6E
  8
1
 62
     3
 10
-87.999999999999943
 20
78.5
 30
0.0
 11
-102.59999999999999
 21
44.331334803781601
 31
0.0
  0
LINE
  5
6F
  8
1
 62
     7
 10
-103.09999999999989
 20
70.0
 30
0.0
 11
-102.59999999999999
 21
70.0
 31
0.0
  0
LINE
  5
70
  8
1
 62
     7
 10
-103.09999999999989
 20
78.5
 30
0.0
 11
-103.09999999999989
 21
44.331334803781601
 31
0.0
  0
LINE
  5
71
  8
1
 62
     7
 10
-79.999999999999972
 20
44.180889019059343
 30
0.0
 11
-79.999999999999972
 21
67.0
 31
0.0
  0
LINE
  5
72
  8
1
 62
     7
 10
-80.499999999999972
 20
44.30626050632781
 30
0.0
 11
-80.499999999999972
 21
75.5
 31
0.0
  0
LINE
  5
73
  8
1
 62
     7
 10
-80.499999999999972
 20
67.0
 30
0.0
 11
-79.999999999999972
 21
67.0
 31
0.0
  0
LINE
  5
74
  8
1
 62
     7
 10
-82.999999999999972
 20
44.331334803781601
 30
0.0
 11
-82.999999999999972
 21
75.5
 31
0.0
  0
LINE
  5
75
  8
1
 62
     7
 10
-86.599999999999966
 20
44.331334803781601
 30
0.0
 11
-86.599999999999966
 21
72.5
 31
0.0
  0
LINE
  5
76
  8
1
 62
     7
 10
-84.499999999999972
 20
44.331334803781601
 30
0.0
 11
-84.499999999999972
 21
72.5
 31
0.0
  0
LINE
  5
77
  8
1
 62
     7
 10
-87.999999999999943
 20
73.0
 30
0.0
 11
-82.999999999999972
 21
73.0
 31
0.0
  0
LINE
  5
78
  8
1
 62
     7
 10
-87.999999999999943
 20
44.331334803781601
 30
0.0
 11
-87.999999999999943
 21
78.5
 31
0.0
  0
LINE
  5
79
  8
1
 62
     7
 10
-82.999999999999972
 20
31.180350982651021
 30
0.0
 11
-87.999999999999943
 21
31.180350982651021
 31
0.0
  0
LINE
  5
7A
  8
1
 62
     7
 10
-82.999999999999972
 20
32.43445347196365
 30
0.0
 11
-80.499999999999972
 21
32.43445347196365
 31
0.0
  0
LINE
  5
7B
  8
1
 62
     7
 10
-80.499999999999972
 20
31.180350982651021
 30
0.0
 11
-78.599999999999966
 21
31.180350982651021
 31
0.0
  0
LINE
  5
7C
  8
1
 62
     7
 10
-103.09999999999989
 20
31.180350982651021
 30
0.0
 11
-102.59999999999999
 21
31.180350982651021
 31
0.0
  0
LINE
  5
7D
  8
1
 62
     7
 10
-80.599999999999966
 20
33.939029958368216
 30
0.0
 11
-103.09999999999989
 21
33.939029958368216
 31
0.0
  0
LINE
  5
7E
  8
1
 62
     7
 10
-80.599999999999966
 20
44.331334803781601
 30
0.0
 11
-80.599999999999966
 21
33.939029958368216
 31
0.0
  0
LINE
  5
7F
  8
1
 62
     7
 10
-80.599999999999966
 20
33.939029958368216
 30
0.0
 11
-78.599999999999966
 21
33.437544009294228
 31
0.0
  0
LINE
  5
80
  8
1
 62
     7
 10
-78.599999999999966
 20
43.8298488547075
 30
0.0
 11
-78.599999999999966
 21
31.180350982651021
 31
0.0
  0
LINE
  5
81
  8
1
 62
     7
 10
-80.599999999999966
 20
44.331334803781601
 30
0.0
 11
-78.599999999999966
 21
43.8298488547075
 31
0.0
  0
LINE
  5
82
  8
1
 62
     7
 10
-103.09999999999989
 20
44.331334803781601
 30
0.0
 11
-80.599999999999966
 21
44.331334803781601
 31
0.0
  0
LINE
  5
83
  8
1
 62
     7
 10
-121.1999999999999
 20
105.4608905768829
 30
0.0
 11
-121.1999999999999
 21
101.4608905768829
 31
0.0
  0
LINE
  5
84
  8
1
 62
     7
 10
-120.90000000000001
 20
105.4608905768829
 30
0.0
 11
-120.90000000000001
 21
101.4608905768829
 31
0.0
  0
LINE
  5
85
  8
1
 62
     7
 10
-119.9999999999999
 20
105.4608905768829
 30
0.0
 11
-119.9999999999999
 21
101.4608905768829
 31
0.0
  0
LINE
  5
86
  8
1
 62
     7
 10
-120.3
 20
105.4608905768829
 30
0.0
 11
-120.3
 21
101.4608905768829
 31
0.0
  0
LINE
  5
87
  8
1
 62
     7
 10
-120.59999999999989
 20
105.4608905768829
 30
0.0
 11
-120.59999999999989
 21
101.4608905768829
 31
0.0
  0
LINE
  5
88
  8
1
 62
     3
 10
-131.59999999999991
 20
0.0
 30
0.0
 11
-136.59999999999991
 21
0.0
 31
0.0
  0
LINE
  5
89
  8
1
 62
     7
 10
-102.59999999999999
 20
44.331334803781601
 30
0.0
 11
-102.59999999999999
 21
78.5
 31
0.0
  0
LINE
  5
8A
  8
1
 62
     7
 10
-121.91500000000001
 20
71.0
 30
0.0
 11
-121.91500000000001
 21
101.4608905768829
 31
0.0
  0
LINE
  5
8B
  8
1
 62
     7
 10
-87.999999999999943
 20
72.5
 30
0.0
 11
-86.599999999999966
 21
72.5
 31
0.0
  0
LINE
  5
8C
  8
1
 62
     7
 10
-84.499999999999972
 20
72.5
 30
0.0
 11
-82.999999999999972
 21
72.5
 31
0.0
  0
LINE
  5
8D
  8
1
 62
     7
 10
-129.59999999999999
 20
-71.000000000000071
 30
0.0
 11
-115.59999999999989
 21
-71.000000000000071
 31
0.0
  0
LINE
  5
8E
  8
1
 62
     7
 10
-130.59999999999999
 20
-70.000000000000071
 30
0.0
 11
-130.59999999999999
 21
70.0
 31
0.0
  0
LINE
  5
8F
  8
1
 62
     7
 10
-130.59999999999999
 20
-55.000000000000071
 30
0.0
 11
-131.59999999999991
 21
-55.000000000000071
 31
0.0
  0
LINE
  5
90
  8
1
 62
     7
 10
-130.59999999999999
 20
-70.000000000000071
 30
0.0
 11
-129.59999999999999
 21
-71.000000000000071
 31
0.0
  0
LINE
  5
91
  8
1
 62
     7
 10
-131.59999999999991
 20
-55.000000000000071
 30
0.0
 11
-131.59999999999991
 21
55.0
 31
0.0
  0
LINE
  5
92
  8
1
 62
     3
 10
-74.999999999999972
 20
0.0
 30
0.0
 11
-79.999999999999972
 21
0.0
 31
0.0
  0
LINE
  5
93
  8
1
 62
     7
 10
-119.2849999999999
 20
101.4608905768829
 30
0.0
 11
-121.91500000000001
 21
101.4608905768829
 31
0.0
  0
LINE
  5
94
  8
1
 62
     7
 10
-119.2849999999999
 20
101.4608905768829
 30
0.0
 11
-119.2849999999999
 21
71.0
 31
0.0
  0
LINE
  5
95
  8
1
 62
     7
 10
-129.59999999999999
 20
71.0
 30
0.0
 11
-115.59999999999989
 21
71.0
 31
0.0
  0
LINE
  5
96
  8
1
 62
     7
 10
-114.59999999999989
 20
77.5
 30
0.0
 11
-114.59999999999989
 21
-77.5
 31
0.0
  0
LINE
  5
97
  8
1
 62
     7
 10
-115.59999999999989
 20
71.0
 30
0.0
 11
-114.59999999999989
 21
72.0
 31
0.0
  0
LINE
  5
98
  8
1
 62
     7
 10
-80.599999999999966
 20
78.5
 30
0.0
 11
-113.59999999999989
 21
78.5
 31
0.0
  0
LINE
  5
99
  8
1
 62
     7
 10
-78.599999999999966
 20
74.0
 30
0.0
 11
-78.599999999999966
 21
76.5
 31
0.0
  0
LINE
  5
9A
  8
1
 62
     7
 10
-80.499999999999972
 20
74.0
 30
0.0
 11
-78.599999999999966
 21
74.0
 31
0.0
  0
LINE
  5
9B
  8
1
 62
     7
 10
-82.999999999999972
 20
75.5
 30
0.0
 11
-80.499999999999972
 21
75.5
 31
0.0
  0
LINE
  5
9C
  8
1
 62
     7
 10
-103.09999999999989
 20
73.0
 30
0.0
 11
-102.59999999999999
 21
73.0
 31
0.0
  0
LINE
  5
9D
  8
1
 62
     7
 10
-80.599999999999966
 20
78.5
 30
0.0
 11
-78.599999999999966
 21
76.5
 31
0.0
  0
LINE
  5
9E
  8
1
 62
     7
 10
-114.59999999999989
 20
77.5
 30
0.0
 11
-113.59999999999989
 21
78.5
 31
0.0
  0
LINE
  5
9F
  8
1
 62
     7
 10
-131.59999999999991
 20
55.0
 30
0.0
 11
-130.59999999999999
 21
55.0
 31
0.0
  0
LINE
  5
A0
  8
1
 62
     7
 10
-129.59999999999999
 20
71.0
 30
0.0
 11
-130.59999999999999
 21
70.0
 31
0.0
  0
LINE
  5
A1
  8
1
 62
     7
 10
10.39999999999994
 20
105.4608905768829
 30
0.0
 11
10.39999999999994
 21
101.4608905768829
 31
0.0
  0
LINE
  5
A2
  8
1
 62
     7
 10
10.69999999999996
 20
105.4608905768829
 30
0.0
 11
10.69999999999996
 21
101.4608905768829
 31
0.0
  0
LINE
  5
A3
  8
1
 62
     7
 10
11.599999999999991
 20
105.4608905768829
 30
0.0
 11
11.599999999999991
 21
101.4608905768829
 31
0.0
  0
LINE
  5
A4
  8
1
 62
     7
 10
11.299999999999979
 20
105.4608905768829
 30
0.0
 11
11.299999999999979
 21
101.4608905768829
 31
0.0
  0
LINE
  5
A5
  8
1
 62
     7
 10
10.99999999999997
 20
105.4608905768829
 30
0.0
 11
10.99999999999997
 21
101.4608905768829
 31
0.0
  0
LINE
  5
A6
  8
1
 62
     3
 10
0.0
 20
0.0
 30
0.0
 11
-4.9999999999999707
 21
0.0
 31
0.0
  0
LINE
  5
A7
  8
1
 62
     7
 10
49.59999999999993
 20
42.5
 30
0.0
 11
49.59999999999993
 21
-42.500000000000057
 31
0.0
  0
LINE
  5
A8
  8
1
  6
DASHED
 62
     7
 10
28.999999999999961
 20
-73.0
 30
0.0
 11
28.999999999999961
 21
-78.500000000000071
 31
0.0
  0
LINE
  5
A9
  8
1
 62
     7
 10
43.599999999999973
 20
-73.000000000000071
 30
0.0
 11
43.599999999999973
 21
-35.00000000000005
 31
0.0
  0
LINE
  5
AA
  8
1
 62
     7
 10
28.499999999999961
 20
-73.0
 30
0.0
 11
28.499999999999961
 21
-70.000000000000071
 31
0.0
  0
LINE
  5
AB
  8
1
 62
     7
 10
48.59999999999993
 20
-73.000000000000071
 30
0.0
 11
28.499999999999961
 21
-73.0
 31
0.0
  0
LINE
  5
AC
  8
1
 62
     7
 10
52.999999999999929
 20
-74.0
 30
0.0
 11
51.09999999999993
 21
-74.000000000000071
 31
0.0
  0
LINE
  5
AD
  8
1
 62
     7
 10
17.999999999999961
 20
-78.5
 30
0.0
 11
50.999999999999943
 21
-78.5
 31
0.0
  0
LINE
  5
AE
  8
1
 62
     7
 10
51.09999999999993
 20
-75.500000000000071
 30
0.0
 11
48.59999999999993
 21
-75.500000000000071
 31
0.0
  0
LINE
  5
AF
  8
1
 62
     7
 10
52.999999999999929
 20
-76.5
 30
0.0
 11
50.999999999999943
 21
-78.5
 31
0.0
  0
LINE
  5
B0
  8
1
 62
     7
 10
17.999999999999961
 20
-78.5
 30
0.0
 11
16.999999999999972
 21
-77.500000000000071
 31
0.0
  0
LINE
  5
B1
  8
1
  6
DASHED
 62
     7
 10
43.599999999999973
 20
73.0
 30
0.0
 11
43.599999999999973
 21
78.5
 31
0.0
  0
LINE
  5
B2
  8
1
 62
     7
 10
28.999999999999961
 20
73.0
 30
0.0
 11
28.999999999999961
 21
35.0
 31
0.0
  0
LINE
  5
B3
  8
1
  6
DASHDOT
 62
     3
 10
24.224550343521909
 20
45.0
 30
0.0
 11
-1.7071389186430961
 21
45.0
 31
0.0
  0
LINE
  5
B4
  8
1
 62
     7
 10
9.6849999999999756
 20
71.0
 30
0.0
 11
9.6849999999999756
 21
101.4608905768829
 31
0.0
  0
LINE
  5
B5
  8
1
  6
DASHED
 62
     7
 10
-264.6653775727961
 20
-27.555942770763352
 30
0.0
 11
-273.51483913675838
 21
-18.70648120680119
 31
0.0
  0
LINE
  5
B6
  8
1
  6
DASHED
 62
     7
 10
-317.65594277076332
 20
-25.434622427203749
 30
0.0
 11
-308.80648120680092
 21
-16.58516086324158
 31
0.0
  0
LINE
  5
B7
  8
1
  6
DASHED
 62
     7
 10
-315.5346224272036
 20
27.555942770763352
 30
0.0
 11
-306.68516086324132
 21
18.706481206801129
 31
0.0
  0
LINE
  5
B8
  8
1
  6
DASHDOT
 62
     3
 10
-263.05635843286882
 20
-27.04364156713109
 30
0.0
 11
-272.93707353218178
 21
-17.162926467818071
 31
0.0
  0
LINE
  5
B9
  8
1
  6
DASHDOT
 62
     3
 10
-317.143641567131
 20
-27.04364156713109
 30
0.0
 11
-307.26292646781781
 21
-17.162926467818071
 31
0.0
  0
LINE
  5
BA
  8
1
  6
DASHDOT
 62
     3
 10
-317.143641567131
 20
27.043641567131139
 30
0.0
 11
-307.26292646781781
 21
17.162926467818011
 31
0.0
  0
LINE
  5
BB
  8
1
  6
DASHED
 62
     7
 10
-271.39351879319872
 20
-16.58516086324147
 30
0.0
 11
-262.54405722923661
 21
-25.434622427203688
 31
0.0
  0
LINE
  5
BC
  8
1
  6
DASHED
 62
     7
 10
-306.68516086324132
 20
-18.70648120680119
 30
0.0
 11
-315.53462242720337
 21
-27.555942770763352
 31
0.0
  0
LINE
  5
BD
  8
1
  6
DASHED
 62
     7
 10
-308.8064812068011
 20
16.585160863241409
 30
0.0
 11
-317.65594277076332
 21
25.434622427203749
 31
0.0
  0
LINE
  5
BE
  8
1
  6
DASHED
 62
     7
 10
-273.5148391367585
 20
18.706481206801129
 30
0.0
 11
-264.6653775727961
 21
27.555942770763352
 31
0.0
  0
LINE
  5
BF
  8
1
  6
DASHED
 62
     7
 10
-262.54405722923661
 20
25.434622427203749
 30
0.0
 11
-271.39351879319872
 21
16.585160863241409
 31
0.0
  0
LINE
  5
C0
  8
1
  6
DASHDOT
 62
     3
 10
-263.05635843286882
 20
27.043641567131029
 30
0.0
 11
-272.93707353218178
 21
17.162926467818011
 31
0.0
  0
LINE
  5
C1
  8
1
 62
     7
 10
-297.10000000000002
 20
27.5
 30
0.0
 11
-297.10000000000002
 21
24.0
 31
0.0
  0
LINE
  5
C2
  8
1
 62
     7
 10
-283.10000000000002
 20
27.5
 30
0.0
 11
-283.10000000000002
 21
24.0
 31
0.0
  0
LINE
  5
C3
  8
1
 62
     7
 10
-297.10000000000002
 20
27.5
 30
0.0
 11
-283.10000000000002
 21
27.5
 31
0.0
  0
LINE
  5
C4
  8
1
 62
     7
 10
12.99999999999997
 20
-34.0
 30
0.0
 11
11.99999999999997
 21
-33.0
 31
0.0
  0
LINE
  5
C5
  8
1
 62
     7
 10
36.499999999999957
 20
-35.0
 30
0.0
 11
36.499999999999957
 21
-26.0
 31
0.0
  0
LINE
  5
C6
  8
1
 62
     7
 10
33.499999999999957
 20
-35.0
 30
0.0
 11
33.499999999999957
 21
-26.0
 31
0.0
  0
LINE
  5
C7
  8
1
  6
DASHDOT
 62
     3
 10
34.999999999999957
 20
-35.800299737176992
 30
0.0
 11
34.999999999999957
 21
-25.465335446820959
 31
0.0
  0
LINE
  5
C8
  8
1
 62
     7
 10
38.999999999999957
 20
-26.0
 30
0.0
 11
38.999999999999957
 21
26.0
 31
0.0
  0
LINE
  5
C9
  8
1
 62
     7
 10
38.999999999999957
 20
-26.0
 30
0.0
 11
30.999999999999961
 21
-26.0
 31
0.0
  0
LINE
  5
CA
  8
1
 62
     7
 10
11.99999999999997
 20
-25.0
 30
0.0
 11
30.999999999999961
 21
-25.0
 31
0.0
  0
LINE
  5
CB
  8
1
 62
     7
 10
30.999999999999961
 20
-26.0
 30
0.0
 11
30.999999999999961
 21
26.0
 31
0.0
  0
LINE
  5
CC
  8
1
 62
     7
 10
30.999999999999961
 20
26.0
 30
0.0
 11
38.999999999999957
 21
26.0
 31
0.0
  0
LINE
  5
CD
  8
1
 62
     7
 10
11.99999999999997
 20
25.0
 30
0.0
 11
30.999999999999961
 21
25.0
 31
0.0
  0
LINE
  5
CE
  8
1
 62
     7
 10
43.599999999999973
 20
-53.250000000000057
 30
0.0
 11
28.999999999999961
 21
-53.250000000000057
 31
0.0
  0
LINE
  5
CF
  8
1
 62
     7
 10
43.599999999999973
 20
-63.250000000000057
 30
0.0
 11
28.999999999999961
 21
-63.250000000000057
 31
0.0
  0
LINE
  5
D0
  8
1
 62
     3
 10
43.599999999999973
 20
-78.500000000000071
 30
0.0
 11
28.999999999999961
 21
-35.00000000000005
 31
0.0
  0
LINE
  5
D1
  8
1
 62
     3
 10
28.999999999999961
 20
-78.500000000000071
 30
0.0
 11
43.599999999999973
 21
-35.00000000000005
 31
0.0
  0
LINE
  5
D2
  8
1
 62
     7
 10
28.999999999999961
 20
-35.00000000000005
 30
0.0
 11
28.999999999999961
 21
-73.0
 31
0.0
  0
LINE
  5
D3
  8
1
  6
DASHED
 62
     7
 10
43.599999999999973
 20
-78.500000000000071
 30
0.0
 11
43.599999999999973
 21
-73.000000000000071
 31
0.0
  0
LINE
  5
D4
  8
1
 62
     7
 10
47.999999999999929
 20
-38.5
 30
0.0
 11
46.999999999999929
 21
-39.5
 31
0.0
  0
LINE
  5
D5
  8
1
 62
     7
 10
49.59999999999993
 20
-42.500000000000057
 30
0.0
 11
51.59999999999993
 21
-44.500000000000057
 31
0.0
  0
LINE
  5
D6
  8
1
 62
     7
 10
49.59999999999993
 20
-42.500000000000057
 30
0.0
 11
43.599999999999973
 21
-42.500000000000057
 31
0.0
  0
LINE
  5
D7
  8
1
 62
     7
 10
51.59999999999993
 20
-44.782624625091657
 30
0.0
 11
52.999999999999929
 21
-44.080596613153773
 31
0.0
  0
LINE
  5
D8
  8
1
 62
     7
 10
44.999999999999929
 20
-72.500000000000071
 30
0.0
 11
44.999999999999929
 21
-71.000000000000071
 31
0.0
  0
LINE
  5
D9
  8
1
 62
     7
 10
47.099999999999923
 20
-72.500000000000071
 30
0.0
 11
47.099999999999923
 21
-71.000000000000071
 31
0.0
  0
LINE
  5
DA
  8
1
 62
     7
 10
44.999999999999929
 20
-72.500000000000071
 30
0.0
 11
43.599999999999973
 21
-72.500000000000071
 31
0.0
  0
LINE
  5
DB
  8
1
 62
     7
 10
47.099999999999923
 20
-71.000000000000071
 30
0.0
 11
44.999999999999929
 21
-71.000000000000071
 31
0.0
  0
LINE
  5
DC
  8
1
 62
     7
 10
48.59999999999993
 20
-72.500000000000071
 30
0.0
 11
47.099999999999923
 21
-72.500000000000071
 31
0.0
  0
LINE
  5
DD
  8
1
 62
     7
 10
51.59999999999993
 20
-67.000000000000071
 30
0.0
 11
48.59999999999993
 21
-67.000000000000071
 31
0.0
  0
LINE
  5
DE
  8
1
 62
     7
 10
51.09999999999993
 20
-71.500000000000071
 30
0.0
 11
48.59999999999993
 21
-71.500000000000071
 31
0.0
  0
LINE
  5
DF
  8
1
 62
     7
 10
51.09999999999993
 20
-67.000000000000071
 30
0.0
 11
51.09999999999993
 21
-75.500000000000071
 31
0.0
  0
LINE
  5
E0
  8
1
 62
     7
 10
51.09999999999993
 20
-75.500000000000071
 30
0.0
 11
48.59999999999993
 21
-75.500000000000071
 31
0.0
  0
LINE
  5
E1
  8
1
 62
     7
 10
48.59999999999993
 20
-75.500000000000071
 30
0.0
 11
48.59999999999993
 21
-67.000000000000071
 31
0.0
  0
LINE
  5
E2
  8
1
 62
     7
 10
52.999999999999929
 20
-42.325150523921373
 30
0.0
 11
51.59999999999993
 21
-42.325150523921373
 31
0.0
  0
LINE
  5
E3
  8
1
 62
     7
 10
52.999999999999929
 20
-44.080596613153773
 30
0.0
 11
52.999999999999929
 21
-31.932845678508031
 31
0.0
  0
LINE
  5
E4
  8
1
 62
     7
 10
52.999999999999929
 20
-31.932845678508031
 30
0.0
 11
51.59999999999993
 21
-31.932845678508031
 31
0.0
  0
LINE
  5
E5
  8
1
 62
     7
 10
28.999999999999961
 20
-78.500000000000071
 30
0.0
 11
43.599999999999973
 21
-78.500000000000071
 31
0.0
  0
LINE
  5
E6
  8
1
 62
     7
 10
28.999999999999961
 20
53.25
 30
0.0
 11
43.599999999999973
 21
53.25
 31
0.0
  0
LINE
  5
E7
  8
1
 62
     7
 10
28.999999999999961
 20
63.25
 30
0.0
 11
43.599999999999973
 21
63.25
 31
0.0
  0
LINE
  5
E8
  8
1
 62
     3
 10
28.999999999999961
 20
35.0
 30
0.0
 11
43.599999999999973
 21
78.5
 31
0.0
  0
LINE
  5
E9
  8
1
 62
     3
 10
43.599999999999973
 20
35.0
 30
0.0
 11
28.999999999999961
 21
78.5
 31
0.0
  0
LINE
  5
EA
  8
1
  6
DASHED
 62
     7
 10
28.999999999999961
 20
78.5
 30
0.0
 11
28.999999999999961
 21
73.0
 31
0.0
  0
LINE
  5
EB
  8
1
 62
     7
 10
43.599999999999973
 20
35.0
 30
0.0
 11
43.599999999999973
 21
73.0
 31
0.0
  0
LINE
  5
EC
  8
1
 62
     7
 10
46.999999999999929
 20
39.5
 30
0.0
 11
47.999999999999929
 21
38.5
 31
0.0
  0
LINE
  5
ED
  8
1
 62
     7
 10
23.999999999999961
 20
39.5
 30
0.0
 11
22.999999999999961
 21
38.5
 31
0.0
  0
LINE
  5
EE
  8
1
 62
     7
 10
12.99999999999997
 20
34.0
 30
0.0
 11
11.99999999999997
 21
33.0
 31
0.0
  0
LINE
  5
EF
  8
1
 62
     7
 10
23.999999999999961
 20
-39.5
 30
0.0
 11
22.999999999999961
 21
-38.5
 31
0.0
  0
LINE
  5
F0
  8
1
 62
     7
 10
46.999999999999929
 20
-39.5
 30
0.0
 11
47.999999999999929
 21
-38.5
 31
0.0
  0
LINE
  5
F1
  8
1
 62
     7
 10
22.999999999999961
 20
-35.0
 30
0.0
 11
47.999999999999929
 21
-35.0
 31
0.0
  0
LINE
  5
F2
  8
1
 62
     7
 10
38.999999999999957
 20
-25.0
 30
0.0
 11
47.999999999999929
 21
-25.0
 31
0.0
  0
LINE
  5
F3
  8
1
 62
     7
 10
38.999999999999957
 20
25.0
 30
0.0
 11
47.999999999999929
 21
25.0
 31
0.0
  0
LINE
  5
F4
  8
1
 62
     7
 10
11.99999999999997
 20
27.5
 30
0.0
 11
47.999999999999929
 21
27.5
 31
0.0
  0
LINE
  5
F5
  8
1
 62
     7
 10
22.999999999999961
 20
35.0
 30
0.0
 11
47.999999999999929
 21
35.0
 31
0.0
  0
LINE
  5
F6
  8
1
 62
     7
 10
22.999999999999961
 20
34.0
 30
0.0
 11
22.999999999999961
 21
38.5
 31
0.0
  0
LINE
  5
F7
  8
1
 62
     7
 10
17.749999999999961
 20
-37.500000000000057
 30
0.0
 11
17.749999999999961
 21
-34.0
 31
0.0
  0
LINE
  5
F8
  8
1
 62
     7
 10
47.999999999999929
 20
-38.5
 30
0.0
 11
47.999999999999929
 21
38.5
 31
0.0
  0
LINE
  5
F9
  8
1
 62
     7
 10
11.99999999999997
 20
33.0
 30
0.0
 11
11.99999999999997
 21
-33.0
 31
0.0
  0
LINE
  5
FA
  8
1
 62
     7
 10
22.999999999999961
 20
-38.5
 30
0.0
 11
22.999999999999961
 21
-34.0
 31
0.0
  0
LINE
  5
FB
  8
1
 62
     7
 10
46.999999999999929
 20
-39.5
 30
0.0
 11
23.999999999999961
 21
-39.5
 31
0.0
  0
LINE
  5
FC
  8
1
 62
     7
 10
22.999999999999961
 20
-34.0
 30
0.0
 11
12.99999999999997
 21
-34.0
 31
0.0
  0
LINE
  5
FD
  8
1
 62
     7
 10
12.99999999999997
 20
34.0
 30
0.0
 11
22.999999999999961
 21
34.0
 31
0.0
  0
LINE
  5
FE
  8
1
 62
     7
 10
23.999999999999961
 20
39.5
 30
0.0
 11
46.999999999999929
 21
39.5
 31
0.0
  0
LINE
  5
FF
  8
1
 62
     7
 10
51.59999999999993
 20
44.5
 30
0.0
 11
49.59999999999993
 21
42.5
 31
0.0
  0
LINE
  5
100
  8
1
 62
     7
 10
43.599999999999973
 20
42.5
 30
0.0
 11
49.59999999999993
 21
42.5
 31
0.0
  0
LINE
  5
101
  8
1
 62
     7
 10
52.999999999999929
 20
44.080596613153709
 30
0.0
 11
51.59999999999993
 21
44.7826246250916
 31
0.0
  0
LINE
  5
102
  8
1
 62
     7
 10
44.999999999999929
 20
71.0
 30
0.0
 11
44.999999999999929
 21
72.5
 31
0.0
  0
LINE
  5
103
  8
1
 62
     7
 10
47.099999999999923
 20
71.0
 30
0.0
 11
47.099999999999923
 21
72.5
 31
0.0
  0
LINE
  5
104
  8
1
 62
     7
 10
43.599999999999973
 20
72.5
 30
0.0
 11
44.999999999999929
 21
72.5
 31
0.0
  0
LINE
  5
105
  8
1
 62
     7
 10
44.999999999999929
 20
71.0
 30
0.0
 11
47.099999999999923
 21
71.0
 31
0.0
  0
LINE
  5
106
  8
1
 62
     7
 10
47.099999999999923
 20
72.5
 30
0.0
 11
48.59999999999993
 21
72.5
 31
0.0
  0
LINE
  5
107
  8
1
 62
     7
 10
48.59999999999993
 20
67.0
 30
0.0
 11
51.59999999999993
 21
67.0
 31
0.0
  0
LINE
  5
108
  8
1
 62
     7
 10
51.59999999999993
 20
-67.000000000000071
 30
0.0
 11
51.59999999999993
 21
67.0
 31
0.0
  0
LINE
  5
109
  8
1
 62
     7
 10
48.59999999999993
 20
71.5
 30
0.0
 11
51.09999999999993
 21
71.5
 31
0.0
  0
LINE
  5
10A
  8
1
 62
     7
 10
16.999999999999972
 20
-72.000000000000071
 30
0.0
 11
15.99999999999997
 21
-71.000000000000071
 31
0.0
  0
LINE
  5
10B
  8
1
 62
     7
 10
28.499999999999961
 20
-70.000000000000071
 30
0.0
 11
16.999999999999972
 21
-70.000000000000071
 31
0.0
  0
LINE
  5
10C
  8
1
 62
     7
 10
28.999999999999961
 20
-70.000000000000071
 30
0.0
 11
16.999999999999972
 21
-70.000000000000071
 31
0.0
  0
LINE
  5
10D
  8
1
 62
     7
 10
16.999999999999972
 20
-70.000000000000071
 30
0.0
 11
16.999999999999972
 21
-77.500000000000071
 31
0.0
  0
LINE
  5
10E
  8
1
 62
     7
 10
16.999999999999972
 20
-71.000000000000071
 30
0.0
 11
1.9999999999999709
 21
-71.000000000000071
 31
0.0
  0
LINE
  5
10F
  8
1
 62
     7
 10
0.9999999999999715
 20
-70.000000000000071
 30
0.0
 11
0.9999999999999715
 21
-55.000000000000071
 31
0.0
  0
LINE
  5
110
  8
1
 62
     7
 10
0.9999999999999715
 20
-55.000000000000071
 30
0.0
 11
0.0
 21
-55.000000000000071
 31
0.0
  0
LINE
  5
111
  8
1
 62
     7
 10
17.749999999999961
 20
-37.500000000000057
 30
0.0
 11
23.499999999999961
 21
-43.000000000000057
 31
0.0
  0
LINE
  5
112
  8
1
 62
     7
 10
17.749999999999961
 20
-37.500000000000057
 30
0.0
 11
0.0
 21
-37.500000000000057
 31
0.0
  0
LINE
  5
113
  8
1
 62
     7
 10
28.999999999999961
 20
-43.000000000000057
 30
0.0
 11
23.499999999999961
 21
-43.000000000000057
 31
0.0
  0
LINE
  5
114
  8
1
 62
     7
 10
0.9999999999999715
 20
-70.000000000000071
 30
0.0
 11
1.9999999999999709
 21
-71.000000000000071
 31
0.0
  0
LINE
  5
115
  8
1
 62
     3
 10
56.59999999999993
 20
0.0
 30
0.0
 11
51.59999999999993
 21
0.0
 31
0.0
  0
LINE
  5
116
  8
1
 62
     7
 10
-291.64742645335292
 20
101.4608905768829
 30
0.0
 11
-291.64742645335292
 21
106.4608905768829
 31
0.0
  0
LINE
  5
117
  8
1
 62
     7
 10
-287.9575373606508
 20
101.4608905768829
 30
0.0
 11
-287.9575373606508
 21
106.4608905768829
 31
0.0
  0
LINE
  5
118
  8
1
 62
     7
 10
-288.1908900305458
 20
101.4608905768829
 30
0.0
 11
-288.1908900305458
 21
106.4608905768829
 31
0.0
  0
LINE
  5
119
  8
1
 62
     7
 10
-288.49716540978181
 20
101.4608905768829
 30
0.0
 11
-288.49716540978181
 21
106.4608905768829
 31
0.0
  0
LINE
  5
11A
  8
1
 62
     7
 10
-288.75968716341282
 20
101.4608905768829
 30
0.0
 11
-288.75968716341282
 21
106.4608905768829
 31
0.0
  0
LINE
  5
11B
  8
1
 62
     7
 10
-289.0805470845167
 20
101.4608905768829
 30
0.0
 11
-289.0805470845167
 21
106.4608905768829
 31
0.0
  0
LINE
  5
11C
  8
1
 62
     7
 10
-289.38682246375282
 20
101.4608905768829
 30
0.0
 11
-289.38682246375282
 21
106.4608905768829
 31
0.0
  0
LINE
  5
11D
  8
1
 62
     7
 10
-290.74318485751292
 20
101.4608905768829
 30
0.0
 11
-290.74318485751292
 21
106.4608905768829
 31
0.0
  0
LINE
  5
11E
  8
1
 62
     7
 10
-292.14330087687802
 20
101.4608905768829
 30
0.0
 11
-292.14330087687802
 21
106.4608905768829
 31
0.0
  0
LINE
  5
11F
  8
1
 62
     7
 10
-291.83973589922789
 20
101.4608905768829
 30
0.0
 11
-291.83973589922789
 21
106.4608905768829
 31
0.0
  0
LINE
  5
120
  8
1
 62
     7
 10
-291.83973589922789
 20
101.4608905768829
 30
0.0
 11
-291.83973589922789
 21
106.4608905768829
 31
0.0
  0
LINE
  5
121
  8
1
 62
     7
 10
-290.98757273386502
 20
101.4608905768829
 30
0.0
 11
-290.98757273386502
 21
106.4608905768829
 31
0.0
  0
LINE
  5
122
  8
1
 62
     7
 10
-291.34637827717557
 20
101.4608905768829
 30
0.0
 11
-291.34637827717557
 21
106.4608905768829
 31
0.0
  0
LINE
  5
123
  8
1
 62
     7
 10
-292.71999999999991
 20
101.4608905768829
 30
0.0
 11
-287.48000000000002
 21
101.4608905768829
 31
0.0
  0
LINE
  5
124
  8
1
 62
     7
 10
-290.10000000000002
 20
101.4608905768829
 30
0.0
 11
-290.10000000000002
 21
70.951642687114699
 31
0.0
  0
LINE
  5
125
  8
1
 62
     7
 10
-287.48000000000002
 20
101.4608905768829
 30
0.0
 11
-287.48000000000002
 21
70.951642687114699
 31
0.0
  0
LINE
  5
126
  8
1
 62
     7
 10
-292.71999999999991
 20
101.4608905768829
 30
0.0
 11
-292.71999999999991
 21
70.951642687114699
 31
0.0
  0
LINE
  5
127
  8
1
 62
     7
 10
12.314999999999969
 20
101.4608905768829
 30
0.0
 11
9.6849999999999756
 21
101.4608905768829
 31
0.0
  0
LINE
  5
128
  8
1
 62
     7
 10
12.314999999999969
 20
101.4608905768829
 30
0.0
 11
12.314999999999969
 21
71.0
 31
0.0
  0
LINE
  5
129
  8
1
 62
     7
 10
1.9999999999999709
 20
71.0
 30
0.0
 11
16.999999999999972
 21
71.0
 31
0.0
  0
LINE
  5
12A
  8
1
 62
     7
 10
15.99999999999997
 20
71.0
 30
0.0
 11
16.999999999999972
 21
72.0
 31
0.0
  0
LINE
  5
12B
  8
1
 62
     7
 10
50.999999999999943
 20
78.5
 30
0.0
 11
17.999999999999961
 21
78.5
 31
0.0
  0
LINE
  5
12C
  8
1
 62
     7
 10
52.999999999999929
 20
74.0
 30
0.0
 11
52.999999999999929
 21
76.5
 31
0.0
  0
LINE
  5
12D
  8
1
 62
     7
 10
51.09999999999993
 20
74.0
 30
0.0
 11
52.999999999999929
 21
74.0
 31
0.0
  0
LINE
  5
12E
  8
1
 62
     7
 10
51.09999999999993
 20
75.5
 30
0.0
 11
51.09999999999993
 21
67.0
 31
0.0
  0
LINE
  5
12F
  8
1
 62
     7
 10
48.59999999999993
 20
75.5
 30
0.0
 11
51.09999999999993
 21
75.5
 31
0.0
  0
LINE
  5
130
  8
1
 62
     7
 10
48.59999999999993
 20
67.0
 30
0.0
 11
48.59999999999993
 21
75.5
 31
0.0
  0
LINE
  5
131
  8
1
 62
     7
 10
28.499999999999961
 20
73.0
 30
0.0
 11
48.59999999999993
 21
73.0
 31
0.0
  0
LINE
  5
132
  8
1
 62
     7
 10
28.499999999999961
 20
70.0
 30
0.0
 11
28.499999999999961
 21
73.0
 31
0.0
  0
LINE
  5
133
  8
1
 62
     7
 10
16.999999999999972
 20
70.0
 30
0.0
 11
28.499999999999961
 21
70.0
 31
0.0
  0
LINE
  5
134
  8
1
 62
     7
 10
50.999999999999943
 20
78.5
 30
0.0
 11
52.999999999999929
 21
76.5
 31
0.0
  0
LINE
  5
135
  8
1
 62
     7
 10
16.999999999999972
 20
77.5
 30
0.0
 11
17.999999999999961
 21
78.5
 31
0.0
  0
LINE
  5
136
  8
1
 62
     7
 10
51.59999999999993
 20
42.325150523921309
 30
0.0
 11
52.999999999999929
 21
42.325150523921309
 31
0.0
  0
LINE
  5
137
  8
1
 62
     7
 10
52.999999999999929
 20
31.932845678508031
 30
0.0
 11
52.999999999999929
 21
44.080596613153709
 31
0.0
  0
LINE
  5
138
  8
1
 62
     7
 10
51.59999999999993
 20
31.932845678508031
 30
0.0
 11
52.999999999999929
 21
31.932845678508031
 31
0.0
  0
LINE
  5
139
  8
1
 62
     7
 10
16.999999999999972
 20
70.0
 30
0.0
 11
28.999999999999961
 21
70.0
 31
0.0
  0
LINE
  5
13A
  8
1
 62
     7
 10
16.999999999999972
 20
77.5
 30
0.0
 11
16.999999999999972
 21
70.0
 31
0.0
  0
LINE
  5
13B
  8
1
 62
     7
 10
0.9999999999999715
 20
55.0
 30
0.0
 11
0.9999999999999715
 21
70.0
 31
0.0
  0
LINE
  5
13C
  8
1
 62
     7
 10
0.0
 20
55.0
 30
0.0
 11
0.9999999999999715
 21
55.0
 31
0.0
  0
LINE
  5
13D
  8
1
 62
     7
 10
23.499999999999961
 20
43.0
 30
0.0
 11
17.749999999999961
 21
37.5
 31
0.0
  0
LINE
  5
13E
  8
1
 62
     7
 10
0.0
 20
37.5
 30
0.0
 11
17.749999999999961
 21
37.5
 31
0.0
  0
LINE
  5
13F
  8
1
 62
     7
 10
23.499999999999961
 20
43.0
 30
0.0
 11
28.999999999999961
 21
43.0
 31
0.0
  0
LINE
  5
140
  8
1
 62
     7
 10
17.749999999999961
 20
34.0
 30
0.0
 11
17.749999999999961
 21
37.5
 31
0.0
  0
LINE
  5
141
  8
1
 62
     7
 10
1.9999999999999709
 20
71.0
 30
0.0
 11
0.9999999999999715
 21
70.0
 31
0.0
  0
LINE
  5
142
  8
1
 62
     7
 10
0.0
 20
55.0
 30
0.0
 11
0.0
 21
-55.000000000000071
 31
0.0
  0
LINE
  5
143
  8
1
 62
     7
 10
20.399999999999981
 20
41.800000000000011
 30
0.0
 11
0.0
 21
41.800000000000011
 31
0.0
  0
LINE
  5
144
  8
1
 62
     7
 10
20.399999999999981
 20
48.200000000000038
 30
0.0
 11
20.399999999999981
 21
41.800000000000011
 31
0.0
  0
LINE
  5
145
  8
1
 62
     7
 10
0.0
 20
48.200000000000038
 30
0.0
 11
20.399999999999981
 21
48.200000000000038
 31
0.0
  0
LINE
  5
146
  8
1
 62
     7
 10
22.709401076758471
 20
45.0
 30
0.0
 11
20.399999999999981
 21
41.800000000000011
 31
0.0
  0
LINE
  5
147
  8
1
 62
     7
 10
20.399999999999981
 20
48.200000000000038
 30
0.0
 11
22.709401076758471
 21
45.0
 31
0.0
  0
LINE
  5
148
  8
1
 62
     3
 10
13.99999999999997
 20
41.0
 30
0.0
 11
0.0
 21
41.0
 31
0.0
  0
LINE
  5
149
  8
1
 62
     7
 10
13.99999999999997
 20
49.0
 30
0.0
 11
13.99999999999997
 21
41.0
 31
0.0
  0
LINE
  5
14A
  8
1
 62
     3
 10
0.0
 20
49.0
 30
0.0
 11
13.99999999999997
 21
49.0
 31
0.0
  0
LINE
  5
14B
  8
1
 62
     3
 10
15.385640646055069
 20
41.800000000000011
 30
0.0
 11
13.99999999999997
 21
41.0
 31
0.0
  0
LINE
  5
14C
  8
1
 62
     3
 10
15.385640646055069
 20
48.200000000000038
 30
0.0
 11
13.99999999999997
 21
49.0
 31
0.0
  0
LINE
  5
14D
  8
1
 62
     7
 10
52.999999999999929
 20
-74.0
 30
0.0
 11
52.999999999999929
 21
-76.5
 31
0.0
  0
ARC
  5
14E
  8
1
  6
DASHDOT
 62
     3
 10
-290.10000000000002
 20
0.0
 30
0.0
 40
45.000000000000057
 50
353.63616460699558
 51
6.3861744959440889
  0
ARC
  5
14F
  8
1
  6
DASHDOT
 62
     3
 10
-290.10000000000002
 20
0.0
 30
0.0
 40
45.00000000000005
 50
263.63616460699581
 51
276.38617449594437
  0
ARC
  5
150
  8
1
  6
DASHDOT
 62
     3
 10
-290.10000000000002
 20
0.0
 30
0.0
 40
45.0
 50
173.63616460699589
 51
186.38617449594409
  0
ARC
  5
151
  8
1
 62
     7
 10
-85.549999999999969
 20
-72.0
 30
0.0
 40
1.0
 50
180.0
 51
0.0
  0
ARC
  5
152
  8
1
 62
     7
 10
-85.549999999999969
 20
72.0
 30
0.0
 40
1.0
 50
0.0
 51
180.0
  0
ARC
  5
153
  8
1
 62
     7
 10
-290.10000000000002
 20
0.0
 30
0.0
 40
78.499999999999972
 50
91.912647468002248
 51
88.087352531997695
  0
ARC
  5
154
  8
1
  6
DASHDOT
 62
     3
 10
-290.10000000000002
 20
0.0
 30
0.0
 40
45.000000000000071
 50
83.636164606995877
 51
96.386174495944161
  0
ARC
  5
155
  8
1
 62
     7
 10
-290.10000000000002
 20
0.0
 30
0.0
 40
25.0
 50
106.260204708312
 51
73.739795291688054
  0
ARC
  5
156
  8
1
 62
     7
 10
-290.10000000000002
 20
0.0
 30
0.0
 40
77.500000000000043
 50
91.937336139849236
 51
88.062663860150664
  0
CIRCLE
  5
157
  8
1
 62
     7
 10
-290.10000000000002
 20
0.0
 30
0.0
 40
71.000000000000028
  0
CIRCLE
  5
158
  8
1
 62
     7
 10
-290.10000000000002
 20
0.0
 30
0.0
 40
55.000000000000028
  0
CIRCLE
  5
159
  8
1
 62
     7
 10
-290.10000000000002
 20
0.0
 30
0.0
 40
37.500000000000099
  0
CIRCLE
  5
15A
  8
1
 62
     7
 10
-290.10000000000002
 20
0.0
 30
0.0
 40
34.000000000000107
  0
CIRCLE
  5
15B
  8
1
 62
     7
 10
46.049999999999947
 20
-72.000000000000071
 30
0.0
 40
1.0
  0
CIRCLE
  5
15C
  8
1
 62
     7
 10
46.049999999999947
 20
72.0
 30
0.0
 40
1.0
  0
CIRCLE
  5
15D
  8
1
 62
     7
 10
-290.10000000000002
 20
0.0
 30
0.0
 40
70.000000000000028
  0
CIRCLE
  5
15E
  8
1
 62
     7
 10
-290.10000000000002
 20
45.0
 30
0.0
 40
3.200000000000101
  0
CIRCLE
  5
15F
  8
1
 62
     3
 10
-290.10000000000002
 20
45.0
 30
0.0
 40
4.0
  0
CIRCLE
  5
160
  8
1
 62
     7
 10
-335.10000000000002
 20
0.0
 30
0.0
 40
3.2000000000000459
  0
CIRCLE
  5
161
  8
1
 62
     3
 10
-335.10000000000002
 20
0.0
 30
0.0
 40
4.0
  0
CIRCLE
  5
162
  8
1
 62
     7
 10
-290.10000000000002
 20
-45.0
 30
0.0
 40
3.2000000000000459
  0
CIRCLE
  5
163
  8
1
 62
     3
 10
-290.10000000000002
 20
-45.0
 30
0.0
 40
4.0
  0
CIRCLE
  5
164
  8
1
 62
     7
 10
-245.09999999999991
 20
0.0
 30
0.0
 40
3.2000000000000171
  0
CIRCLE
  5
165
  8
1
 62
     3
 10
-245.09999999999991
 20
0.0
 30
0.0
 40
4.0
  0
TEXT
  5
167
  8
1
 62
     7
 10
-304.007913493633
 20
132.311224731414
 30
0.0
 40
5.0
  1
MWB 20
 41
0.9
  7
SIMPLEX
  0
INSERT
  5
168
  8
0
  2
_X1
 10
0.0
 20
0.0
 30
0.0
  0
INSERT
  5
169
  8
0
  2
_X0
 10
0.0
 20
0.0
 30
0.0
  0
ENDSEC
  0
EOF
