  0
SECTION
  2
HEADER
  9
$ACADVER
  1
AC1009
  9
$INSBASE
 10
0.0
 20
0.0
 30
0.0
  9
$EXTMIN
 10
-229.67960928599459
 20
-47.5
 30
0.0
  9
$EXTMAX
 10
39.0
 20
97.780133391609596
 30
0.0
  9
$LIMMIN
 10
-229.67960928599459
 20
-47.5
  9
$LIMMAX
 10
39.0
 20
97.780133391609596
  9
$ORTHOMODE
 70
     0
  9
$REGENMODE
 70
     1
  9
$FILLMODE
 70
     1
  9
$QTEXTMODE
 70
     0
  9
$MIRRTEXT
 70
     1
  9
$DRAGMODE
 70
     2
  9
$LTSCALE
 40
1.0
  9
$OSMODE
 70
    37
  9
$ATTMODE
 70
     1
  9
$TEXTSIZE
 40
3.5
  9
$TRACEWID
 40
0.5
  9
$TEXTSTYLE
  7
STANDARD
  9
$CLAYER
  8
0
  9
$CELTYPE
  6
BYLAYER
  9
$CECOLOR
 62
   256
  9
$DIMSCALE
 40
1.0
  9
$DIMASZ
 40
0.18
  9
$DIMEXO
 40
0.0625
  9
$DIMDLI
 40
0.38
  9
$DIMRND
 40
0.0
  9
$DIMDLE
 40
0.0
  9
$DIMEXE
 40
0.18
  9
$DIMTP
 40
0.0
  9
$DIMTM
 40
0.0
  9
$DIMTXT
 40
0.18
  9
$DIMCEN
 40
0.09
  9
$DIMTSZ
 40
0.0
  9
$DIMTOL
 70
     0
  9
$DIMLIM
 70
     0
  9
$DIMTIH
 70
     1
  9
$DIMTOH
 70
     1
  9
$DIMSE1
 70
     0
  9
$DIMSE2
 70
     0
  9
$DIMTAD
 70
     0
  9
$DIMZIN
 70
     0
  9
$DIMBLK
  1

  9
$DIMASO
 70
     1
  9
$DIMSHO
 70
     1
  9
$DIMPOST
  1

  9
$DIMAPOST
  1

  9
$DIMALT
 70
     0
  9
$DIMALTD
 70
     2
  9
$DIMALTF
 40
25.399999999999999
  9
$DIMLFAC
 40
1.0
  9
$DIMTOFL
 70
     0
  9
$DIMTVP
 40
0.0
  9
$DIMTIX
 70
     0
  9
$DIMSOXD
 70
     0
  9
$DIMSAH
 70
     0
  9
$DIMBLK1
  1

  9
$DIMBLK2
  1

  9
$DIMSTYLE
  2
STANDARD
  9
$DIMCLRD
 70
     0
  9
$DIMCLRE
 70
     0
  9
$DIMCLRT
 70
     0
  9
$DIMTFAC
 40
1.0
  9
$DIMGAP
 40
0.09
  9
$LUNITS
 70
     2
  9
$LUPREC
 70
     4
  9
$SKETCHINC
 40
0.1
  9
$FILLETRAD
 40
2.0
  9
$AUNITS
 70
     0
  9
$AUPREC
 70
     0
  9
$MENU
  1
ACAD
  9
$ELEVATION
 40
0.0
  9
$PELEVATION
 40
0.0
  9
$THICKNESS
 40
0.0
  9
$LIMCHECK
 70
     0
  9
$BLIPMODE
 70
     0
  9
$CHAMFERA
 40
0.0
  9
$CHAMFERB
 40
0.0
  9
$SKPOLY
 70
     0
  9
$TDCREATE
 40
2452095.0698614581
  9
$TDUPDATE
 40
2452095.0703929388
  9
$TDINDWG
 40
0.000547338
  9
$TDUSRTIMER
 40
0.000547338
  9
$USRTIMER
 70
     1
  9
$ANGBASE
 50
0.0
  9
$ANGDIR
 70
     0
  9
$PDMODE
 70
     0
  9
$PDSIZE
 40
0.0
  9
$PLINEWID
 40
0.0
  9
$COORDS
 70
     1
  9
$SPLFRAME
 70
     0
  9
$SPLINETYPE
 70
     6
  9
$SPLINESEGS
 70
     8
  9
$ATTDIA
 70
     0
  9
$ATTREQ
 70
     1
  9
$HANDLING
 70
 10241
  9
$HANDSEED
  5
145
  9
$SURFTAB1
 70
     6
  9
$SURFTAB2
 70
     6
  9
$SURFTYPE
 70
     6
  9
$SURFU
 70
     6
  9
$SURFV
 70
     6
  9
$UCSNAME
  2

  9
$UCSORG
 10
0.0
 20
0.0
 30
0.0
  9
$UCSXDIR
 10
1.0
 20
0.0
 30
0.0
  9
$UCSYDIR
 10
0.0
 20
1.0
 30
0.0
  9
$PUCSNAME
  2

  9
$PUCSORG
 10
0.0
 20
0.0
 30
0.0
  9
$PUCSXDIR
 10
1.0
 20
0.0
 30
0.0
  9
$PUCSYDIR
 10
0.0
 20
1.0
 30
0.0
  9
$USERI1
 70
     0
  9
$USERI2
 70
     0
  9
$USERI3
 70
     0
  9
$USERI4
 70
     0
  9
$USERI5
 70
     0
  9
$USERR1
 40
0.0
  9
$USERR2
 40
0.0
  9
$USERR3
 40
0.0
  9
$USERR4
 40
0.0
  9
$USERR5
 40
0.0
  9
$WORLDVIEW
 70
     1
  9
$SHADEDGE
 70
     3
  9
$SHADEDIF
 70
    70
  9
$TILEMODE
 70
     1
  9
$MAXACTVP
 70
    64
  9
$PLIMCHECK
 70
     0
  9
$PEXTMIN
 10
1.0000000000000000E+020
 20
1.0000000000000000E+020
 30
1.0000000000000000E+020
  9
$PEXTMAX
 10
-1.0000000000000000E+020
 20
-1.0000000000000000E+020
 30
-1.0000000000000000E+020
  9
$PLIMMIN
 10
0.0
 20
0.0
  9
$PLIMMAX
 10
12.0
 20
9.0
  9
$UNITMODE
 70
     0
  9
$VISRETAIN
 70
     1
  9
$PLINEGEN
 70
     0
  9
$PSLTSCALE
 70
     1
  0
ENDSEC
  0
SECTION
  2
TABLES
  0
TABLE
  2
VPORT
 70
     2
  0
VPORT
  2
*ACTIVE
 70
     0
 10
0.0
 20
0.0
 11
1.0
 21
1.0
 12
-184.26086057537589
 22
93.522285580433689
 13
0.0
 23
0.0
 14
1.0
 24
1.0
 15
0.0
 25
0.0
 16
0.0
 26
0.0
 36
1.0
 17
0.0
 27
0.0
 37
0.0
 40
8.9999999540681852
 41
2.4144144144144142
 42
50.0
 43
0.0
 44
0.0
 50
0.0
 51
0.0
 71
     0
 72
   100
 73
     1
 74
     1
 75
     0
 76
     0
 77
     0
 78
     0
  0
ENDTAB
  0
TABLE
  2
LTYPE
 70
     9
  0
LTYPE
  2
CONTINUOUS
 70
     0
  3
Solid line
 72
    65
 73
     0
 40
0.0
  0
LTYPE
  2
BORDER
 70
     0
  3
__ __ . __ __ .
 72
    65
 73
     6
 40
12.37340305922344
 49
3.5352580169209822
 49
-1.7676290084604911
 49
3.5352580169209822
 49
-1.7676290084604911
 49
0.0
 49
-1.7676290084604911
  0
LTYPE
  2
CENTER
 70
     0
  3
____ _ ____ _
 72
    65
 73
     4
 40
14.141032067683931
 49
8.8381450423024521
 49
-1.7676290084604911
 49
1.7676290084604911
 49
-1.7676290084604911
  0
LTYPE
  2
DASHDOT
 70
     0
  3
__ . __ . __ .
 72
    65
 73
     4
 40
7.0705160338419644
 49
3.5352580169209822
 49
-1.7676290084604911
 49
0.0
 49
-1.7676290084604911
  0
LTYPE
  2
DASHED
 70
     0
  3
__ __ __ __ __
 72
    65
 73
     2
 40
5.3028870253814731
 49
3.5352580169209822
 49
-1.7676290084604911
  0
LTYPE
  2
DIVIDE
 70
     0
  3
__ . . __ . . 
 72
    65
 73
     6
 40
8.8381450423024521
 49
3.5352580169209822
 49
-1.7676290084604911
 49
0.0
 49
-1.7676290084604911
 49
0.0
 49
-1.7676290084604911
  0
LTYPE
  2
DOT
 70
     0
  3
..............
 72
    65
 73
     4
 40
3.5352580169209822
 49
0.0
 49
-1.7676290084604911
 49
0.0
 49
-1.7676290084604911
  0
LTYPE
  2
HIDDEN
 70
     0
  3
_ _ _ _ _ _ _
 72
    65
 73
     2
 40
2.6514435126907361
 49
1.7676290084604911
 49
-0.8838145042302453
  0
LTYPE
  2
PHANTOM
 70
     0
  3
_____ _ _ _____ _ _ 
 72
    65
 73
     6
 40
17.676290084604901
 49
8.8381450423024521
 49
-1.7676290084604911
 49
1.7676290084604911
 49
-1.7676290084604911
 49
1.7676290084604911
 49
-1.7676290084604911
  0
ENDTAB
  0
TABLE
  2
LAYER
 70
     2
  0
LAYER
  2
0
 70
     0
 62
     7
  6
CONTINUOUS
  0
LAYER
  2
1
 70
     0
 62
     7
  6
CONTINUOUS
  0
ENDTAB
  0
TABLE
  2
STYLE
 70
     4
  0
STYLE
  2
STANDARD
 70
     0
 40
0.0
 41
1.0
 50
0.0
 71
     0
 42
3.5
  3
txt
  4

  0
STYLE
  2
SIMPLEX
 70
     0
 40
0.0
 41
1.0
 50
0.0
 71
     0
 42
3.5
  3
simplex
  4

  0
STYLE
  2
COMPLEX
 70
     0
 40
0.0
 41
1.0
 50
0.0
 71
     0
 42
3.5
  3
complex
  4

  0
STYLE
  2
ITALIC
 70
     0
 40
0.0
 41
1.0
 50
0.0
 71
     0
 42
3.5
  3
italic
  4

  0
ENDTAB
  0
TABLE
  2
VIEW
 70
     0
  0
ENDTAB
  0
TABLE
  2
UCS
 70
     0
  0
ENDTAB
  0
TABLE
  2
APPID
 70
     1
  0
APPID
  2
ACAD
 70
     0
  0
ENDTAB
  0
TABLE
  2
DIMSTYLE
 70
     1
  0
DIMSTYLE
  2
STANDARD
 70
     0
  3

  4

  5

  6

  7

 40
1.0
 41
0.18
 42
0.0625
 43
0.38
 44
0.18
 45
0.0
 46
0.0
 47
0.0
 48
0.0
140
0.18
141
0.09
142
0.0
143
25.399999999999999
144
1.0
145
0.0
146
1.0
147
0.09
 71
     0
 72
     0
 73
     1
 74
     1
 75
     0
 76
     0
 77
     0
 78
     0
170
     0
171
     2
172
     0
173
     0
174
     0
175
     0
176
     0
177
     0
178
     0
  0
ENDTAB
  0
ENDSEC
  0
SECTION
  2
BLOCKS
  0
BLOCK
  8
0
  2
$MODEL_SPACE
 70
     0
 10
0.0
 20
0.0
 30
0.0
  3
$MODEL_SPACE
  1

  0
ENDBLK
  5
20
  8
0
  0
BLOCK
 67
     1
  8
0
  2
$PAPER_SPACE
 70
     0
 10
0.0
 20
0.0
 30
0.0
  3
$PAPER_SPACE
  1

  0
ENDBLK
  5
1C
 67
     1
  8
0
  0
ENDSEC
  0
SECTION
  2
ENTITIES
  0
POINT
  5
33
  8
1
  6
DOT
 62
     7
 10
-180.75969391314899
 20
24.95964423492364
 30
0.0
  0
POINT
  5
34
  8
1
  6
DOT
 62
     7
 10
-183.5995246588401
 20
-24.95964423492364
 30
0.0
  0
LINE
  5
35
  8
1
 62
     3
 10
-62.608882202132008
 20
-27.948181553536202
 30
0.0
 11
-55.108882202132008
 21
-47.5
 31
0.0
  0
LINE
  5
36
  8
1
 62
     3
 10
-55.108882202132008
 20
-27.948181553536202
 30
0.0
 11
-62.608882202132008
 21
-47.5
 31
0.0
  0
LINE
  5
37
  8
1
 62
     3
 10
-62.608882202132008
 20
-19.287927515691759
 30
0.0
 11
-55.108882202132008
 21
19.287927515691759
 31
0.0
  0
LINE
  5
38
  8
1
 62
     3
 10
-62.608882202132008
 20
19.287927515691759
 30
0.0
 11
-55.108882202132008
 21
-19.287927515691759
 31
0.0
  0
LINE
  5
39
  8
1
 62
     3
 10
-62.608882202132008
 20
27.948181553536202
 30
0.0
 11
-55.108882202132008
 21
47.5
 31
0.0
  0
LINE
  5
3A
  8
1
 62
     3
 10
-62.608882202132008
 20
47.5
 30
0.0
 11
-55.108882202132008
 21
27.948181553536202
 31
0.0
  0
LINE
  5
3B
  8
1
 62
     7
 10
-49.608882202132008
 20
18.282093128599769
 30
0.0
 11
-49.608882202132008
 21
-18.282093128599769
 31
0.0
  0
LINE
  5
3C
  8
1
 62
     7
 10
-54.108882202132008
 20
19.287927515691759
 30
0.0
 11
-54.108882202132008
 21
-19.287927515691759
 31
0.0
  0
LINE
  5
3D
  8
1
 62
     7
 10
-55.108882202132008
 20
19.287927515691759
 30
0.0
 11
-55.108882202132008
 21
-19.287927515691759
 31
0.0
  0
LINE
  5
3E
  8
1
 62
     7
 10
-63.108882202132001
 20
19.287927515691759
 30
0.0
 11
-63.108882202132001
 21
-19.287927515691759
 31
0.0
  0
LINE
  5
3F
  8
1
 62
     7
 10
-63.108882202132001
 20
17.65317630428196
 30
0.0
 11
-62.608882202132008
 21
17.65317630428196
 31
0.0
  0
LINE
  5
40
  8
1
 62
     7
 10
-55.108882202132008
 20
17.65317630428196
 30
0.0
 11
-54.108882202132008
 21
17.65317630428196
 31
0.0
  0
LINE
  5
41
  8
1
 62
     7
 10
-52.108882202132008
 20
18.282093128599769
 30
0.0
 11
-49.608882202132008
 21
18.282093128599769
 31
0.0
  0
LINE
  5
42
  8
1
 62
     7
 10
-47.608882202132008
 20
18.282093128599769
 30
0.0
 11
-49.608882202132008
 21
19.287927515691759
 31
0.0
  0
LINE
  5
43
  8
1
 62
     7
 10
-49.608882202132008
 20
17.65317630428196
 30
0.0
 11
-47.608882202132008
 21
17.65317630428196
 31
0.0
  0
LINE
  5
44
  8
1
 62
     7
 10
-47.608882202132008
 20
26.942347166444211
 30
0.0
 11
-49.608882202132008
 21
27.948181553536202
 31
0.0
  0
LINE
  5
45
  8
1
 62
     7
 10
-47.608882202132008
 20
26.942347166444211
 30
0.0
 11
-47.608882202132008
 21
17.65317630428196
 31
0.0
  0
LINE
  5
46
  8
1
 62
     7
 10
-49.608882202132008
 20
19.287927515691759
 30
0.0
 11
-63.108882202132001
 21
19.287927515691759
 31
0.0
  0
LINE
  5
47
  8
1
 62
     7
 10
-63.108882202132001
 20
27.948181553536202
 30
0.0
 11
-49.608882202132008
 21
27.948181553536202
 31
0.0
  0
LINE
  5
48
  8
1
 62
     7
 10
-63.108882202132001
 20
-44.249999999999993
 30
0.0
 11
-62.608882202132008
 21
-44.249999999999993
 31
0.0
  0
LINE
  5
49
  8
1
 62
     7
 10
-62.608882202132008
 20
-17.65317630428197
 30
0.0
 11
-63.108882202132001
 21
-17.65317630428197
 31
0.0
  0
LINE
  5
4A
  8
1
 62
     7
 10
-54.108882202132008
 20
-17.65317630428197
 30
0.0
 11
-55.108882202132008
 21
-17.65317630428197
 31
0.0
  0
LINE
  5
4B
  8
1
 62
     7
 10
-49.608882202132008
 20
-18.282093128599769
 30
0.0
 11
-52.108882202132008
 21
-18.282093128599769
 31
0.0
  0
LINE
  5
4C
  8
1
 62
     7
 10
-83.608882202131966
 20
43.5
 30
0.0
 11
-83.608882202131966
 21
-43.5
 31
0.0
  0
LINE
  5
4D
  8
1
 62
     7
 10
-184.65960928599461
 20
65.485979694771515
 30
0.0
 11
-179.69960928599451
 21
65.485979694771515
 31
0.0
  0
LINE
  5
4E
  8
1
 62
     7
 10
11.5
 20
43.5
 30
0.0
 11
12.5
 21
44.5
 31
0.0
  0
LINE
  5
4F
  8
1
  6
DASHDOT
 62
     3
 10
19.975383930264709
 20
24.999999999999989
 30
0.0
 11
-1.8538146396595889
 21
24.999999999999989
 31
0.0
  0
LINE
  5
50
  8
1
 62
     3
 10
13.039230484541291
 20
27.400000000000009
 30
0.0
 11
12.0
 21
27.999999999999979
 31
0.0
  0
LINE
  5
51
  8
1
 62
     3
 10
13.039230484541291
 20
22.600000000000009
 30
0.0
 11
12.0
 21
21.999999999999979
 31
0.0
  0
LINE
  5
52
  8
1
 62
     3
 10
0.0
 20
27.999999999999979
 30
0.0
 11
12.0
 21
27.999999999999979
 31
0.0
  0
LINE
  5
53
  8
1
 62
     7
 10
12.0
 20
27.999999999999979
 30
0.0
 11
12.0
 21
21.999999999999979
 31
0.0
  0
LINE
  5
54
  8
1
 62
     3
 10
12.0
 20
21.999999999999979
 30
0.0
 11
0.0
 21
21.999999999999979
 31
0.0
  0
LINE
  5
55
  8
1
 62
     7
 10
16.8000000000001
 20
27.400000000000009
 30
0.0
 11
18.532050807568911
 21
24.999999999999989
 31
0.0
  0
LINE
  5
56
  8
1
 62
     7
 10
18.532050807568911
 20
24.999999999999989
 30
0.0
 11
16.8000000000001
 21
22.600000000000009
 31
0.0
  0
LINE
  5
57
  8
1
 62
     7
 10
0.0
 20
27.399999999999999
 30
0.0
 11
16.8000000000001
 21
27.400000000000009
 31
0.0
  0
LINE
  5
58
  8
1
 62
     7
 10
16.8000000000001
 20
27.400000000000009
 30
0.0
 11
16.8000000000001
 21
22.600000000000009
 31
0.0
  0
LINE
  5
59
  8
1
 62
     7
 10
16.8000000000001
 20
22.600000000000009
 30
0.0
 11
0.0
 21
22.600000000000009
 31
0.0
  0
LINE
  5
5A
  8
1
 62
     7
 10
-182.17960928599459
 20
65.485979694771515
 30
0.0
 11
-182.17960928599459
 21
43.420422614249148
 31
0.0
  0
LINE
  5
5B
  8
1
 62
     7
 10
-179.69960928599451
 20
43.420422614249148
 30
0.0
 11
-179.69960928599451
 21
65.485979694771515
 31
0.0
  0
LINE
  5
5C
  8
1
 62
     7
 10
-184.65960928599461
 20
43.420422614249148
 30
0.0
 11
-184.65960928599461
 21
65.485979694771515
 31
0.0
  0
LINE
  5
5D
  8
1
 62
     7
 10
6.8350000000000071
 20
65.485979694771515
 30
0.0
 11
9.1650000000001057
 21
65.485979694771515
 31
0.0
  0
LINE
  5
5E
  8
1
 62
     7
 10
9.1650000000001057
 20
65.485979694771515
 30
0.0
 11
9.1650000000001057
 21
43.5
 31
0.0
  0
LINE
  5
5F
  8
1
 62
     7
 10
1.0
 20
43.5
 30
0.0
 11
0.0
 21
42.499999999999993
 31
0.0
  0
LINE
  5
60
  8
1
 62
     7
 10
1.0
 20
43.5
 30
0.0
 11
12.5
 21
43.5
 31
0.0
  0
LINE
  5
61
  8
1
 62
     7
 10
12.5
 20
42.749999999999993
 30
0.0
 11
22.0
 21
42.749999999999993
 31
0.0
  0
LINE
  5
62
  8
1
 62
     7
 10
0.0
 20
19.999999999999989
 30
0.0
 11
16.0
 21
19.999999999999989
 31
0.0
  0
LINE
  5
63
  8
1
 62
     7
 10
16.0
 20
17.999999999999979
 30
0.0
 11
16.0
 21
19.999999999999989
 31
0.0
  0
LINE
  5
64
  8
1
 62
     7
 10
20.0
 20
23.999999999999989
 30
0.0
 11
16.0
 21
19.999999999999989
 31
0.0
  0
LINE
  5
65
  8
1
 62
     7
 10
20.0
 20
23.999999999999989
 30
0.0
 11
22.0
 21
23.999999999999989
 31
0.0
  0
LINE
  5
66
  8
1
 62
     7
 10
35.0
 20
47.5
 30
0.0
 11
12.5
 21
47.5
 31
0.0
  0
LINE
  5
67
  8
1
 62
     7
 10
37.0
 20
44.249999999999993
 30
0.0
 11
37.0
 21
45.499999999999993
 31
0.0
  0
LINE
  5
68
  8
1
 62
     7
 10
35.0
 20
44.249999999999993
 30
0.0
 11
37.0
 21
44.249999999999993
 31
0.0
  0
LINE
  5
69
  8
1
 62
     7
 10
32.5
 20
45.0
 30
0.0
 11
35.0
 21
45.0
 31
0.0
  0
LINE
  5
6A
  8
1
 62
     7
 10
12.5
 20
42.749999999999993
 30
0.0
 11
21.499999999999989
 21
42.749999999999993
 31
0.0
  0
LINE
  5
6B
  8
1
 62
     7
 10
21.499999999999989
 20
44.249999999999993
 30
0.0
 11
32.5
 21
44.249999999999993
 31
0.0
  0
LINE
  5
6C
  8
1
 62
     7
 10
21.499999999999989
 20
44.249999999999993
 30
0.0
 11
21.499999999999989
 21
42.749999999999993
 31
0.0
  0
LINE
  5
6D
  8
1
 62
     7
 10
35.0
 20
47.5
 30
0.0
 11
37.0
 21
45.499999999999993
 31
0.0
  0
LINE
  5
6E
  8
1
 62
     7
 10
37.0
 20
26.942347166444211
 30
0.0
 11
35.0
 21
27.948181553536191
 31
0.0
  0
LINE
  5
6F
  8
1
 62
     7
 10
35.0
 20
26.31343034212637
 30
0.0
 11
37.0
 21
26.31343034212637
 31
0.0
  0
LINE
  5
70
  8
1
 62
     7
 10
37.0
 20
17.653176304281988
 30
0.0
 11
35.0
 21
17.653176304281988
 31
0.0
  0
LINE
  5
71
  8
1
 62
     7
 10
37.0
 20
17.653176304281988
 30
0.0
 11
37.0
 21
26.942347166444211
 31
0.0
  0
LINE
  5
72
  8
1
 62
     7
 10
12.5
 20
47.5
 30
0.0
 11
12.5
 21
42.749999999999993
 31
0.0
  0
LINE
  5
73
  8
1
 62
     7
 10
8.0
 20
65.485979694771515
 30
0.0
 11
8.0
 21
68.985979694771515
 31
0.0
  0
LINE
  5
74
  8
1
 62
     7
 10
8.3000000000000984
 20
65.485979694771515
 30
0.0
 11
8.3000000000000984
 21
68.985979694771515
 31
0.0
  0
LINE
  5
75
  8
1
 62
     7
 10
8.5999999999999943
 20
65.485979694771515
 30
0.0
 11
8.5999999999999943
 21
68.985979694771515
 31
0.0
  0
LINE
  5
76
  8
1
 62
     7
 10
7.7000000000000171
 20
65.485979694771515
 30
0.0
 11
7.7000000000000171
 21
68.985979694771515
 31
0.0
  0
LINE
  5
77
  8
1
 62
     7
 10
7.4000000000000048
 20
65.485979694771515
 30
0.0
 11
7.4000000000000048
 21
68.985979694771515
 31
0.0
  0
LINE
  5
78
  8
1
 62
     7
 10
12.5
 20
-44.5
 30
0.0
 11
11.5
 21
-43.5
 31
0.0
  0
LINE
  5
79
  8
1
 62
     7
 10
0.0
 20
-42.5
 30
0.0
 11
1.0
 21
-43.5
 31
0.0
  0
LINE
  5
7A
  8
1
 62
     7
 10
0.0
 20
42.499999999999993
 30
0.0
 11
0.0
 21
-42.5
 31
0.0
  0
LINE
  5
7B
  8
1
 62
     7
 10
12.5
 20
-43.5
 30
0.0
 11
1.0
 21
-43.5
 31
0.0
  0
LINE
  5
7C
  8
1
 62
     7
 10
22.0
 20
-42.75
 30
0.0
 11
12.5
 21
-42.75
 31
0.0
  0
LINE
  5
7D
  8
1
  6
DASHED
 62
     7
 10
22.0
 20
-47.5
 30
0.0
 11
22.0
 21
-45.0
 31
0.0
  0
LINE
  5
7E
  8
1
 62
     7
 10
16.0
 20
-19.999999999999961
 30
0.0
 11
0.0
 21
-19.999999999999961
 31
0.0
  0
LINE
  5
7F
  8
1
 62
     7
 10
16.0
 20
-19.999999999999961
 30
0.0
 11
20.0
 21
-23.999999999999961
 31
0.0
  0
LINE
  5
80
  8
1
 62
     7
 10
22.0
 20
-23.999999999999961
 30
0.0
 11
20.0
 21
-23.999999999999961
 31
0.0
  0
LINE
  5
81
  8
1
 62
     7
 10
35.0
 20
-45.0
 30
0.0
 11
21.499999999999989
 21
-45.0
 31
0.0
  0
LINE
  5
82
  8
1
 62
     7
 10
21.499999999999989
 20
-42.75
 30
0.0
 11
12.5
 21
-42.75
 31
0.0
  0
LINE
  5
83
  8
1
 62
     7
 10
21.499999999999989
 20
-42.75
 30
0.0
 11
21.499999999999989
 21
-45.0
 31
0.0
  0
LINE
  5
84
  8
1
 62
     7
 10
35.0
 20
-27.948181553536202
 30
0.0
 11
37.0
 21
-26.942347166444211
 31
0.0
  0
LINE
  5
85
  8
1
 62
     7
 10
37.0
 20
-26.313430342126299
 30
0.0
 11
35.0
 21
-26.313430342126299
 31
0.0
  0
LINE
  5
86
  8
1
 62
     7
 10
35.0
 20
-17.65317630428197
 30
0.0
 11
37.0
 21
-17.65317630428197
 31
0.0
  0
LINE
  5
87
  8
1
 62
     7
 10
37.0
 20
-17.65317630428197
 30
0.0
 11
37.0
 21
-26.942347166444211
 31
0.0
  0
LINE
  5
88
  8
1
 62
     7
 10
12.5
 20
-42.75
 30
0.0
 11
12.5
 21
-47.5
 31
0.0
  0
LINE
  5
89
  8
1
 62
     7
 10
-183.34460928599461
 20
68.985979694771515
 30
0.0
 11
-183.34460928599461
 21
65.485979694771515
 31
0.0
  0
LINE
  5
8A
  8
1
 62
     7
 10
-183.64460928599459
 20
68.985979694771515
 30
0.0
 11
-183.64460928599459
 21
65.485979694771515
 31
0.0
  0
LINE
  5
8B
  8
1
 62
     7
 10
-183.9446092859946
 20
68.985979694771515
 30
0.0
 11
-183.9446092859946
 21
65.485979694771515
 31
0.0
  0
LINE
  5
8C
  8
1
 62
     7
 10
-183.04460928599451
 20
68.985979694771515
 30
0.0
 11
-183.04460928599451
 21
65.485979694771515
 31
0.0
  0
LINE
  5
8D
  8
1
 62
     7
 10
-182.7446092859945
 20
68.985979694771515
 30
0.0
 11
-182.7446092859945
 21
65.485979694771515
 31
0.0
  0
LINE
  5
8E
  8
1
 62
     7
 10
-180.86460928599459
 20
68.985979694771515
 30
0.0
 11
-180.86460928599459
 21
65.485979694771515
 31
0.0
  0
LINE
  5
8F
  8
1
 62
     7
 10
-181.1646092859946
 20
68.985979694771515
 30
0.0
 11
-181.1646092859946
 21
65.485979694771515
 31
0.0
  0
LINE
  5
90
  8
1
 62
     7
 10
-181.46460928599461
 20
68.985979694771515
 30
0.0
 11
-181.46460928599461
 21
65.485979694771515
 31
0.0
  0
LINE
  5
91
  8
1
 62
     7
 10
-180.56460928599449
 20
68.985979694771515
 30
0.0
 11
-180.56460928599449
 21
65.485979694771515
 31
0.0
  0
LINE
  5
92
  8
1
 62
     7
 10
-180.26460928599451
 20
68.985979694771515
 30
0.0
 11
-180.26460928599451
 21
65.485979694771515
 31
0.0
  0
LINE
  5
93
  8
1
 62
     7
 10
20.0
 20
22.600000000000009
 30
0.0
 11
32.0
 21
22.600000000000009
 31
0.0
  0
LINE
  5
94
  8
1
 62
     7
 10
19.0
 20
17.999999999999979
 30
0.0
 11
19.0
 21
21.600000000000009
 31
0.0
  0
LINE
  5
95
  8
1
 62
     7
 10
7.0
 20
17.999999999999979
 30
0.0
 11
19.0
 21
17.999999999999979
 31
0.0
  0
LINE
  5
96
  8
1
 62
     7
 10
6.0
 20
-17.0
 30
0.0
 11
6.0
 21
16.999999999999989
 31
0.0
  0
LINE
  5
97
  8
1
 62
     7
 10
19.0
 20
-18.0
 30
0.0
 11
7.0
 21
-18.0
 31
0.0
  0
LINE
  5
98
  8
1
 62
     7
 10
33.0
 20
-21.599999999999991
 30
0.0
 11
33.0
 21
21.600000000000009
 31
0.0
  0
LINE
  5
99
  8
1
 62
     7
 10
19.0
 20
-21.599999999999991
 30
0.0
 11
19.0
 21
-18.0
 31
0.0
  0
LINE
  5
9A
  8
1
 62
     7
 10
32.0
 20
-22.599999999999991
 30
0.0
 11
20.0
 21
-22.599999999999991
 31
0.0
  0
LINE
  5
9B
  8
1
 62
     7
 10
7.0
 20
17.999999999999979
 30
0.0
 11
6.0
 21
16.999999999999989
 31
0.0
  0
LINE
  5
9C
  8
1
 62
     7
 10
20.0
 20
22.600000000000009
 30
0.0
 11
19.0
 21
21.600000000000009
 31
0.0
  0
LINE
  5
9D
  8
1
 62
     7
 10
32.0
 20
22.600000000000009
 30
0.0
 11
33.0
 21
21.600000000000009
 31
0.0
  0
LINE
  5
9E
  8
1
 62
     7
 10
6.0
 20
-17.0
 30
0.0
 11
7.0
 21
-18.0
 31
0.0
  0
LINE
  5
9F
  8
1
 62
     7
 10
19.0
 20
-21.599999999999991
 30
0.0
 11
20.0
 21
-22.599999999999991
 31
0.0
  0
LINE
  5
A0
  8
1
 62
     7
 10
33.0
 20
-21.599999999999991
 30
0.0
 11
32.0
 21
-22.599999999999991
 31
0.0
  0
LINE
  5
A1
  8
1
 62
     7
 10
22.0
 20
18.999999999999979
 30
0.0
 11
22.0
 21
44.249999999999993
 31
0.0
  0
LINE
  5
A2
  8
1
 62
     7
 10
16.0
 20
-19.999999999999961
 30
0.0
 11
16.0
 21
-18.0
 31
0.0
  0
LINE
  5
A3
  8
1
 62
     7
 10
35.0
 20
-45.0
 30
0.0
 11
35.0
 21
45.0
 31
0.0
  0
LINE
  5
A4
  8
1
 62
     7
 10
35.0
 20
41.599999999999987
 30
0.0
 11
32.5
 21
41.599999999999987
 31
0.0
  0
LINE
  5
A5
  8
1
  6
DASHED
 62
     7
 10
32.5
 20
47.5
 30
0.0
 11
32.5
 21
45.0
 31
0.0
  0
LINE
  5
A6
  8
1
 62
     7
 10
32.5
 20
40.499999999999993
 30
0.0
 11
32.5
 21
45.0
 31
0.0
  0
LINE
  5
A7
  8
1
 62
     7
 10
32.5
 20
40.499999999999993
 30
0.0
 11
33.5
 21
40.499999999999993
 31
0.0
  0
LINE
  5
A8
  8
1
  6
DASHED
 62
     7
 10
30.5
 20
47.5
 30
0.0
 11
30.5
 21
44.249999999999993
 31
0.0
  0
LINE
  5
A9
  8
1
 62
     7
 10
30.5
 20
44.249999999999993
 30
0.0
 11
30.5
 21
43.0
 31
0.0
  0
LINE
  5
AA
  8
1
 62
     7
 10
29.5
 20
43.0
 30
0.0
 11
30.5
 21
43.0
 31
0.0
  0
LINE
  5
AB
  8
1
 62
     7
 10
19.0
 20
18.999999999999979
 30
0.0
 11
33.0
 21
18.999999999999979
 31
0.0
  0
LINE
  5
AC
  8
1
 62
     7
 10
33.0
 20
-19.0
 30
0.0
 11
19.0
 21
-19.0
 31
0.0
  0
LINE
  5
AD
  8
1
 62
     7
 10
29.5
 20
18.999999999999979
 30
0.0
 11
29.5
 21
44.249999999999993
 31
0.0
  0
LINE
  5
AE
  8
1
  6
DASHED
 62
     7
 10
22.0
 20
44.249999999999993
 30
0.0
 11
22.0
 21
47.5
 31
0.0
  0
LINE
  5
AF
  8
1
  6
DASHED
 62
     7
 10
29.5
 20
44.249999999999993
 30
0.0
 11
29.5
 21
47.5
 31
0.0
  0
LINE
  5
B0
  8
1
 62
     7
 10
34.5
 20
39.499999999999993
 30
0.0
 11
34.5
 21
-39.5
 31
0.0
  0
LINE
  5
B1
  8
1
 62
     7
 10
35.0
 20
-41.600000000000009
 30
0.0
 11
32.5
 21
-41.600000000000009
 31
0.0
  0
LINE
  5
B2
  8
1
 62
     7
 10
32.5
 20
-40.499999999999993
 30
0.0
 11
33.5
 21
-40.499999999999993
 31
0.0
  0
LINE
  5
B3
  8
1
 62
     7
 10
30.5
 20
-47.5
 30
0.0
 11
32.5
 21
-47.5
 31
0.0
  0
LINE
  5
B4
  8
1
 62
     7
 10
22.0
 20
-47.5
 30
0.0
 11
29.5
 21
-47.5
 31
0.0
  0
LINE
  5
B5
  8
1
  6
DASHED
 62
     7
 10
29.5
 20
-47.5
 30
0.0
 11
29.5
 21
-45.0
 31
0.0
  0
LINE
  5
B6
  8
1
  6
DASHED
 62
     7
 10
30.5
 20
-47.5
 30
0.0
 11
30.5
 21
-45.0
 31
0.0
  0
LINE
  5
B7
  8
1
  6
DASHED
 62
     7
 10
32.5
 20
-47.5
 30
0.0
 11
32.5
 21
-45.0
 31
0.0
  0
LINE
  5
B8
  8
1
 62
     7
 10
30.5
 20
-43.0
 30
0.0
 11
29.5
 21
-43.0
 31
0.0
  0
LINE
  5
B9
  8
1
 62
     7
 10
29.5
 20
38.249999999999993
 30
0.0
 11
22.0
 21
38.249999999999993
 31
0.0
  0
LINE
  5
BA
  8
1
 62
     7
 10
29.5
 20
31.749999999999979
 30
0.0
 11
22.0
 21
31.749999999999979
 31
0.0
  0
LINE
  5
BB
  8
1
 62
     3
 10
29.5
 20
47.5
 30
0.0
 11
22.0
 21
18.999999999999979
 31
0.0
  0
LINE
  5
BC
  8
1
 62
     3
 10
29.5
 20
18.999999999999979
 30
0.0
 11
22.0
 21
47.5
 31
0.0
  0
LINE
  5
BD
  8
1
 62
     3
 10
29.5
 20
-19.0
 30
0.0
 11
22.0
 21
-47.5
 31
0.0
  0
LINE
  5
BE
  8
1
 62
     3
 10
22.0
 20
-19.0
 30
0.0
 11
29.5
 21
-47.5
 31
0.0
  0
LINE
  5
BF
  8
1
 62
     7
 10
22.0
 20
-31.75
 30
0.0
 11
29.5
 21
-31.75
 31
0.0
  0
LINE
  5
C0
  8
1
 62
     7
 10
29.5
 20
-38.25
 30
0.0
 11
22.0
 21
-38.25
 31
0.0
  0
LINE
  5
C1
  8
1
 62
     7
 10
6.0
 20
14.19999999999999
 30
0.0
 11
33.0
 21
14.19999999999999
 31
0.0
  0
LINE
  5
C2
  8
1
 62
     7
 10
21.499999999999989
 20
12.999999999999989
 30
0.0
 11
27.5
 21
12.999999999999989
 31
0.0
  0
LINE
  5
C3
  8
1
 62
     7
 10
27.5
 20
12.999999999999989
 30
0.0
 11
27.5
 21
-13.0
 31
0.0
  0
LINE
  5
C4
  8
1
 62
     7
 10
27.5
 20
-13.0
 30
0.0
 11
21.499999999999989
 21
-13.0
 31
0.0
  0
LINE
  5
C5
  8
1
 62
     7
 10
21.499999999999989
 20
-13.0
 30
0.0
 11
21.499999999999989
 21
12.999999999999989
 31
0.0
  0
LINE
  5
C6
  8
1
 62
     7
 10
27.5
 20
-12.5
 30
0.0
 11
33.0
 21
-12.5
 31
0.0
  0
LINE
  5
C7
  8
1
 62
     7
 10
21.499999999999989
 20
12.499999999999989
 30
0.0
 11
6.0
 21
12.499999999999989
 31
0.0
  0
LINE
  5
C8
  8
1
 62
     7
 10
21.499999999999989
 20
-12.5
 30
0.0
 11
6.0
 21
-12.5
 31
0.0
  0
LINE
  5
C9
  8
1
 62
     7
 10
34.5
 20
39.499999999999993
 30
0.0
 11
33.5
 21
40.499999999999993
 31
0.0
  0
LINE
  5
CA
  8
1
 62
     7
 10
33.5
 20
-40.499999999999993
 30
0.0
 11
34.5
 21
-39.5
 31
0.0
  0
LINE
  5
CB
  8
1
 62
     7
 10
29.5
 20
22.999999999999979
 30
0.0
 11
32.5
 21
22.999999999999979
 31
0.0
  0
LINE
  5
CC
  8
1
 62
     7
 10
32.5
 20
22.999999999999979
 30
0.0
 11
34.5
 21
24.999999999999989
 31
0.0
  0
LINE
  5
CD
  8
1
 62
     7
 10
34.5
 20
-25.0
 30
0.0
 11
32.5
 21
-23.0
 31
0.0
  0
LINE
  5
CE
  8
1
 62
     7
 10
32.5
 20
-23.0
 30
0.0
 11
29.5
 21
-23.0
 31
0.0
  0
LINE
  5
CF
  8
1
 62
     7
 10
-186.17960928599459
 20
14.19999999999999
 30
0.0
 11
-178.17960928599459
 21
14.19999999999999
 31
0.0
  0
LINE
  5
D0
  8
1
 62
     7
 10
-178.17960928599459
 20
14.19999999999999
 30
0.0
 11
-178.17960928599459
 21
11.842719282327
 31
0.0
  0
LINE
  5
D1
  8
1
 62
     7
 10
-186.17960928599459
 20
14.19999999999999
 30
0.0
 11
-186.17960928599459
 21
11.842719282327
 31
0.0
  0
LINE
  5
D2
  8
1
  6
DASHDOT
 62
     3
 10
-182.17960928599459
 20
28.478043636707891
 30
0.0
 11
-182.17960928599459
 21
21.483065193377399
 31
0.0
  0
LINE
  5
D3
  8
1
  6
DASHDOT
 62
     3
 10
-210.6576529227024
 20
0.0
 30
0.0
 11
-203.66267447937199
 21
0.0
 31
0.0
  0
LINE
  5
D4
  8
1
  6
DASHDOT
 62
     3
 10
-182.17960928599459
 20
-28.478043636707909
 30
0.0
 11
-182.17960928599459
 21
-21.483065193377399
 31
0.0
  0
LINE
  5
D5
  8
1
  6
DASHDOT
 62
     3
 10
-153.70156564928661
 20
0.0
 30
0.0
 11
-160.6965440926171
 21
0.0
 31
0.0
  0
LINE
  5
D6
  8
1
  6
DASHDOT
 62
     3
 10
-180.0812975392393
 20
0.0
 30
0.0
 11
-184.27792103274979
 21
0.0
 31
0.0
  0
LINE
  5
D7
  8
1
  6
DASHDOT
 62
     3
 10
-182.17960928599459
 20
2.098311746755229
 30
0.0
 11
-182.17960928599459
 21
-2.098311746755229
 31
0.0
  0
LINE
  5
D8
  8
1
  6
DASHED
 62
     7
 10
-170.55661856380851
 20
13.744311065745631
 30
0.0
 11
-174.46530507038219
 21
9.8356245591719311
 31
0.0
  0
LINE
  5
D9
  8
1
  6
DASHED
 62
     7
 10
-168.435298220249
 20
11.622990722185991
 30
0.0
 11
-172.3439847268227
 21
7.7143042156123149
 31
0.0
  0
LINE
  5
DA
  8
1
  6
DASHDOT
 62
     3
 10
-168.99026021350929
 20
13.189349072485211
 30
0.0
 11
-173.78945489325929
 21
8.3901543927353543
 31
0.0
  0
LINE
  5
DB
  8
1
  6
DASHED
 62
     7
 10
-195.92392035174009
 20
11.622990722185991
 30
0.0
 11
-192.01523384516639
 21
7.7143042156122874
 31
0.0
  0
LINE
  5
DC
  8
1
  6
DASHED
 62
     7
 10
-193.80260000818049
 20
-13.744311065745631
 30
0.0
 11
-189.8939135016069
 21
-9.8356245591719311
 31
0.0
  0
LINE
  5
DD
  8
1
  6
DASHED
 62
     7
 10
-168.435298220249
 20
-11.622990722185991
 30
0.0
 11
-172.3439847268227
 21
-7.7143042156122874
 31
0.0
  0
LINE
  5
DE
  8
1
  6
DASHDOT
 62
     3
 10
-195.3689583584798
 20
13.189349072485211
 30
0.0
 11
-190.56976367873
 21
8.3901543927353543
 31
0.0
  0
LINE
  5
DF
  8
1
  6
DASHDOT
 62
     3
 10
-195.3689583584798
 20
-13.189349072485189
 30
0.0
 11
-190.56976367873
 21
-8.3901543927353543
 31
0.0
  0
LINE
  5
E0
  8
1
  6
DASHDOT
 62
     3
 10
-168.99026021350929
 20
-13.189349072485211
 30
0.0
 11
-173.78945489325929
 21
-8.3901543927353543
 31
0.0
  0
LINE
  5
E1
  8
1
  6
DASHED
 62
     7
 10
-193.80260000818049
 20
13.744311065745631
 30
0.0
 11
-189.8939135016069
 21
9.8356245591719205
 31
0.0
  0
LINE
  5
E2
  8
1
  6
DASHED
 62
     7
 10
-195.92392035174009
 20
-11.622990722185991
 30
0.0
 11
-192.01523384516639
 21
-7.7143042156123149
 31
0.0
  0
LINE
  5
E3
  8
1
  6
DASHED
 62
     7
 10
-170.55661856380851
 20
-13.744311065745631
 30
0.0
 11
-174.46530507038219
 21
-9.8356245591719205
 31
0.0
  0
LINE
  5
E4
  8
1
 62
     7
 10
6.8350000000000071
 20
43.5
 30
0.0
 11
6.8350000000000071
 21
65.485979694771515
 31
0.0
  0
LINE
  5
E5
  8
1
 62
     3
 10
-4.0
 20
0.0
 30
0.0
 11
0.0
 21
0.0
 31
0.0
  0
LINE
  5
E6
  8
1
 62
     3
 10
35.0
 20
0.0
 30
0.0
 11
39.0
 21
0.0
 31
0.0
  0
LINE
  5
E7
  8
1
  6
DASHDOT
 62
     3
 10
24.5
 20
-12.06536545994091
 30
0.0
 11
24.5
 21
-19.723461969129399
 31
0.0
  0
LINE
  5
E8
  8
1
 62
     7
 10
26.0
 20
-13.0
 30
0.0
 11
26.0
 21
-19.0
 31
0.0
  0
LINE
  5
E9
  8
1
 62
     7
 10
23.0
 20
-13.0
 30
0.0
 11
23.0
 21
-19.0
 31
0.0
  0
LINE
  5
EA
  8
1
 62
     7
 10
-73.108882202131994
 20
43.5
 30
0.0
 11
-72.108882202132008
 21
44.5
 31
0.0
  0
LINE
  5
EB
  8
1
 62
     7
 10
-83.608882202131966
 20
43.5
 30
0.0
 11
-73.108882202131994
 21
43.5
 31
0.0
  0
LINE
  5
EC
  8
1
 62
     7
 10
-77.773882202132
 20
65.485979694771515
 30
0.0
 11
-75.443882202131988
 21
65.485979694771515
 31
0.0
  0
LINE
  5
ED
  8
1
 62
     7
 10
-75.443882202131988
 20
65.485979694771515
 30
0.0
 11
-75.443882202131988
 21
43.5
 31
0.0
  0
LINE
  5
EE
  8
1
 62
     7
 10
-83.608882202131966
 20
43.5
 30
0.0
 11
-84.608882202131966
 21
42.499999999999993
 31
0.0
  0
LINE
  5
EF
  8
1
 62
     7
 10
-52.108882202132008
 20
45.0
 30
0.0
 11
-49.608882202132008
 21
45.0
 31
0.0
  0
LINE
  5
F0
  8
1
 62
     7
 10
-76.608882202132008
 20
65.485979694771515
 30
0.0
 11
-76.608882202132008
 21
68.985979694771515
 31
0.0
  0
LINE
  5
F1
  8
1
 62
     7
 10
-76.308882202131997
 20
65.485979694771515
 30
0.0
 11
-76.308882202131997
 21
68.985979694771515
 31
0.0
  0
LINE
  5
F2
  8
1
 62
     7
 10
-76.008882202131986
 20
65.485979694771515
 30
0.0
 11
-76.008882202131986
 21
68.985979694771515
 31
0.0
  0
LINE
  5
F3
  8
1
 62
     7
 10
-76.908882202131991
 20
65.485979694771515
 30
0.0
 11
-76.908882202131991
 21
68.985979694771515
 31
0.0
  0
LINE
  5
F4
  8
1
 62
     7
 10
-77.208882202132003
 20
65.485979694771515
 30
0.0
 11
-77.208882202132003
 21
68.985979694771515
 31
0.0
  0
LINE
  5
F5
  8
1
 62
     7
 10
-72.108882202132008
 20
-44.5
 30
0.0
 11
-73.108882202131994
 21
-43.5
 31
0.0
  0
LINE
  5
F6
  8
1
 62
     7
 10
-73.108882202131994
 20
-43.5
 30
0.0
 11
-83.608882202131966
 21
-43.5
 31
0.0
  0
LINE
  5
F7
  8
1
 62
     7
 10
-84.608882202131966
 20
-42.5
 30
0.0
 11
-83.608882202131966
 21
-43.5
 31
0.0
  0
LINE
  5
F8
  8
1
 62
     7
 10
-84.608882202131966
 20
42.499999999999993
 30
0.0
 11
-84.608882202131966
 21
-42.5
 31
0.0
  0
LINE
  5
F9
  8
1
 62
     7
 10
-49.608882202132008
 20
-45.0
 30
0.0
 11
-52.108882202132008
 21
-45.0
 31
0.0
  0
LINE
  5
FA
  8
1
 62
     7
 10
-54.108882202132008
 20
-47.5
 30
0.0
 11
-52.108882202132008
 21
-47.5
 31
0.0
  0
LINE
  5
FB
  8
1
 62
     7
 10
-49.608882202132008
 20
-47.5
 30
0.0
 11
-72.108882202132008
 21
-47.5
 31
0.0
  0
LINE
  5
FC
  8
1
 62
     7
 10
-77.773882202132
 20
43.5
 30
0.0
 11
-77.773882202132
 21
65.485979694771515
 31
0.0
  0
LINE
  5
FD
  8
1
 62
     3
 10
-88.608882202131966
 20
0.0
 30
0.0
 11
-84.608882202131966
 21
0.0
 31
0.0
  0
LINE
  5
FE
  8
1
 62
     3
 10
-49.608882202132008
 20
0.0
 30
0.0
 11
-45.608882202132001
 21
0.0
 31
0.0
  0
LINE
  5
FF
  8
1
 62
     7
 10
-72.108882202132008
 20
47.5
 30
0.0
 11
-72.108882202132008
 21
-47.5
 31
0.0
  0
LINE
  5
100
  8
1
 62
     7
 10
-73.108882202131994
 20
-43.5
 30
0.0
 11
-73.108882202131994
 21
43.5
 31
0.0
  0
LINE
  5
101
  8
1
 62
     7
 10
-52.108882202132008
 20
47.5
 30
0.0
 11
-52.108882202132008
 21
27.948181553536202
 31
0.0
  0
LINE
  5
102
  8
1
 62
     7
 10
-54.108882202132008
 20
27.948181553536202
 30
0.0
 11
-54.108882202132008
 21
47.5
 31
0.0
  0
LINE
  5
103
  8
1
 62
     7
 10
-63.108882202132001
 20
47.5
 30
0.0
 11
-63.108882202132001
 21
27.948181553536202
 31
0.0
  0
LINE
  5
104
  8
1
 62
     7
 10
-72.108882202132008
 20
47.5
 30
0.0
 11
-49.608882202132008
 21
47.5
 31
0.0
  0
LINE
  5
105
  8
1
 62
     7
 10
-52.108882202132008
 20
-27.948181553536202
 30
0.0
 11
-52.108882202132008
 21
-47.5
 31
0.0
  0
LINE
  5
106
  8
1
 62
     7
 10
33.0
 20
12.499999999999989
 30
0.0
 11
27.5
 21
12.499999999999989
 31
0.0
  0
LINE
  5
107
  8
1
 62
     7
 10
-49.608882202132008
 20
47.5
 30
0.0
 11
-47.608882202132008
 21
45.499999999999993
 31
0.0
  0
LINE
  5
108
  8
1
 62
     7
 10
-49.608882202132008
 20
44.249999999999993
 30
0.0
 11
-47.608882202132008
 21
44.249999999999993
 31
0.0
  0
LINE
  5
109
  8
1
 62
     7
 10
-47.608882202132008
 20
44.249999999999993
 30
0.0
 11
-47.608882202132008
 21
45.499999999999993
 31
0.0
  0
LINE
  5
10A
  8
1
 62
     7
 10
-55.108882202132008
 20
47.5
 30
0.0
 11
-55.108882202132008
 21
27.948181553536202
 31
0.0
  0
LINE
  5
10B
  8
1
 62
     7
 10
-62.608882202132008
 20
47.5
 30
0.0
 11
-62.608882202132008
 21
27.948181553536202
 31
0.0
  0
LINE
  5
10C
  8
1
 62
     7
 10
-54.108882202132008
 20
44.249999999999993
 30
0.0
 11
-55.108882202132008
 21
44.249999999999993
 31
0.0
  0
LINE
  5
10D
  8
1
 62
     7
 10
-62.608882202132008
 20
44.249999999999993
 30
0.0
 11
-63.108882202132001
 21
44.249999999999993
 31
0.0
  0
LINE
  5
10E
  8
1
 62
     7
 10
-62.608882202132008
 20
-47.5
 30
0.0
 11
-62.608882202132008
 21
-27.948181553536202
 31
0.0
  0
LINE
  5
10F
  8
1
 62
     7
 10
-49.608882202132008
 20
-45.0
 30
0.0
 11
-52.108882202132008
 21
-45.0
 31
0.0
  0
LINE
  5
110
  8
1
 62
     7
 10
-47.608882202132008
 20
-45.499999999999993
 30
0.0
 11
-49.608882202132008
 21
-47.5
 31
0.0
  0
LINE
  5
111
  8
1
 62
     7
 10
-47.608882202132008
 20
-44.249999999999993
 30
0.0
 11
-49.608882202132008
 21
-44.249999999999993
 31
0.0
  0
LINE
  5
112
  8
1
 62
     7
 10
-47.608882202132008
 20
-45.499999999999993
 30
0.0
 11
-47.608882202132008
 21
-44.249999999999993
 31
0.0
  0
LINE
  5
113
  8
1
 62
     7
 10
-55.108882202132008
 20
-44.249999999999993
 30
0.0
 11
-54.108882202132008
 21
-44.249999999999993
 31
0.0
  0
LINE
  5
114
  8
1
 62
     7
 10
-49.608882202132008
 20
-19.287927515691759
 30
0.0
 11
-47.608882202132008
 21
-18.282093128599769
 31
0.0
  0
LINE
  5
115
  8
1
 62
     7
 10
-47.608882202132008
 20
-17.65317630428197
 30
0.0
 11
-49.608882202132008
 21
-17.65317630428197
 31
0.0
  0
LINE
  5
116
  8
1
 62
     7
 10
-49.608882202132008
 20
-27.948181553536202
 30
0.0
 11
-47.608882202132008
 21
-26.942347166444211
 31
0.0
  0
LINE
  5
117
  8
1
 62
     7
 10
-47.608882202132008
 20
-17.65317630428197
 30
0.0
 11
-47.608882202132008
 21
-26.942347166444211
 31
0.0
  0
LINE
  5
118
  8
1
 62
     7
 10
-63.108882202132001
 20
-19.287927515691759
 30
0.0
 11
-49.608882202132008
 21
-19.287927515691759
 31
0.0
  0
LINE
  5
119
  8
1
 62
     7
 10
-49.608882202132008
 20
-27.948181553536202
 30
0.0
 11
-63.108882202132001
 21
-27.948181553536202
 31
0.0
  0
LINE
  5
11A
  8
1
 62
     7
 10
-62.608882202132008
 20
-19.287927515691759
 30
0.0
 11
-62.608882202132008
 21
19.287927515691759
 31
0.0
  0
LINE
  5
11B
  8
1
 62
     7
 10
-55.108882202132008
 20
-27.948181553536202
 30
0.0
 11
-55.108882202132008
 21
-47.5
 31
0.0
  0
LINE
  5
11C
  8
1
 62
     7
 10
-54.108882202132008
 20
-27.948181553536202
 30
0.0
 11
-54.108882202132008
 21
-47.5
 31
0.0
  0
LINE
  5
11D
  8
1
 62
     7
 10
-52.108882202132008
 20
-19.287927515691759
 30
0.0
 11
-52.108882202132008
 21
19.287927515691759
 31
0.0
  0
LINE
  5
11E
  8
1
 62
     7
 10
-63.108882202132001
 20
-27.948181553536202
 30
0.0
 11
-63.108882202132001
 21
-47.5
 31
0.0
  0
LINE
  5
11F
  8
1
 62
     7
 10
-49.608882202132008
 20
45.0
 30
0.0
 11
-49.608882202132008
 21
19.287927515691759
 31
0.0
  0
LINE
  5
120
  8
1
 62
     7
 10
-49.608882202132008
 20
-19.287927515691759
 30
0.0
 11
-49.608882202132008
 21
-45.0
 31
0.0
  0
LINE
  5
121
  8
1
 62
     7
 10
12.5
 20
-47.5
 30
0.0
 11
35.0
 21
-47.5
 31
0.0
  0
LINE
  5
122
  8
1
 62
     7
 10
37.0
 20
-45.499999999999993
 30
0.0
 11
37.0
 21
-44.249999999999993
 31
0.0
  0
LINE
  5
123
  8
1
 62
     7
 10
37.0
 20
-44.249999999999993
 30
0.0
 11
35.0
 21
-44.249999999999993
 31
0.0
  0
LINE
  5
124
  8
1
 62
     7
 10
35.0
 20
-44.249999999999993
 30
0.0
 11
35.0
 21
-45.0
 31
0.0
  0
LINE
  5
125
  8
1
 62
     7
 10
37.0
 20
-45.499999999999993
 30
0.0
 11
35.0
 21
-47.5
 31
0.0
  0
LINE
  5
126
  8
1
 62
     7
 10
30.5
 20
-45.0
 30
0.0
 11
30.5
 21
-43.0
 31
0.0
  0
LINE
  5
127
  8
1
 62
     7
 10
32.5
 20
-45.0
 30
0.0
 11
32.5
 21
-40.499999999999993
 31
0.0
  0
LINE
  5
128
  8
1
 62
     7
 10
29.5
 20
-45.0
 30
0.0
 11
29.5
 21
-19.0
 31
0.0
  0
LINE
  5
129
  8
1
 62
     7
 10
22.0
 20
-45.0
 30
0.0
 11
22.0
 21
-19.0
 31
0.0
  0
ARC
  5
12A
  8
1
 62
     7
 10
-182.17960928599459
 20
0.0
 30
0.0
 40
47.5
 50
92.992803555706601
 51
87.007196444293442
  0
ARC
  5
12B
  8
1
 62
     7
 10
-182.17960928599459
 20
0.0
 30
0.0
 40
12.499999999999989
 50
108.6629248849424
 51
71.337075115057516
  0
ARC
  5
12C
  8
1
  6
DASHDOT
 62
     3
 10
-182.17960928599459
 20
0.0
 30
0.0
 40
24.999999999999979
 50
81.859745575029962
 51
98.300847472225456
  0
ARC
  5
12D
  8
1
  6
DASHDOT
 62
     3
 10
-182.17960928599459
 20
0.0
 30
0.0
 40
25.000000000000011
 50
171.85974557502979
 51
188.3008474722252
  0
ARC
  5
12E
  8
1
  6
DASHDOT
 62
     3
 10
-182.17960928599459
 20
0.0
 30
0.0
 40
24.999999999999979
 50
261.85974557502988
 51
278.30084747222497
  0
ARC
  5
12F
  8
1
  6
DASHDOT
 62
     3
 10
-182.17960928599459
 20
0.0
 30
0.0
 40
24.999999999999989
 50
351.85974557502982
 51
8.3008474722253176
  0
CIRCLE
  5
130
  8
1
 62
     7
 10
-182.17960928599459
 20
0.0
 30
0.0
 40
42.75
  0
CIRCLE
  5
131
  8
1
 62
     7
 10
-182.17960928599459
 20
0.0
 30
0.0
 40
43.5
  0
CIRCLE
  5
132
  8
1
 62
     3
 10
-157.1796092859945
 20
0.0
 30
0.0
 40
3.0
  0
CIRCLE
  5
133
  8
1
 62
     7
 10
-157.1796092859945
 20
0.0
 30
0.0
 40
2.3999999999999768
  0
CIRCLE
  5
134
  8
1
 62
     3
 10
-182.17960928599459
 20
-24.999999999999961
 30
0.0
 40
3.0
  0
CIRCLE
  5
135
  8
1
 62
     7
 10
-182.17960928599459
 20
-24.999999999999961
 30
0.0
 40
2.4000000000000061
  0
CIRCLE
  5
136
  8
1
 62
     3
 10
-207.17960928599459
 20
0.0000000000000284
 30
0.0
 40
3.0
  0
CIRCLE
  5
137
  8
1
 62
     7
 10
-207.17960928599459
 20
0.0000000000000284
 30
0.0
 40
2.3999999999999768
  0
CIRCLE
  5
138
  8
1
 62
     3
 10
-182.17960928599459
 20
24.999999999999989
 30
0.0
 40
3.0
  0
CIRCLE
  5
139
  8
1
 62
     7
 10
-182.17960928599459
 20
24.999999999999989
 30
0.0
 40
2.3999999999999768
  0
CIRCLE
  5
13A
  8
1
 62
     7
 10
-182.17960928599459
 20
0.0
 30
0.0
 40
20.0
  0
CIRCLE
  5
13B
  8
1
 62
     7
 10
-182.17960928599459
 20
0.0
 30
0.0
 40
18.0
  0
TEXT
  5
13D
  8
1
 62
     7
 10
-193.69519478997259
 20
94.280133391609596
 30
0.0
 40
3.5
  1
MWB 2.5
 41
0.9
  7
SIMPLEX
  0
ENDSEC
  0
EOF
