  0
SECTION
  2
HEADER
  9
$ACADVER
  1
AC1009
  9
$INSBASE
 10
0.0
 20
0.0
 30
0.0
  9
$EXTMIN
 10
-467.10000000000008
 20
-99.0
 30
0.0
  9
$EXTMAX
 10
74.099999999999909
 20
173.78304419978591
 30
0.0
  9
$LIMMIN
 10
-467.10000000000008
 20
-99.0
  9
$LIMMAX
 10
74.099999999999909
 20
173.78304419978591
  9
$ORTHOMODE
 70
     0
  9
$REGENMODE
 70
     1
  9
$FILLMODE
 70
     1
  9
$QTEXTMODE
 70
     0
  9
$MIRRTEXT
 70
     1
  9
$DRAGMODE
 70
     2
  9
$LTSCALE
 40
1.0
  9
$OSMODE
 70
    37
  9
$ATTMODE
 70
     1
  9
$TEXTSIZE
 40
3.5
  9
$TRACEWID
 40
0.5
  9
$TEXTSTYLE
  7
STANDARD
  9
$CLAYER
  8
0
  9
$CELTYPE
  6
BYLAYER
  9
$CECOLOR
 62
   256
  9
$DIMSCALE
 40
1.0
  9
$DIMASZ
 40
0.18
  9
$DIMEXO
 40
0.0625
  9
$DIMDLI
 40
0.38
  9
$DIMRND
 40
0.0
  9
$DIMDLE
 40
0.0
  9
$DIMEXE
 40
0.18
  9
$DIMTP
 40
0.0
  9
$DIMTM
 40
0.0
  9
$DIMTXT
 40
0.18
  9
$DIMCEN
 40
0.09
  9
$DIMTSZ
 40
0.0
  9
$DIMTOL
 70
     0
  9
$DIMLIM
 70
     0
  9
$DIMTIH
 70
     1
  9
$DIMTOH
 70
     1
  9
$DIMSE1
 70
     0
  9
$DIMSE2
 70
     0
  9
$DIMTAD
 70
     0
  9
$DIMZIN
 70
     0
  9
$DIMBLK
  1

  9
$DIMASO
 70
     1
  9
$DIMSHO
 70
     1
  9
$DIMPOST
  1

  9
$DIMAPOST
  1

  9
$DIMALT
 70
     0
  9
$DIMALTD
 70
     2
  9
$DIMALTF
 40
25.399999999999999
  9
$DIMLFAC
 40
1.0
  9
$DIMTOFL
 70
     0
  9
$DIMTVP
 40
0.0
  9
$DIMTIX
 70
     0
  9
$DIMSOXD
 70
     0
  9
$DIMSAH
 70
     0
  9
$DIMBLK1
  1

  9
$DIMBLK2
  1

  9
$DIMSTYLE
  2
STANDARD
  9
$DIMCLRD
 70
     0
  9
$DIMCLRE
 70
     0
  9
$DIMCLRT
 70
     0
  9
$DIMTFAC
 40
1.0
  9
$DIMGAP
 40
0.09
  9
$LUNITS
 70
     2
  9
$LUPREC
 70
     4
  9
$SKETCHINC
 40
0.1
  9
$FILLETRAD
 40
2.0
  9
$AUNITS
 70
     0
  9
$AUPREC
 70
     0
  9
$MENU
  1
ACAD
  9
$ELEVATION
 40
0.0
  9
$PELEVATION
 40
0.0
  9
$THICKNESS
 40
0.0
  9
$LIMCHECK
 70
     0
  9
$BLIPMODE
 70
     0
  9
$CHAMFERA
 40
0.0
  9
$CHAMFERB
 40
0.0
  9
$SKPOLY
 70
     0
  9
$TDCREATE
 40
2452095.073392245
  9
$TDUPDATE
 40
2452095.0740908561
  9
$TDINDWG
 40
0.0007304398
  9
$TDUSRTIMER
 40
0.0007304398
  9
$USRTIMER
 70
     1
  9
$ANGBASE
 50
0.0
  9
$ANGDIR
 70
     0
  9
$PDMODE
 70
     0
  9
$PDSIZE
 40
0.0
  9
$PLINEWID
 40
0.0
  9
$COORDS
 70
     1
  9
$SPLFRAME
 70
     0
  9
$SPLINETYPE
 70
     6
  9
$SPLINESEGS
 70
     8
  9
$ATTDIA
 70
     0
  9
$ATTREQ
 70
     1
  9
$HANDLING
 70
 10241
  9
$HANDSEED
  5
157
  9
$SURFTAB1
 70
     6
  9
$SURFTAB2
 70
     6
  9
$SURFTYPE
 70
     6
  9
$SURFU
 70
     6
  9
$SURFV
 70
     6
  9
$UCSNAME
  2

  9
$UCSORG
 10
0.0
 20
0.0
 30
0.0
  9
$UCSXDIR
 10
1.0
 20
0.0
 30
0.0
  9
$UCSYDIR
 10
0.0
 20
1.0
 30
0.0
  9
$PUCSNAME
  2

  9
$PUCSORG
 10
0.0
 20
0.0
 30
0.0
  9
$PUCSXDIR
 10
1.0
 20
0.0
 30
0.0
  9
$PUCSYDIR
 10
0.0
 20
1.0
 30
0.0
  9
$USERI1
 70
     0
  9
$USERI2
 70
     0
  9
$USERI3
 70
     0
  9
$USERI4
 70
     0
  9
$USERI5
 70
     0
  9
$USERR1
 40
0.0
  9
$USERR2
 40
0.0
  9
$USERR3
 40
0.0
  9
$USERR4
 40
0.0
  9
$USERR5
 40
0.0
  9
$WORLDVIEW
 70
     1
  9
$SHADEDGE
 70
     3
  9
$SHADEDIF
 70
    70
  9
$TILEMODE
 70
     1
  9
$MAXACTVP
 70
    64
  9
$PLIMCHECK
 70
     0
  9
$PEXTMIN
 10
1.0000000000000000E+020
 20
1.0000000000000000E+020
 30
1.0000000000000000E+020
  9
$PEXTMAX
 10
-1.0000000000000000E+020
 20
-1.0000000000000000E+020
 30
-1.0000000000000000E+020
  9
$PLIMMIN
 10
0.0
 20
0.0
  9
$PLIMMAX
 10
12.0
 20
9.0
  9
$UNITMODE
 70
     0
  9
$VISRETAIN
 70
     1
  9
$PLINEGEN
 70
     0
  9
$PSLTSCALE
 70
     1
  0
ENDSEC
  0
SECTION
  2
TABLES
  0
TABLE
  2
VPORT
 70
     2
  0
VPORT
  2
*ACTIVE
 70
     0
 10
0.0
 20
0.0
 11
1.0
 21
1.0
 12
-456.47792469502292
 22
157.4437583846715
 13
0.0
 23
0.0
 14
1.0
 24
1.0
 15
0.0
 25
0.0
 16
0.0
 26
0.0
 36
1.0
 17
0.0
 27
0.0
 37
0.0
 40
8.9999998331413842
 41
2.4144144144144142
 42
50.0
 43
0.0
 44
0.0
 50
0.0
 51
0.0
 71
     0
 72
   100
 73
     1
 74
     1
 75
     0
 76
     0
 77
     0
 78
     0
  0
ENDTAB
  0
TABLE
  2
LTYPE
 70
     9
  0
LTYPE
  2
CONTINUOUS
 70
     0
  3
Solid line
 72
    65
 73
     0
 40
0.0
  0
LTYPE
  2
BORDER
 70
     0
  3
__ __ . __ __ .
 72
    65
 73
     6
 40
24.923684210526311
 49
7.1210526315789471
 49
-3.5605263157894731
 49
7.1210526315789471
 49
-3.5605263157894731
 49
0.0
 49
-3.5605263157894731
  0
LTYPE
  2
CENTER
 70
     0
  3
____ _ ____ _
 72
    65
 73
     4
 40
28.484210526315788
 49
17.802631578947359
 49
-3.5605263157894731
 49
3.5605263157894731
 49
-3.5605263157894731
  0
LTYPE
  2
DASHDOT
 70
     0
  3
__ . __ . __ .
 72
    65
 73
     4
 40
14.242105263157899
 49
7.1210526315789471
 49
-3.5605263157894731
 49
0.0
 49
-3.5605263157894731
  0
LTYPE
  2
DASHED
 70
     0
  3
__ __ __ __ __
 72
    65
 73
     2
 40
10.68157894736841
 49
7.1210526315789471
 49
-3.5605263157894731
  0
LTYPE
  2
DIVIDE
 70
     0
  3
__ . . __ . . 
 72
    65
 73
     6
 40
17.802631578947359
 49
7.1210526315789471
 49
-3.5605263157894731
 49
0.0
 49
-3.5605263157894731
 49
0.0
 49
-3.5605263157894731
  0
LTYPE
  2
DOT
 70
     0
  3
..............
 72
    65
 73
     4
 40
7.1210526315789471
 49
0.0
 49
-3.5605263157894731
 49
0.0
 49
-3.5605263157894731
  0
LTYPE
  2
HIDDEN
 70
     0
  3
_ _ _ _ _ _ _
 72
    65
 73
     2
 40
5.3407894736842101
 49
3.5605263157894731
 49
-1.7802631578947361
  0
LTYPE
  2
PHANTOM
 70
     0
  3
_____ _ _ _____ _ _ 
 72
    65
 73
     6
 40
35.605263157894733
 49
17.802631578947359
 49
-3.5605263157894731
 49
3.5605263157894731
 49
-3.5605263157894731
 49
3.5605263157894731
 49
-3.5605263157894731
  0
ENDTAB
  0
TABLE
  2
LAYER
 70
     2
  0
LAYER
  2
0
 70
     0
 62
     7
  6
CONTINUOUS
  0
LAYER
  2
1
 70
     0
 62
     7
  6
CONTINUOUS
  0
ENDTAB
  0
TABLE
  2
STYLE
 70
     4
  0
STYLE
  2
STANDARD
 70
     0
 40
0.0
 41
1.0
 50
0.0
 71
     0
 42
3.5
  3
txt
  4

  0
STYLE
  2
SIMPLEX
 70
     0
 40
0.0
 41
1.0
 50
0.0
 71
     0
 42
3.5
  3
simplex
  4

  0
STYLE
  2
COMPLEX
 70
     0
 40
0.0
 41
1.0
 50
0.0
 71
     0
 42
3.5
  3
complex
  4

  0
STYLE
  2
ITALIC
 70
     0
 40
0.0
 41
1.0
 50
0.0
 71
     0
 42
3.5
  3
italic
  4

  0
ENDTAB
  0
TABLE
  2
VIEW
 70
     0
  0
ENDTAB
  0
TABLE
  2
UCS
 70
     0
  0
ENDTAB
  0
TABLE
  2
APPID
 70
     1
  0
APPID
  2
ACAD
 70
     0
  0
ENDTAB
  0
TABLE
  2
DIMSTYLE
 70
     1
  0
DIMSTYLE
  2
STANDARD
 70
     0
  3

  4

  5

  6

  7

 40
1.0
 41
0.18
 42
0.0625
 43
0.38
 44
0.18
 45
0.0
 46
0.0
 47
0.0
 48
0.0
140
0.18
141
0.09
142
0.0
143
25.399999999999999
144
1.0
145
0.0
146
1.0
147
0.09
 71
     0
 72
     0
 73
     1
 74
     1
 75
     0
 76
     0
 77
     0
 78
     0
170
     0
171
     2
172
     0
173
     0
174
     0
175
     0
176
     0
177
     0
178
     0
  0
ENDTAB
  0
ENDSEC
  0
SECTION
  2
BLOCKS
  0
BLOCK
  8
0
  2
$MODEL_SPACE
 70
     0
 10
0.0
 20
0.0
 30
0.0
  3
$MODEL_SPACE
  1

  0
ENDBLK
  5
20
  8
0
  0
BLOCK
 67
     1
  8
0
  2
$PAPER_SPACE
 70
     0
 10
0.0
 20
0.0
 30
0.0
  3
$PAPER_SPACE
  1

  0
ENDBLK
  5
1C
 67
     1
  8
0
  0
ENDSEC
  0
SECTION
  2
ENTITIES
  0
LINE
  5
33
  8
1
  6
DASHDOT
 62
     3
 10
26.39491301867087
 20
55.0
 30
0.0
 11
-1.300154180512038
 21
55.0
 31
0.0
  0
LINE
  5
34
  8
1
 62
     3
 10
0.0
 20
50.0
 30
0.0
 11
18.0
 21
50.0
 31
0.0
  0
LINE
  5
35
  8
1
 62
     7
 10
0.0
 20
50.999999999999993
 30
0.0
 11
23.0
 21
50.999999999999993
 31
0.0
  0
LINE
  5
36
  8
1
 62
     7
 10
0.0
 20
58.999999999999993
 30
0.0
 11
23.0
 21
58.999999999999993
 31
0.0
  0
LINE
  5
37
  8
1
 62
     7
 10
23.0
 20
50.999999999999993
 30
0.0
 11
23.0
 21
58.999999999999993
 31
0.0
  0
LINE
  5
38
  8
1
 62
     7
 10
23.0
 20
50.999999999999993
 30
0.0
 11
25.30940107675838
 21
55.0
 31
0.0
  0
LINE
  5
39
  8
1
 62
     7
 10
25.30940107675838
 20
55.0
 30
0.0
 11
23.0
 21
58.999999999999993
 31
0.0
  0
LINE
  5
3A
  8
1
 62
     7
 10
18.0
 20
50.0
 30
0.0
 11
18.0
 21
60.0
 31
0.0
  0
LINE
  5
3B
  8
1
 62
     3
 10
0.0
 20
60.0
 30
0.0
 11
18.0
 21
60.0
 31
0.0
  0
LINE
  5
3C
  8
1
 62
     7
 10
71.0
 20
-52.503004381789061
 30
0.0
 11
69.099999999999909
 21
-52.503004381789061
 31
0.0
  0
LINE
  5
3D
  8
1
 62
     7
 10
71.0
 20
-38.64659792123804
 30
0.0
 11
69.099999999999909
 21
-38.64659792123804
 31
0.0
  0
LINE
  5
3E
  8
1
 62
     7
 10
71.0
 20
-55.428203230275507
 30
0.0
 11
71.0
 21
-38.64659792123804
 31
0.0
  0
LINE
  5
3F
  8
1
 62
     7
 10
69.099999999999909
 20
-56.224416410648807
 30
0.0
 11
71.0
 21
-55.428203230275507
 31
0.0
  0
LINE
  5
40
  8
1
 62
     7
 10
69.099999999999909
 20
52.503004381789069
 30
0.0
 11
71.0
 21
52.503004381789069
 31
0.0
  0
LINE
  5
41
  8
1
 62
     7
 10
69.099999999999909
 20
38.64659792123804
 30
0.0
 11
71.0
 21
38.64659792123804
 31
0.0
  0
LINE
  5
42
  8
1
 62
     7
 10
71.0
 20
38.64659792123804
 30
0.0
 11
71.0
 21
55.428203230275479
 31
0.0
  0
LINE
  5
43
  8
1
 62
     7
 10
71.0
 20
55.428203230275479
 30
0.0
 11
69.099999999999909
 21
56.224416410648779
 31
0.0
  0
LINE
  5
44
  8
1
 62
     7
 10
-370.7000000000001
 20
89.958820294396986
 30
0.0
 11
-370.7000000000001
 21
124.52400459750601
 31
0.0
  0
LINE
  5
45
  8
1
 62
     7
 10
-365.50000000000011
 20
89.963267366937288
 30
0.0
 11
-365.50000000000011
 21
124.52400459750601
 31
0.0
  0
LINE
  5
46
  8
1
 62
     7
 10
-368.10000000000008
 20
124.52400459750601
 30
0.0
 11
-368.10000000000008
 21
90.0
 31
0.0
  0
LINE
  5
47
  8
1
 62
     7
 10
-367.40000000000009
 20
129.52400459750601
 30
0.0
 11
-367.40000000000009
 21
124.52400459750601
 31
0.0
  0
LINE
  5
48
  8
1
 62
     7
 10
-367.10000000000008
 20
129.52400459750601
 30
0.0
 11
-367.10000000000008
 21
124.52400459750601
 31
0.0
  0
LINE
  5
49
  8
1
 62
     7
 10
-366.2000000000001
 20
129.52400459750601
 30
0.0
 11
-366.2000000000001
 21
124.52400459750601
 31
0.0
  0
LINE
  5
4A
  8
1
 62
     7
 10
-366.50000000000011
 20
129.52400459750601
 30
0.0
 11
-366.50000000000011
 21
124.52400459750601
 31
0.0
  0
LINE
  5
4B
  8
1
 62
     7
 10
-366.80000000000013
 20
129.52400459750601
 30
0.0
 11
-366.80000000000013
 21
124.52400459750601
 31
0.0
  0
LINE
  5
4C
  8
1
  6
DASHED
 62
     7
 10
-348.34820307385661
 20
-22.580224050889822
 30
0.0
 11
-337.72585091186858
 21
-33.20257621287778
 31
0.0
  0
LINE
  5
4D
  8
1
  6
DASHED
 62
     7
 10
-390.68022405088982
 20
-19.751796926143619
 30
0.0
 11
-401.30257621287802
 21
-30.374149088131549
 31
0.0
  0
LINE
  5
4E
  8
1
  6
DASHED
 62
     7
 10
-387.85179692614372
 20
22.580224050889822
 30
0.0
 11
-398.47414908813181
 21
33.202576212877773
 31
0.0
  0
LINE
  5
4F
  8
1
  6
DASHDOT
 62
     3
 10
-335.53912713847461
 20
-32.560872861525652
 30
0.0
 11
-347.83993925404218
 21
-20.260060745957791
 31
0.0
  0
LINE
  5
50
  8
1
  6
DASHDOT
 62
     3
 10
-400.66087286152572
 20
-32.560872861525652
 30
0.0
 11
-388.36006074595798
 21
-20.260060745957819
 31
0.0
  0
LINE
  5
51
  8
1
  6
DASHDOT
 62
     3
 10
-400.66087286152572
 20
32.560872861525631
 30
0.0
 11
-388.36006074595798
 21
20.260060745957791
 31
0.0
  0
LINE
  5
52
  8
1
  6
DASHED
 62
     7
 10
-334.89742378712248
 20
-30.374149088131571
 30
0.0
 11
-345.51977594911028
 21
-19.751796926143641
 31
0.0
  0
LINE
  5
53
  8
1
  6
DASHED
 62
     7
 10
-398.47414908813181
 20
-33.202576212877773
 30
0.0
 11
-387.85179692614372
 21
-22.580224050889839
 31
0.0
  0
LINE
  5
54
  8
1
  6
DASHED
 62
     7
 10
-401.30257621287802
 20
30.374149088131549
 30
0.0
 11
-390.68022405088982
 21
19.751796926143641
 31
0.0
  0
LINE
  5
55
  8
1
  6
DASHED
 62
     7
 10
-345.51977594911028
 20
19.751796926143609
 30
0.0
 11
-334.89742378712248
 21
30.374149088131549
 31
0.0
  0
LINE
  5
56
  8
1
  6
DASHED
 62
     7
 10
-337.72585091186852
 20
33.202576212877759
 30
0.0
 11
-348.34820307385661
 21
22.580224050889822
 31
0.0
  0
LINE
  5
57
  8
1
  6
DASHDOT
 62
     3
 10
-335.53912713847461
 20
32.560872861525631
 30
0.0
 11
-347.83993925404218
 21
20.260060745957791
 31
0.0
  0
LINE
  5
58
  8
1
 62
     7
 10
-377.10000000000008
 20
33.0
 30
0.0
 11
-377.10000000000008
 21
28.61817604250837
 31
0.0
  0
LINE
  5
59
  8
1
 62
     7
 10
-359.10000000000008
 20
33.0
 30
0.0
 11
-359.10000000000008
 21
28.61817604250837
 31
0.0
  0
LINE
  5
5A
  8
1
 62
     7
 10
-377.10000000000008
 20
33.0
 30
0.0
 11
-359.10000000000008
 21
33.0
 31
0.0
  0
LINE
  5
5B
  8
1
 62
     7
 10
-370.00000000000011
 20
129.52400459750601
 30
0.0
 11
-370.00000000000011
 21
124.52400459750601
 31
0.0
  0
LINE
  5
5C
  8
1
 62
     7
 10
-369.7000000000001
 20
129.52400459750601
 30
0.0
 11
-369.7000000000001
 21
124.52400459750601
 31
0.0
  0
LINE
  5
5D
  8
1
 62
     7
 10
-368.80000000000013
 20
129.52400459750601
 30
0.0
 11
-368.80000000000013
 21
124.52400459750601
 31
0.0
  0
LINE
  5
5E
  8
1
 62
     7
 10
-369.10000000000008
 20
129.52400459750601
 30
0.0
 11
-369.10000000000008
 21
124.52400459750601
 31
0.0
  0
LINE
  5
5F
  8
1
 62
     7
 10
-369.40000000000009
 20
129.52400459750601
 30
0.0
 11
-369.40000000000009
 21
124.52400459750601
 31
0.0
  0
LINE
  5
60
  8
1
 62
     7
 10
-370.7000000000001
 20
124.52400459750601
 30
0.0
 11
-365.50000000000011
 21
124.52400459750601
 31
0.0
  0
LINE
  5
61
  8
1
 62
     7
 10
16.299999999999901
 20
124.52400459750601
 30
0.0
 11
16.299999999999901
 21
90.0
 31
0.0
  0
LINE
  5
62
  8
1
 62
     7
 10
22.0
 20
90.0
 30
0.0
 11
3.0
 21
90.0
 31
0.0
  0
LINE
  5
63
  8
1
 62
     7
 10
15.5999999999999
 20
124.52400459750601
 30
0.0
 11
15.5999999999999
 21
129.52400459750601
 31
0.0
  0
LINE
  5
64
  8
1
 62
     7
 10
15.299999999999899
 20
124.52400459750601
 30
0.0
 11
15.299999999999899
 21
129.52400459750601
 31
0.0
  0
LINE
  5
65
  8
1
 62
     7
 10
14.39999999999986
 20
124.52400459750601
 30
0.0
 11
14.39999999999986
 21
129.52400459750601
 31
0.0
  0
LINE
  5
66
  8
1
 62
     7
 10
14.69999999999987
 20
124.52400459750601
 30
0.0
 11
14.69999999999987
 21
129.52400459750601
 31
0.0
  0
LINE
  5
67
  8
1
 62
     7
 10
15.0
 20
124.52400459750601
 30
0.0
 11
15.0
 21
129.52400459750601
 31
0.0
  0
LINE
  5
68
  8
1
 62
     7
 10
13.69999999999987
 20
124.52400459750601
 30
0.0
 11
16.299999999999901
 21
124.52400459750601
 31
0.0
  0
LINE
  5
69
  8
1
 62
     7
 10
13.69999999999987
 20
90.0
 30
0.0
 11
13.69999999999987
 21
124.52400459750601
 31
0.0
  0
LINE
  5
6A
  8
1
 62
     3
 10
41.0
 20
-99.0
 30
0.0
 11
58.099999999999902
 21
-41.999999999999993
 31
0.0
  0
LINE
  5
6B
  8
1
 62
     3
 10
58.099999999999902
 20
-99.0
 30
0.0
 11
41.0
 21
-41.999999999999993
 31
0.0
  0
LINE
  5
6C
  8
1
 62
     7
 10
69.099999999999909
 20
-83.499999999999986
 30
0.0
 11
69.099999999999909
 21
83.499999999999986
 31
0.0
  0
LINE
  5
6D
  8
1
 62
     7
 10
28.0
 20
-53.0
 30
0.0
 11
28.0
 21
-40.0
 31
0.0
  0
LINE
  5
6E
  8
1
 62
     7
 10
28.0
 20
-44.999999999999993
 30
0.0
 11
0.0
 21
-44.999999999999993
 31
0.0
  0
LINE
  5
6F
  8
1
 62
     7
 10
0.0
 20
-65.0
 30
0.0
 11
0.0
 21
64.999999999999986
 31
0.0
  0
LINE
  5
70
  8
1
 62
     7
 10
41.0
 20
-41.999999999999993
 30
0.0
 11
41.0
 21
-99.0
 31
0.0
  0
LINE
  5
71
  8
1
 62
     7
 10
58.099999999999902
 20
-99.0
 30
0.0
 11
58.099999999999902
 21
-41.999999999999993
 31
0.0
  0
LINE
  5
72
  8
1
 62
     7
 10
66.099999999999909
 20
-52.5
 30
0.0
 11
58.099999999999902
 21
-52.5
 31
0.0
  0
LINE
  5
73
  8
1
 62
     7
 10
69.099999999999909
 20
-55.5
 30
0.0
 11
66.099999999999909
 21
-52.5
 31
0.0
  0
LINE
  5
74
  8
1
 62
     7
 10
58.099999999999902
 20
-67.0
 30
0.0
 11
41.0
 21
-67.0
 31
0.0
  0
LINE
  5
75
  8
1
 62
     7
 10
58.099999999999902
 20
-79.0
 30
0.0
 11
41.0
 21
-79.0
 31
0.0
  0
LINE
  5
76
  8
1
 62
     7
 10
67.799999999999898
 20
-92.799999999999983
 30
0.0
 11
67.799999999999898
 21
-83.499999999999986
 31
0.0
  0
LINE
  5
77
  8
1
 62
     7
 10
69.099999999999909
 20
-83.499999999999986
 30
0.0
 11
65.099999999999895
 21
-83.499999999999986
 31
0.0
  0
LINE
  5
78
  8
1
 62
     7
 10
65.099999999999895
 20
-92.799999999999983
 30
0.0
 11
65.099999999999895
 21
-83.499999999999986
 31
0.0
  0
LINE
  5
79
  8
1
 62
     7
 10
60.5
 20
-89.749999999999986
 30
0.0
 11
60.5
 21
-88.499999999999986
 31
0.0
  0
LINE
  5
7A
  8
1
 62
     7
 10
62.599999999999902
 20
-89.749999999999986
 30
0.0
 11
62.599999999999902
 21
-88.499999999999986
 31
0.0
  0
LINE
  5
7B
  8
1
 62
     7
 10
62.599999999999902
 20
-88.499999999999986
 30
0.0
 11
60.5
 21
-88.499999999999986
 31
0.0
  0
LINE
  5
7C
  8
1
 62
     7
 10
60.5
 20
-89.749999999999986
 30
0.0
 11
58.099999999999902
 21
-89.749999999999986
 31
0.0
  0
LINE
  5
7D
  8
1
 62
     7
 10
65.099999999999895
 20
-89.749999999999986
 30
0.0
 11
62.599999999999902
 21
-89.749999999999986
 31
0.0
  0
LINE
  5
7E
  8
1
 62
     7
 10
67.799999999999898
 20
-88.599999999999966
 30
0.0
 11
65.099999999999895
 21
-88.599999999999966
 31
0.0
  0
LINE
  5
7F
  8
1
 62
     7
 10
41.0
 20
-53.0
 30
0.0
 11
28.0
 21
-53.0
 31
0.0
  0
LINE
  5
80
  8
1
 62
     7
 10
67.799999999999898
 20
-92.799999999999983
 30
0.0
 11
65.099999999999895
 21
-92.799999999999983
 31
0.0
  0
LINE
  5
81
  8
1
 62
     7
 10
41.0
 20
-89.0
 30
0.0
 11
22.0
 21
-89.0
 31
0.0
  0
LINE
  5
82
  8
1
 62
     7
 10
1.0
 20
-88.0
 30
0.0
 11
1.0
 21
-65.0
 31
0.0
  0
LINE
  5
83
  8
1
 62
     7
 10
3.0
 20
-90.0
 30
0.0
 11
1.0
 21
-88.0
 31
0.0
  0
LINE
  5
84
  8
1
 62
     7
 10
3.0
 20
-90.0
 30
0.0
 11
22.0
 21
-90.0
 31
0.0
  0
LINE
  5
85
  8
1
 62
     7
 10
0.0
 20
-65.0
 30
0.0
 11
1.0
 21
-65.0
 31
0.0
  0
LINE
  5
86
  8
1
 62
     7
 10
66.099999999999909
 20
52.5
 30
0.0
 11
66.099999999999909
 21
-52.5
 31
0.0
  0
LINE
  5
87
  8
1
 62
     7
 10
58.099999999999902
 20
52.5
 30
0.0
 11
66.099999999999909
 21
52.5
 31
0.0
  0
LINE
  5
88
  8
1
 62
     7
 10
66.099999999999909
 20
52.5
 30
0.0
 11
69.099999999999909
 21
55.499999999999993
 31
0.0
  0
LINE
  5
89
  8
1
 62
     7
 10
41.0
 20
66.999999999999986
 30
0.0
 11
58.099999999999902
 21
66.999999999999986
 31
0.0
  0
LINE
  5
8A
  8
1
 62
     7
 10
41.0
 20
79.0
 30
0.0
 11
58.099999999999902
 21
79.0
 31
0.0
  0
LINE
  5
8B
  8
1
 62
     3
 10
41.0
 20
42.0
 30
0.0
 11
58.099999999999902
 21
99.0
 31
0.0
  0
LINE
  5
8C
  8
1
 62
     3
 10
58.099999999999902
 20
42.0
 30
0.0
 11
41.0
 21
99.0
 31
0.0
  0
LINE
  5
8D
  8
1
 62
     7
 10
67.799999999999898
 20
83.499999999999986
 30
0.0
 11
67.799999999999898
 21
92.799999999999983
 31
0.0
  0
LINE
  5
8E
  8
1
 62
     7
 10
65.099999999999895
 20
83.499999999999986
 30
0.0
 11
69.099999999999909
 21
83.499999999999986
 31
0.0
  0
LINE
  5
8F
  8
1
 62
     7
 10
58.099999999999902
 20
42.0
 30
0.0
 11
58.099999999999902
 21
90.750000000000014
 31
0.0
  0
LINE
  5
90
  8
1
 62
     7
 10
65.099999999999895
 20
83.499999999999986
 30
0.0
 11
65.099999999999895
 21
92.799999999999983
 31
0.0
  0
LINE
  5
91
  8
1
 62
     7
 10
60.5
 20
88.499999999999986
 30
0.0
 11
60.5
 21
89.749999999999986
 31
0.0
  0
LINE
  5
92
  8
1
 62
     7
 10
62.599999999999902
 20
88.499999999999986
 30
0.0
 11
62.599999999999902
 21
89.749999999999986
 31
0.0
  0
LINE
  5
93
  8
1
 62
     7
 10
60.5
 20
88.499999999999986
 30
0.0
 11
62.599999999999902
 21
88.499999999999986
 31
0.0
  0
LINE
  5
94
  8
1
 62
     7
 10
58.099999999999902
 20
89.749999999999986
 30
0.0
 11
60.5
 21
89.749999999999986
 31
0.0
  0
LINE
  5
95
  8
1
 62
     7
 10
62.599999999999902
 20
89.749999999999986
 30
0.0
 11
65.099999999999895
 21
89.749999999999986
 31
0.0
  0
LINE
  5
96
  8
1
 62
     7
 10
65.099999999999895
 20
88.599999999999966
 30
0.0
 11
67.799999999999898
 21
88.599999999999966
 31
0.0
  0
LINE
  5
97
  8
1
 62
     7
 10
28.0
 20
40.0
 30
0.0
 11
28.0
 21
52.999999999999993
 31
0.0
  0
LINE
  5
98
  8
1
 62
     7
 10
0.0
 20
44.999999999999993
 30
0.0
 11
28.0
 21
44.999999999999993
 31
0.0
  0
LINE
  5
99
  8
1
 62
     7
 10
28.0
 20
52.999999999999993
 30
0.0
 11
41.0
 21
52.999999999999993
 31
0.0
  0
LINE
  5
9A
  8
1
 62
     7
 10
40.0
 20
90.750000000000014
 30
0.0
 11
65.099999999999895
 21
90.750000000000014
 31
0.0
  0
LINE
  5
9B
  8
1
 62
     7
 10
40.0
 20
90.750000000000014
 30
0.0
 11
40.0
 21
89.0
 31
0.0
  0
LINE
  5
9C
  8
1
 62
     7
 10
65.099999999999895
 20
92.799999999999983
 30
0.0
 11
67.799999999999898
 21
92.799999999999983
 31
0.0
  0
LINE
  5
9D
  8
1
 62
     7
 10
67.799999999999898
 20
91.5
 30
0.0
 11
71.0
 21
91.5
 31
0.0
  0
LINE
  5
9E
  8
1
 62
     7
 10
71.0
 20
91.5
 30
0.0
 11
71.0
 21
97.0
 31
0.0
  0
LINE
  5
9F
  8
1
 62
     7
 10
71.0
 20
97.0
 30
0.0
 11
69.0
 21
99.0
 31
0.0
  0
LINE
  5
A0
  8
1
 62
     7
 10
22.0
 20
97.0
 30
0.0
 11
24.0
 21
99.0
 31
0.0
  0
LINE
  5
A1
  8
1
 62
     7
 10
24.0
 20
99.0
 30
0.0
 11
69.0
 21
99.0
 31
0.0
  0
LINE
  5
A2
  8
1
 62
     7
 10
41.0
 20
42.0
 30
0.0
 11
41.0
 21
90.750000000000014
 31
0.0
  0
LINE
  5
A3
  8
1
 62
     7
 10
22.0
 20
89.0
 30
0.0
 11
22.0
 21
97.0
 31
0.0
  0
LINE
  5
A4
  8
1
 62
     7
 10
22.0
 20
89.0
 30
0.0
 11
41.0
 21
89.0
 31
0.0
  0
LINE
  5
A5
  8
1
 62
     7
 10
1.0
 20
64.999999999999986
 30
0.0
 11
1.0
 21
88.0
 31
0.0
  0
LINE
  5
A6
  8
1
 62
     7
 10
1.0
 20
88.0
 30
0.0
 11
3.0
 21
90.0
 31
0.0
  0
LINE
  5
A7
  8
1
 62
     7
 10
1.0
 20
64.999999999999986
 30
0.0
 11
0.0
 21
64.999999999999986
 31
0.0
  0
LINE
  5
A8
  8
1
 62
     3
 10
-5.0
 20
0.0
 30
0.0
 11
0.0
 21
0.0
 31
0.0
  0
LINE
  5
A9
  8
1
 62
     7
 10
53.0
 20
30.0
 30
0.0
 11
65.0
 21
30.0
 31
0.0
  0
LINE
  5
AA
  8
1
 62
     7
 10
44.999999999999893
 20
-30.0
 30
0.0
 11
17.0
 21
-30.0
 31
0.0
  0
LINE
  5
AB
  8
1
 62
     7
 10
65.0
 20
-46.400000000000013
 30
0.0
 11
64.0
 21
-47.400000000000013
 31
0.0
  0
LINE
  5
AC
  8
1
 62
     7
 10
34.999999999999893
 20
-46.400000000000013
 30
0.0
 11
35.999999999999893
 21
-47.400000000000013
 31
0.0
  0
LINE
  5
AD
  8
1
 62
     7
 10
17.0
 20
-39.0
 30
0.0
 11
18.0
 21
-40.0
 31
0.0
  0
LINE
  5
AE
  8
1
 62
     7
 10
64.0
 20
47.399999999999991
 30
0.0
 11
65.0
 21
46.399999999999991
 31
0.0
  0
LINE
  5
AF
  8
1
 62
     7
 10
35.999999999999893
 20
47.399999999999991
 30
0.0
 11
34.999999999999893
 21
46.399999999999991
 31
0.0
  0
LINE
  5
B0
  8
1
 62
     7
 10
18.0
 20
40.0
 30
0.0
 11
17.0
 21
39.0
 31
0.0
  0
LINE
  5
B1
  8
1
 62
     7
 10
51.0
 20
-42.0
 30
0.0
 11
51.0
 21
-30.5
 31
0.0
  0
LINE
  5
B2
  8
1
 62
     7
 10
47.0
 20
-42.0
 30
0.0
 11
47.0
 21
-30.5
 31
0.0
  0
LINE
  5
B3
  8
1
  6
DASHDOT
 62
     3
 10
49.0
 20
-43.5028029605093
 30
0.0
 11
49.0
 21
-29.578365426220159
 31
0.0
  0
LINE
  5
B4
  8
1
 62
     7
 10
17.0
 20
33.0
 30
0.0
 11
65.0
 21
33.0
 31
0.0
  0
LINE
  5
B5
  8
1
 62
     7
 10
53.0
 20
30.5
 30
0.0
 11
53.0
 21
-30.5
 31
0.0
  0
LINE
  5
B6
  8
1
 62
     7
 10
65.0
 20
-30.0
 30
0.0
 11
53.0
 21
-30.0
 31
0.0
  0
LINE
  5
B7
  8
1
 62
     7
 10
45.0
 20
-30.5
 30
0.0
 11
45.0
 21
30.5
 31
0.0
  0
LINE
  5
B8
  8
1
 62
     7
 10
17.0
 20
30.0
 30
0.0
 11
44.999999999999893
 21
30.0
 31
0.0
  0
LINE
  5
B9
  8
1
 62
     7
 10
64.0
 20
-47.400000000000013
 30
0.0
 11
35.999999999999893
 21
-47.400000000000013
 31
0.0
  0
LINE
  5
BA
  8
1
 62
     7
 10
65.0
 20
-42.0
 30
0.0
 11
34.999999999999893
 21
-42.0
 31
0.0
  0
LINE
  5
BB
  8
1
 62
     7
 10
53.0
 20
-30.5
 30
0.0
 11
45.0
 21
-30.5
 31
0.0
  0
LINE
  5
BC
  8
1
 62
     7
 10
45.0
 20
30.5
 30
0.0
 11
53.0
 21
30.5
 31
0.0
  0
LINE
  5
BD
  8
1
 62
     7
 10
34.999999999999893
 20
42.0
 30
0.0
 11
65.0
 21
42.0
 31
0.0
  0
LINE
  5
BE
  8
1
 62
     7
 10
65.0
 20
46.399999999999991
 30
0.0
 11
65.0
 21
-46.400000000000013
 31
0.0
  0
LINE
  5
BF
  8
1
 62
     7
 10
34.999999999999893
 20
-46.400000000000013
 30
0.0
 11
34.999999999999893
 21
-40.0
 31
0.0
  0
LINE
  5
C0
  8
1
 62
     7
 10
34.999999999999893
 20
-40.0
 30
0.0
 11
18.0
 21
-40.0
 31
0.0
  0
LINE
  5
C1
  8
1
 62
     7
 10
17.0
 20
-39.0
 30
0.0
 11
17.0
 21
39.0
 31
0.0
  0
LINE
  5
C2
  8
1
 62
     7
 10
18.0
 20
40.0
 30
0.0
 11
34.999999999999893
 21
40.0
 31
0.0
  0
LINE
  5
C3
  8
1
 62
     7
 10
34.999999999999893
 20
40.0
 30
0.0
 11
34.999999999999893
 21
46.399999999999991
 31
0.0
  0
LINE
  5
C4
  8
1
 62
     7
 10
35.999999999999893
 20
47.399999999999991
 30
0.0
 11
64.0
 21
47.399999999999991
 31
0.0
  0
LINE
  5
C5
  8
1
  6
DASHED
 62
     7
 10
58.099999999999902
 20
90.750000000000014
 30
0.0
 11
58.099999999999902
 21
99.0
 31
0.0
  0
LINE
  5
C6
  8
1
  6
DASHED
 62
     7
 10
41.0
 20
90.750000000000014
 30
0.0
 11
41.0
 21
99.0
 31
0.0
  0
LINE
  5
C7
  8
1
 62
     7
 10
69.0
 20
-99.0
 30
0.0
 11
71.0
 21
-97.0
 31
0.0
  0
LINE
  5
C8
  8
1
 62
     7
 10
24.0
 20
-99.0
 30
0.0
 11
22.0
 21
-97.0
 31
0.0
  0
LINE
  5
C9
  8
1
 62
     7
 10
69.0
 20
-99.0
 30
0.0
 11
24.0
 21
-99.0
 31
0.0
  0
LINE
  5
CA
  8
1
 62
     7
 10
22.0
 20
-97.0
 30
0.0
 11
22.0
 21
-89.0
 31
0.0
  0
LINE
  5
CB
  8
1
 62
     7
 10
71.0
 20
-97.0
 30
0.0
 11
71.0
 21
-91.5
 31
0.0
  0
LINE
  5
CC
  8
1
 62
     7
 10
71.0
 20
-91.5
 30
0.0
 11
67.799999999999898
 21
-91.5
 31
0.0
  0
LINE
  5
CD
  8
1
 62
     7
 10
65.099999999999895
 20
-90.750000000000014
 30
0.0
 11
40.0
 21
-90.750000000000014
 31
0.0
  0
LINE
  5
CE
  8
1
 62
     7
 10
40.0
 20
-88.999999999999986
 30
0.0
 11
40.0
 21
-90.750000000000014
 31
0.0
  0
LINE
  5
CF
  8
1
 62
     3
 10
69.099999999999909
 20
0.0
 30
0.0
 11
74.099999999999909
 21
0.0
 31
0.0
  0
LINE
  5
D0
  8
1
 62
     7
 10
-152.80000000000001
 20
124.52400459750601
 30
0.0
 11
-152.80000000000001
 21
90.0
 31
0.0
  0
LINE
  5
D1
  8
1
 62
     7
 10
-147.09999999999991
 20
90.0
 30
0.0
 11
-166.09999999999999
 21
90.0
 31
0.0
  0
LINE
  5
D2
  8
1
 62
     7
 10
-153.5
 20
124.52400459750601
 30
0.0
 11
-153.5
 21
129.52400459750601
 31
0.0
  0
LINE
  5
D3
  8
1
 62
     7
 10
-153.80000000000001
 20
124.52400459750601
 30
0.0
 11
-153.80000000000001
 21
129.52400459750601
 31
0.0
  0
LINE
  5
D4
  8
1
 62
     7
 10
-154.6999999999999
 20
124.52400459750601
 30
0.0
 11
-154.6999999999999
 21
129.52400459750601
 31
0.0
  0
LINE
  5
D5
  8
1
 62
     7
 10
-154.40000000000001
 20
124.52400459750601
 30
0.0
 11
-154.40000000000001
 21
129.52400459750601
 31
0.0
  0
LINE
  5
D6
  8
1
 62
     7
 10
-154.09999999999991
 20
124.52400459750601
 30
0.0
 11
-154.09999999999991
 21
129.52400459750601
 31
0.0
  0
LINE
  5
D7
  8
1
 62
     7
 10
-155.40000000000001
 20
124.52400459750601
 30
0.0
 11
-152.80000000000001
 21
124.52400459750601
 31
0.0
  0
LINE
  5
D8
  8
1
 62
     7
 10
-155.40000000000001
 20
90.0
 30
0.0
 11
-155.40000000000001
 21
124.52400459750601
 31
0.0
  0
LINE
  5
D9
  8
1
 62
     7
 10
-100.0
 20
-83.499999999999986
 30
0.0
 11
-100.0
 21
-56.224416410648871
 31
0.0
  0
LINE
  5
DA
  8
1
 62
     7
 10
-169.09999999999999
 20
-65.0
 30
0.0
 11
-169.09999999999999
 21
64.999999999999986
 31
0.0
  0
LINE
  5
DB
  8
1
 62
     7
 10
-166.09999999999999
 20
-90.0
 30
0.0
 11
-168.09999999999999
 21
-88.0
 31
0.0
  0
LINE
  5
DC
  8
1
 62
     7
 10
-166.09999999999999
 20
-90.0
 30
0.0
 11
-147.09999999999991
 21
-90.0
 31
0.0
  0
LINE
  5
DD
  8
1
 62
     7
 10
-169.09999999999999
 20
-65.0
 30
0.0
 11
-168.09999999999999
 21
-65.0
 31
0.0
  0
LINE
  5
DE
  8
1
 62
     7
 10
-111.0
 20
89.749999999999986
 30
0.0
 11
-108.59999999999999
 21
89.749999999999986
 31
0.0
  0
LINE
  5
DF
  8
1
 62
     7
 10
-106.4999999999999
 20
89.749999999999986
 30
0.0
 11
-104.0
 21
89.749999999999986
 31
0.0
  0
LINE
  5
E0
  8
1
 62
     7
 10
-129.09999999999991
 20
90.750000000000014
 30
0.0
 11
-128.09999999999991
 21
90.750000000000014
 31
0.0
  0
LINE
  5
E1
  8
1
 62
     7
 10
-104.0
 20
92.799999999999983
 30
0.0
 11
-101.3000000000001
 21
92.799999999999983
 31
0.0
  0
LINE
  5
E2
  8
1
 62
     7
 10
-101.3000000000001
 20
91.5
 30
0.0
 11
-98.100000000000023
 21
91.5
 31
0.0
  0
LINE
  5
E3
  8
1
 62
     7
 10
-98.100000000000023
 20
91.5
 30
0.0
 11
-98.100000000000023
 21
97.0
 31
0.0
  0
LINE
  5
E4
  8
1
 62
     7
 10
-98.100000000000023
 20
97.0
 30
0.0
 11
-100.09999999999989
 21
99.0
 31
0.0
  0
LINE
  5
E5
  8
1
 62
     7
 10
-147.09999999999991
 20
97.0
 30
0.0
 11
-145.09999999999999
 21
99.0
 31
0.0
  0
LINE
  5
E6
  8
1
 62
     7
 10
-145.09999999999999
 20
99.0
 30
0.0
 11
-100.09999999999989
 21
99.0
 31
0.0
  0
LINE
  5
E7
  8
1
 62
     7
 10
-168.09999999999999
 20
88.0
 30
0.0
 11
-168.09999999999999
 21
-88.0
 31
0.0
  0
LINE
  5
E8
  8
1
 62
     7
 10
-168.09999999999999
 20
88.0
 30
0.0
 11
-166.09999999999999
 21
90.0
 31
0.0
  0
LINE
  5
E9
  8
1
 62
     7
 10
-168.09999999999999
 20
64.999999999999986
 30
0.0
 11
-169.09999999999999
 21
64.999999999999986
 31
0.0
  0
LINE
  5
EA
  8
1
 62
     7
 10
-129.09999999999991
 20
56.266322367510568
 30
0.0
 11
-100.09999999999989
 21
56.266322367510568
 31
0.0
  0
LINE
  5
EB
  8
1
 62
     7
 10
-100.09999999999989
 20
56.266322367510568
 30
0.0
 11
-98.100000000000023
 21
55.428203230275479
 31
0.0
  0
LINE
  5
EC
  8
1
 62
     7
 10
-98.100000000000023
 20
55.428203230275479
 30
0.0
 11
-98.100000000000023
 21
38.64659792123804
 31
0.0
  0
LINE
  5
ED
  8
1
 62
     7
 10
-98.100000000000023
 20
41.571796769724493
 30
0.0
 11
-100.09999999999989
 21
42.40991590695954
 31
0.0
  0
LINE
  5
EE
  8
1
 62
     7
 10
-100.09999999999989
 20
42.40991590695954
 30
0.0
 11
-129.09999999999991
 21
42.40991590695954
 31
0.0
  0
LINE
  5
EF
  8
1
 62
     7
 10
-98.100000000000023
 20
38.64659792123804
 30
0.0
 11
-101.3000000000001
 21
38.64659792123804
 31
0.0
  0
LINE
  5
F0
  8
1
 62
     7
 10
-101.3000000000001
 20
39.299061451944219
 30
0.0
 11
-104.0
 21
39.299061451944219
 31
0.0
  0
LINE
  5
F1
  8
1
 62
     7
 10
-104.0
 20
39.299061451944219
 30
0.0
 11
-104.0
 21
-39.29906145194424
 31
0.0
  0
LINE
  5
F2
  8
1
 62
     7
 10
-104.0
 20
38.64659792123804
 30
0.0
 11
-111.0
 21
38.64659792123804
 31
0.0
  0
LINE
  5
F3
  8
1
 62
     7
 10
-128.09999999999991
 20
38.64659792123804
 30
0.0
 11
-129.09999999999991
 21
38.64659792123804
 31
0.0
  0
LINE
  5
F4
  8
1
 62
     7
 10
-111.0
 20
56.266322367510568
 30
0.0
 11
-111.0
 21
99.0
 31
0.0
  0
LINE
  5
F5
  8
1
 62
     7
 10
-128.09999999999991
 20
56.266322367510568
 30
0.0
 11
-128.09999999999991
 21
99.0
 31
0.0
  0
LINE
  5
F6
  8
1
 62
     7
 10
-129.09999999999991
 20
99.0
 30
0.0
 11
-129.09999999999991
 21
56.266322367510568
 31
0.0
  0
LINE
  5
F7
  8
1
 62
     7
 10
-129.09999999999991
 20
89.0
 30
0.0
 11
-128.09999999999991
 21
89.0
 31
0.0
  0
LINE
  5
F8
  8
1
 62
     7
 10
-111.0
 20
90.750000000000014
 30
0.0
 11
-104.0
 21
90.750000000000014
 31
0.0
  0
LINE
  5
F9
  8
1
 62
     3
 10
-111.0
 20
99.0
 30
0.0
 11
-128.09999999999991
 21
56.266322367510568
 31
0.0
  0
LINE
  5
FA
  8
1
 62
     3
 10
-111.0
 20
56.266322367510568
 30
0.0
 11
-128.09999999999991
 21
99.0
 31
0.0
  0
LINE
  5
FB
  8
1
 62
     7
 10
-106.4999999999999
 20
56.266322367510568
 30
0.0
 11
-106.4999999999999
 21
89.749999999999986
 31
0.0
  0
LINE
  5
FC
  8
1
 62
     7
 10
-108.59999999999999
 20
56.266322367510568
 30
0.0
 11
-108.59999999999999
 21
89.749999999999986
 31
0.0
  0
LINE
  5
FD
  8
1
 62
     7
 10
-104.0
 20
56.266322367510568
 30
0.0
 11
-104.0
 21
92.799999999999983
 31
0.0
  0
LINE
  5
FE
  8
1
 62
     7
 10
-101.3000000000001
 20
83.499999999999986
 30
0.0
 11
-100.0
 21
83.499999999999986
 31
0.0
  0
LINE
  5
FF
  8
1
 62
     7
 10
-101.3000000000001
 20
56.266322367510568
 30
0.0
 11
-101.3000000000001
 21
92.799999999999983
 31
0.0
  0
LINE
  5
100
  8
1
 62
     7
 10
-100.0
 20
56.224416410648892
 30
0.0
 11
-100.0
 21
83.499999999999986
 31
0.0
  0
LINE
  5
101
  8
1
 62
     7
 10
-108.59999999999999
 20
-89.750000000000014
 30
0.0
 11
-111.0
 21
-89.750000000000014
 31
0.0
  0
LINE
  5
102
  8
1
 62
     7
 10
-104.0
 20
-89.750000000000014
 30
0.0
 11
-106.4999999999999
 21
-89.750000000000014
 31
0.0
  0
LINE
  5
103
  8
1
 62
     7
 10
-128.09999999999991
 20
-90.750000000000014
 30
0.0
 11
-129.09999999999991
 21
-90.750000000000014
 31
0.0
  0
LINE
  5
104
  8
1
 62
     7
 10
-101.3000000000001
 20
-92.799999999999983
 30
0.0
 11
-104.0
 21
-92.799999999999983
 31
0.0
  0
LINE
  5
105
  8
1
 62
     7
 10
-98.100000000000023
 20
-91.5
 30
0.0
 11
-101.3000000000001
 21
-91.5
 31
0.0
  0
LINE
  5
106
  8
1
 62
     7
 10
-98.100000000000023
 20
-97.0
 30
0.0
 11
-98.100000000000023
 21
-91.5
 31
0.0
  0
LINE
  5
107
  8
1
 62
     7
 10
-100.09999999999989
 20
-99.0
 30
0.0
 11
-98.100000000000023
 21
-97.0
 31
0.0
  0
LINE
  5
108
  8
1
 62
     7
 10
-100.09999999999989
 20
-99.0
 30
0.0
 11
-145.09999999999999
 21
-99.0
 31
0.0
  0
LINE
  5
109
  8
1
 62
     7
 10
-100.09999999999989
 20
-56.266322367510597
 30
0.0
 11
-129.09999999999991
 21
-56.266322367510597
 31
0.0
  0
LINE
  5
10A
  8
1
 62
     7
 10
-98.100000000000023
 20
-55.4282032302755
 30
0.0
 11
-100.09999999999989
 21
-56.266322367510597
 31
0.0
  0
LINE
  5
10B
  8
1
 62
     7
 10
-98.100000000000023
 20
-38.64659792123804
 30
0.0
 11
-98.100000000000023
 21
-55.4282032302755
 31
0.0
  0
LINE
  5
10C
  8
1
 62
     7
 10
-100.09999999999989
 20
-42.409915906959583
 30
0.0
 11
-98.100000000000023
 21
-41.5717967697245
 31
0.0
  0
LINE
  5
10D
  8
1
 62
     7
 10
-129.09999999999991
 20
-42.409915906959583
 30
0.0
 11
-100.09999999999989
 21
-42.409915906959583
 31
0.0
  0
LINE
  5
10E
  8
1
 62
     7
 10
-101.3000000000001
 20
-38.64659792123804
 30
0.0
 11
-98.100000000000023
 21
-38.64659792123804
 31
0.0
  0
LINE
  5
10F
  8
1
 62
     7
 10
-101.3000000000001
 20
-39.29906145194424
 30
0.0
 11
-101.3000000000001
 21
39.299061451944219
 31
0.0
  0
LINE
  5
110
  8
1
 62
     7
 10
-104.0
 20
-39.29906145194424
 30
0.0
 11
-101.3000000000001
 21
-39.29906145194424
 31
0.0
  0
LINE
  5
111
  8
1
 62
     7
 10
-111.0
 20
-38.64659792123804
 30
0.0
 11
-104.0
 21
-38.64659792123804
 31
0.0
  0
LINE
  5
112
  8
1
 62
     7
 10
-129.09999999999991
 20
-38.64659792123804
 30
0.0
 11
-128.09999999999991
 21
-38.64659792123804
 31
0.0
  0
LINE
  5
113
  8
1
 62
     7
 10
-111.0
 20
-99.0
 30
0.0
 11
-111.0
 21
-56.266322367510597
 31
0.0
  0
LINE
  5
114
  8
1
 62
     7
 10
-128.09999999999991
 20
-99.0
 30
0.0
 11
-128.09999999999991
 21
-56.266322367510597
 31
0.0
  0
LINE
  5
115
  8
1
 62
     7
 10
-129.09999999999991
 20
-56.266322367510597
 30
0.0
 11
-129.09999999999991
 21
-99.0
 31
0.0
  0
LINE
  5
116
  8
1
 62
     7
 10
-128.09999999999991
 20
-89.000000000000014
 30
0.0
 11
-129.09999999999991
 21
-89.000000000000014
 31
0.0
  0
LINE
  5
117
  8
1
 62
     7
 10
-104.0
 20
-90.750000000000014
 30
0.0
 11
-111.0
 21
-90.750000000000014
 31
0.0
  0
LINE
  5
118
  8
1
 62
     3
 10
-128.09999999999991
 20
-56.266322367510597
 30
0.0
 11
-111.0
 21
-99.0
 31
0.0
  0
LINE
  5
119
  8
1
 62
     3
 10
-128.09999999999991
 20
-99.0
 30
0.0
 11
-111.0
 21
-56.266322367510597
 31
0.0
  0
LINE
  5
11A
  8
1
 62
     7
 10
-106.4999999999999
 20
-89.750000000000014
 30
0.0
 11
-106.4999999999999
 21
-56.266322367510597
 31
0.0
  0
LINE
  5
11B
  8
1
 62
     7
 10
-108.59999999999999
 20
-89.750000000000014
 30
0.0
 11
-108.59999999999999
 21
-56.266322367510597
 31
0.0
  0
LINE
  5
11C
  8
1
 62
     7
 10
-104.0
 20
-92.799999999999983
 30
0.0
 11
-104.0
 21
-56.266322367510597
 31
0.0
  0
LINE
  5
11D
  8
1
 62
     7
 10
-100.0
 20
-83.499999999999986
 30
0.0
 11
-101.3000000000001
 21
-83.500000000000014
 31
0.0
  0
LINE
  5
11E
  8
1
 62
     7
 10
-101.3000000000001
 20
-92.799999999999983
 30
0.0
 11
-101.3000000000001
 21
-56.266322367510597
 31
0.0
  0
LINE
  5
11F
  8
1
 62
     7
 10
-100.0
 20
-83.499999999999986
 30
0.0
 11
-100.0
 21
-56.224416410648871
 31
0.0
  0
LINE
  5
120
  8
1
 62
     7
 10
-147.09999999999991
 20
-97.0
 30
0.0
 11
-147.09999999999991
 21
97.0
 31
0.0
  0
LINE
  5
121
  8
1
 62
     7
 10
-145.09999999999999
 20
-99.0
 30
0.0
 11
-147.09999999999991
 21
-97.0
 31
0.0
  0
LINE
  5
122
  8
1
 62
     7
 10
-166.09999999999999
 20
90.0
 30
0.0
 11
-166.09999999999999
 21
-90.0
 31
0.0
  0
LINE
  5
123
  8
1
 62
     7
 10
-145.09999999999999
 20
99.0
 30
0.0
 11
-145.09999999999999
 21
-99.0
 31
0.0
  0
LINE
  5
124
  8
1
 62
     7
 10
-129.09999999999991
 20
42.40991590695954
 30
0.0
 11
-129.09999999999991
 21
-42.409915906959583
 31
0.0
  0
LINE
  5
125
  8
1
 62
     7
 10
-128.09999999999991
 20
42.40991590695954
 30
0.0
 11
-128.09999999999991
 21
-42.409915906959583
 31
0.0
  0
LINE
  5
126
  8
1
 62
     7
 10
-111.0
 20
42.40991590695954
 30
0.0
 11
-111.0
 21
-42.409915906959583
 31
0.0
  0
LINE
  5
127
  8
1
 62
     3
 10
-111.0
 20
42.40991590695954
 30
0.0
 11
-128.09999999999991
 21
-42.409915906959583
 31
0.0
  0
LINE
  5
128
  8
1
 62
     3
 10
-128.09999999999991
 20
42.40991590695954
 30
0.0
 11
-111.0
 21
-42.409915906959583
 31
0.0
  0
LINE
  5
129
  8
1
 62
     7
 10
-106.4999999999999
 20
38.64659792123804
 30
0.0
 11
-106.4999999999999
 21
-38.64659792123804
 31
0.0
  0
LINE
  5
12A
  8
1
 62
     7
 10
-108.59999999999999
 20
38.64659792123804
 30
0.0
 11
-108.59999999999999
 21
-38.64659792123804
 31
0.0
  0
LINE
  5
12B
  8
1
 62
     7
 10
-100.0
 20
-38.64659792123804
 30
0.0
 11
-100.0
 21
38.646597921238033
 31
0.0
  0
LINE
  5
12C
  8
1
 62
     7
 10
-100.09999999999989
 20
-42.409915906959583
 30
0.0
 11
-100.09999999999989
 21
-56.266322367510597
 31
0.0
  0
LINE
  5
12D
  8
1
 62
     7
 10
-100.09999999999989
 20
42.40991590695954
 30
0.0
 11
-100.09999999999989
 21
56.266322367510568
 31
0.0
  0
LINE
  5
12E
  8
1
  6
DASHDOT
 62
     3
 10
-365.20568311091688
 20
0.0
 30
0.0
 11
-370.99431688908328
 21
0.0
 31
0.0
  0
LINE
  5
12F
  8
1
  6
DASHDOT
 62
     3
 10
-368.10000000000008
 20
2.8943168890831421
 30
0.0
 11
-368.10000000000008
 21
-2.8943168890831421
 31
0.0
  0
LINE
  5
130
  8
1
  6
DASHDOT
 62
     3
 10
-368.10000000000008
 20
61.044687079269991
 30
0.0
 11
-368.10000000000008
 21
49.025369641181982
 31
0.0
  0
LINE
  5
131
  8
1
  6
DASHDOT
 62
     3
 10
-429.14468707927011
 20
-0.0000000000000213
 30
0.0
 11
-417.12536964118198
 21
-0.0000000000000213
 31
0.0
  0
LINE
  5
132
  8
1
  6
DASHDOT
 62
     3
 10
-368.10000000000008
 20
-61.04468707926997
 30
0.0
 11
-368.10000000000008
 21
-49.025369641181967
 31
0.0
  0
LINE
  5
133
  8
1
  6
DASHDOT
 62
     3
 10
-307.0553129207301
 20
-0.0000000000000568
 30
0.0
 11
-319.07463035881813
 21
-0.0000000000000568
 31
0.0
  0
LINE
  5
134
  8
1
 62
     3
 10
-174.09999999999991
 20
0.0
 30
0.0
 11
-169.09999999999999
 21
0.0
 31
0.0
  0
LINE
  5
135
  8
1
 62
     3
 10
-100.0
 20
0.0
 30
0.0
 11
-95.0
 21
0.0
 31
0.0
  0
ARC
  5
136
  8
1
 62
     7
 10
-368.10000000000008
 20
0.0
 30
0.0
 40
30.0
 50
107.45760312372209
 51
72.54239687627792
  0
ARC
  5
137
  8
1
 62
     7
 10
-368.10000000000008
 20
0.0
 30
0.0
 40
99.0
 50
91.504910673484588
 51
88.495089326515554
  0
ARC
  5
138
  8
1
 62
     7
 10
-368.10000000000008
 20
0.0
 30
0.0
 40
97.000000000000043
 50
91.535947119355868
 51
88.464052880644346
  0
ARC
  5
139
  8
1
 62
     7
 10
-107.5500000000001
 20
89.500000000000014
 30
0.0
 40
1.0
 50
0.0
 51
180.0
  0
ARC
  5
13A
  8
1
 62
     7
 10
-107.5500000000001
 20
-89.500000000000014
 30
0.0
 40
1.0
 50
180.0
 51
0.0
  0
ARC
  5
13B
  8
1
  6
DASHDOT
 62
     3
 10
-368.10000000000008
 20
0.0
 30
0.0
 40
55.0
 50
83.55809859704047
 51
96.595038614234184
  0
ARC
  5
13C
  8
1
  6
DASHDOT
 62
     3
 10
-368.10000000000008
 20
0.0
 30
0.0
 40
55.0
 50
173.55809859704041
 51
186.5950386142342
  0
ARC
  5
13D
  8
1
  6
DASHDOT
 62
     3
 10
-368.10000000000008
 20
0.0
 30
0.0
 40
55.0
 50
263.55809859704033
 51
276.59503861423423
  0
ARC
  5
13E
  8
1
  6
DASHDOT
 62
     3
 10
-368.10000000000008
 20
0.0
 30
0.0
 40
55.000000000000028
 50
353.55809859704033
 51
6.5950386142341593
  0
CIRCLE
  5
13F
  8
1
 62
     7
 10
-313.10000000000008
 20
0.0
 30
0.0
 40
4.0
  0
CIRCLE
  5
140
  8
1
 62
     7
 10
-368.10000000000008
 20
-55.0
 30
0.0
 40
4.0
  0
CIRCLE
  5
141
  8
1
 62
     7
 10
-423.10000000000008
 20
0.0
 30
0.0
 40
4.0
  0
CIRCLE
  5
142
  8
1
 62
     3
 10
-313.10000000000008
 20
0.0
 30
0.0
 40
5.0
  0
CIRCLE
  5
143
  8
1
 62
     3
 10
-368.10000000000008
 20
-55.0
 30
0.0
 40
5.0
  0
CIRCLE
  5
144
  8
1
 62
     3
 10
-423.10000000000008
 20
0.0
 30
0.0
 40
5.0
  0
CIRCLE
  5
145
  8
1
 62
     7
 10
-368.10000000000008
 20
55.0
 30
0.0
 40
4.0
  0
CIRCLE
  5
146
  8
1
 62
     3
 10
-368.10000000000008
 20
55.0
 30
0.0
 40
5.0
  0
CIRCLE
  5
147
  8
1
 62
     7
 10
-368.10000000000008
 20
0.0
 30
0.0
 40
88.0
  0
CIRCLE
  5
148
  8
1
 62
     7
 10
-368.10000000000008
 20
0.0
 30
0.0
 40
90.0
  0
CIRCLE
  5
149
  8
1
 62
     7
 10
-368.10000000000008
 20
0.0
 30
0.0
 40
45.0
  0
CIRCLE
  5
14A
  8
1
 62
     7
 10
-368.10000000000008
 20
0.0
 30
0.0
 40
40.0
  0
CIRCLE
  5
14B
  8
1
 62
     7
 10
61.549999999999898
 20
-89.500000000000014
 30
0.0
 40
1.0
  0
CIRCLE
  5
14C
  8
1
 62
     7
 10
61.549999999999898
 20
89.500000000000014
 30
0.0
 40
1.0
  0
CIRCLE
  5
14D
  8
1
 62
     7
 10
-368.10000000000008
 20
0.0
 30
0.0
 40
65.0
  0
TEXT
  5
14F
  8
1
 62
     7
 10
-385.80743211251189
 20
166.78304419978599
 30
0.0
 40
7.0
  1
MWB 40
 41
0.9
  7
SIMPLEX
  0
ENDSEC
  0
EOF
