  0
SECTION
  2
HEADER
  9
$ACADVER
  1
AC1009
  9
$INSBASE
 10
0.0
 20
0.0
 30
0.0
  9
$EXTMIN
 10
-293.88646678857538
 20
-56.000000000000043
 30
0.0
  9
$EXTMAX
 10
48.976235515760102
 20
114.14581312174251
 30
0.0
  9
$LIMMIN
 10
-293.88646678857538
 20
-56.000000000000043
  9
$LIMMAX
 10
48.976235515760102
 20
114.14581312174251
  9
$ORTHOMODE
 70
     0
  9
$REGENMODE
 70
     1
  9
$FILLMODE
 70
     1
  9
$QTEXTMODE
 70
     0
  9
$MIRRTEXT
 70
     1
  9
$DRAGMODE
 70
     2
  9
$LTSCALE
 40
1.0
  9
$OSMODE
 70
    37
  9
$ATTMODE
 70
     1
  9
$TEXTSIZE
 40
3.5
  9
$TRACEWID
 40
0.5
  9
$TEXTSTYLE
  7
STANDARD
  9
$CLAYER
  8
0
  9
$CELTYPE
  6
BYLAYER
  9
$CECOLOR
 62
   256
  9
$DIMSCALE
 40
1.0
  9
$DIMASZ
 40
0.18
  9
$DIMEXO
 40
0.0625
  9
$DIMDLI
 40
0.38
  9
$DIMRND
 40
0.0
  9
$DIMDLE
 40
0.0
  9
$DIMEXE
 40
0.18
  9
$DIMTP
 40
0.0
  9
$DIMTM
 40
0.0
  9
$DIMTXT
 40
0.18
  9
$DIMCEN
 40
0.09
  9
$DIMTSZ
 40
0.0
  9
$DIMTOL
 70
     0
  9
$DIMLIM
 70
     0
  9
$DIMTIH
 70
     1
  9
$DIMTOH
 70
     1
  9
$DIMSE1
 70
     0
  9
$DIMSE2
 70
     0
  9
$DIMTAD
 70
     0
  9
$DIMZIN
 70
     0
  9
$DIMBLK
  1

  9
$DIMASO
 70
     1
  9
$DIMSHO
 70
     1
  9
$DIMPOST
  1

  9
$DIMAPOST
  1

  9
$DIMALT
 70
     0
  9
$DIMALTD
 70
     2
  9
$DIMALTF
 40
25.399999999999999
  9
$DIMLFAC
 40
1.0
  9
$DIMTOFL
 70
     0
  9
$DIMTVP
 40
0.0
  9
$DIMTIX
 70
     0
  9
$DIMSOXD
 70
     0
  9
$DIMSAH
 70
     0
  9
$DIMBLK1
  1

  9
$DIMBLK2
  1

  9
$DIMSTYLE
  2
STANDARD
  9
$DIMCLRD
 70
     0
  9
$DIMCLRE
 70
     0
  9
$DIMCLRT
 70
     0
  9
$DIMTFAC
 40
1.0
  9
$DIMGAP
 40
0.09
  9
$LUNITS
 70
     2
  9
$LUPREC
 70
     4
  9
$SKETCHINC
 40
0.1
  9
$FILLETRAD
 40
2.0
  9
$AUNITS
 70
     0
  9
$AUPREC
 70
     0
  9
$MENU
  1
ACAD
  9
$ELEVATION
 40
0.0
  9
$PELEVATION
 40
0.0
  9
$THICKNESS
 40
0.0
  9
$LIMCHECK
 70
     0
  9
$BLIPMODE
 70
     0
  9
$CHAMFERA
 40
0.0
  9
$CHAMFERB
 40
0.0
  9
$SKPOLY
 70
     0
  9
$TDCREATE
 40
2452098.689148379
  9
$TDUPDATE
 40
2452098.6897376152
  9
$TDINDWG
 40
0.0005905093
  9
$TDUSRTIMER
 40
0.0005905093
  9
$USRTIMER
 70
     1
  9
$ANGBASE
 50
0.0
  9
$ANGDIR
 70
     0
  9
$PDMODE
 70
     0
  9
$PDSIZE
 40
0.0
  9
$PLINEWID
 40
0.0
  9
$COORDS
 70
     1
  9
$SPLFRAME
 70
     0
  9
$SPLINETYPE
 70
     6
  9
$SPLINESEGS
 70
     8
  9
$ATTDIA
 70
     0
  9
$ATTREQ
 70
     1
  9
$HANDLING
 70
 10241
  9
$HANDSEED
  5
160
  9
$SURFTAB1
 70
     6
  9
$SURFTAB2
 70
     6
  9
$SURFTYPE
 70
     6
  9
$SURFU
 70
     6
  9
$SURFV
 70
     6
  9
$UCSNAME
  2

  9
$UCSORG
 10
0.0
 20
0.0
 30
0.0
  9
$UCSXDIR
 10
1.0
 20
0.0
 30
0.0
  9
$UCSYDIR
 10
0.0
 20
1.0
 30
0.0
  9
$PUCSNAME
  2

  9
$PUCSORG
 10
0.0
 20
0.0
 30
0.0
  9
$PUCSXDIR
 10
1.0
 20
0.0
 30
0.0
  9
$PUCSYDIR
 10
0.0
 20
1.0
 30
0.0
  9
$USERI1
 70
     0
  9
$USERI2
 70
     0
  9
$USERI3
 70
     0
  9
$USERI4
 70
     0
  9
$USERI5
 70
     0
  9
$USERR1
 40
0.0
  9
$USERR2
 40
0.0
  9
$USERR3
 40
0.0
  9
$USERR4
 40
0.0
  9
$USERR5
 40
0.0
  9
$WORLDVIEW
 70
     1
  9
$SHADEDGE
 70
     3
  9
$SHADEDIF
 70
    70
  9
$TILEMODE
 70
     1
  9
$MAXACTVP
 70
    64
  9
$PLIMCHECK
 70
     0
  9
$PEXTMIN
 10
1.0000000000000000E+020
 20
1.0000000000000000E+020
 30
1.0000000000000000E+020
  9
$PEXTMAX
 10
-1.0000000000000000E+020
 20
-1.0000000000000000E+020
 30
-1.0000000000000000E+020
  9
$PLIMMIN
 10
0.0
 20
0.0
  9
$PLIMMAX
 10
12.0
 20
9.0
  9
$UNITMODE
 70
     0
  9
$VISRETAIN
 70
     1
  9
$PLINEGEN
 70
     0
  9
$PSLTSCALE
 70
     1
  0
ENDSEC
  0
SECTION
  2
TABLES
  0
TABLE
  2
VPORT
 70
     2
  0
VPORT
  2
*ACTIVE
 70
     0
 10
0.0
 20
0.0
 11
1.0
 21
1.0
 12
-241.83197509258039
 22
103.4999932914865
 13
0.0
 23
0.0
 14
1.0
 24
1.0
 15
0.0
 25
0.0
 16
0.0
 26
0.0
 36
1.0
 17
0.0
 27
0.0
 37
0.0
 40
8.9999998248405291
 41
1.853118712273641
 42
50.0
 43
0.0
 44
0.0
 50
0.0
 51
0.0
 71
     0
 72
   100
 73
     1
 74
     1
 75
     0
 76
     0
 77
     0
 78
     0
  0
ENDTAB
  0
TABLE
  2
LTYPE
 70
     9
  0
LTYPE
  2
CONTINUOUS
 70
     0
  3
Solid line
 72
    65
 73
     0
 40
0.0
  0
LTYPE
  2
BORDER
 70
     0
  3
__ __ . __ __ .
 72
    65
 73
     6
 40
15.789729711383879
 49
4.511351346109679
 49
-2.2556756730548391
 49
4.511351346109679
 49
-2.2556756730548391
 49
0.0
 49
-2.2556756730548391
  0
LTYPE
  2
CENTER
 70
     0
  3
____ _ ____ _
 72
    65
 73
     4
 40
18.045405384438709
 49
11.27837836527419
 49
-2.2556756730548391
 49
2.2556756730548391
 49
-2.2556756730548391
  0
LTYPE
  2
DASHDOT
 70
     0
  3
__ . __ . __ .
 72
    65
 73
     4
 40
9.0227026922193581
 49
4.511351346109679
 49
-2.2556756730548391
 49
0.0
 49
-2.2556756730548391
  0
LTYPE
  2
DASHED
 70
     0
  3
__ __ __ __ __
 72
    65
 73
     2
 40
6.7670270191645177
 49
4.511351346109679
 49
-2.2556756730548391
  0
LTYPE
  2
DIVIDE
 70
     0
  3
__ . . __ . . 
 72
    65
 73
     6
 40
11.27837836527419
 49
4.511351346109679
 49
-2.2556756730548391
 49
0.0
 49
-2.2556756730548391
 49
0.0
 49
-2.2556756730548391
  0
LTYPE
  2
DOT
 70
     0
  3
..............
 72
    65
 73
     4
 40
4.511351346109679
 49
0.0
 49
-2.2556756730548391
 49
0.0
 49
-2.2556756730548391
  0
LTYPE
  2
HIDDEN
 70
     0
  3
_ _ _ _ _ _ _
 72
    65
 73
     2
 40
3.3835135095822588
 49
2.2556756730548391
 49
-1.1278378365274191
  0
LTYPE
  2
PHANTOM
 70
     0
  3
_____ _ _ _____ _ _ 
 72
    65
 73
     6
 40
22.55675673054839
 49
11.27837836527419
 49
-2.2556756730548391
 49
2.2556756730548391
 49
-2.2556756730548391
 49
2.2556756730548391
 49
-2.2556756730548391
  0
ENDTAB
  0
TABLE
  2
LAYER
 70
     2
  0
LAYER
  2
0
 70
     0
 62
     7
  6
CONTINUOUS
  0
LAYER
  2
1
 70
     0
 62
     7
  6
CONTINUOUS
  0
ENDTAB
  0
TABLE
  2
STYLE
 70
     4
  0
STYLE
  2
STANDARD
 70
     0
 40
0.0
 41
1.0
 50
0.0
 71
     0
 42
3.5
  3
txt
  4

  0
STYLE
  2
SIMPLEX
 70
     0
 40
0.0
 41
1.0
 50
0.0
 71
     0
 42
3.5
  3
simplex
  4

  0
STYLE
  2
COMPLEX
 70
     0
 40
0.0
 41
1.0
 50
0.0
 71
     0
 42
3.5
  3
complex
  4

  0
STYLE
  2
ITALIC
 70
     0
 40
0.0
 41
1.0
 50
0.0
 71
     0
 42
3.5
  3
italic
  4

  0
ENDTAB
  0
TABLE
  2
VIEW
 70
     0
  0
ENDTAB
  0
TABLE
  2
UCS
 70
     0
  0
ENDTAB
  0
TABLE
  2
APPID
 70
     1
  0
APPID
  2
ACAD
 70
     0
  0
ENDTAB
  0
TABLE
  2
DIMSTYLE
 70
     1
  0
DIMSTYLE
  2
STANDARD
 70
     0
  3

  4

  5

  6

  7

 40
1.0
 41
0.18
 42
0.0625
 43
0.38
 44
0.18
 45
0.0
 46
0.0
 47
0.0
 48
0.0
140
0.18
141
0.09
142
0.0
143
25.399999999999999
144
1.0
145
0.0
146
1.0
147
0.09
 71
     0
 72
     0
 73
     1
 74
     1
 75
     0
 76
     0
 77
     0
 78
     0
170
     0
171
     2
172
     0
173
     0
174
     0
175
     0
176
     0
177
     0
178
     0
  0
ENDTAB
  0
ENDSEC
  0
SECTION
  2
BLOCKS
  0
BLOCK
  8
0
  2
$MODEL_SPACE
 70
     0
 10
0.0
 20
0.0
 30
0.0
  3
$MODEL_SPACE
  1

  0
ENDBLK
  5
20
  8
0
  0
BLOCK
 67
     1
  8
0
  2
$PAPER_SPACE
 70
     0
 10
0.0
 20
0.0
 30
0.0
  3
$PAPER_SPACE
  1

  0
ENDBLK
  5
1C
 67
     1
  8
0
  0
BLOCK
  8
0
  2
_X1
 70
     0
 10
0.0
 20
0.0
 30
0.0
  3
_X1
  1

  0
ENDBLK
  5
35
  8
0
  0
BLOCK
  8
0
  2
_X0
 70
     0
 10
0.0
 20
0.0
 30
0.0
  3
_X0
  1

  0
ENDBLK
  5
38
  8
0
  0
ENDSEC
  0
SECTION
  2
ENTITIES
  0
LINE
  5
39
  8
1
  6
DASHDOT
 62
     3
 10
-237.88646678857549
 20
2.5628061001615592
 30
0.0
 11
-237.88646678857549
 21
-2.5628061001615592
 31
0.0
  0
LINE
  5
3A
  8
1
  6
DASHDOT
 62
     3
 10
-235.32366068841401
 20
0.0
 30
0.0
 11
-240.44927288873711
 21
0.0
 31
0.0
  0
LINE
  5
3B
  8
1
 62
     7
 10
-99.453444921371897
 20
74.664727768080525
 30
0.0
 11
-99.453444921371897
 21
51.500000000000007
 31
0.0
  0
LINE
  5
3C
  8
1
 62
     7
 10
-235.5664667885755
 20
51.4507379538001
 30
0.0
 11
-235.5664667885755
 21
74.664727768080525
 31
0.0
  0
LINE
  5
3D
  8
1
 62
     7
 10
-84.11344492137178
 20
-21.54940157029284
 30
0.0
 11
-84.613444921371766
 21
-21.54940157029284
 31
0.0
  0
LINE
  5
3E
  8
1
 62
     7
 10
-84.613444921371766
 20
21.549401570292851
 30
0.0
 11
-84.11344492137178
 21
21.549401570292851
 31
0.0
  0
LINE
  5
3F
  8
1
 62
     3
 10
-84.11344492137178
 20
-32.218296553690848
 30
0.0
 11
-73.813444921371882
 21
-56.000000000000028
 31
0.0
  0
LINE
  5
40
  8
1
 62
     3
 10
-73.813444921371882
 20
-32.218296553690848
 30
0.0
 11
-84.11344492137178
 21
-56.000000000000028
 31
0.0
  0
LINE
  5
41
  8
1
 62
     3
 10
-73.813444921371882
 20
23.558042515846459
 30
0.0
 11
-84.11344492137178
 21
-23.558042515846459
 31
0.0
  0
LINE
  5
42
  8
1
 62
     3
 10
-84.11344492137178
 20
23.558042515846459
 30
0.0
 11
-73.813444921371882
 21
-23.558042515846459
 31
0.0
  0
LINE
  5
43
  8
1
 62
     3
 10
-73.813444921371882
 20
56.000000000000007
 30
0.0
 11
-84.11344492137178
 21
32.218296553690848
 31
0.0
  0
LINE
  5
44
  8
1
 62
     3
 10
-84.11344492137178
 20
56.000000000000007
 30
0.0
 11
-73.813444921371882
 21
32.218296553690848
 31
0.0
  0
LINE
  5
45
  8
1
 62
     7
 10
-73.813444921371882
 20
52.000000000000007
 30
0.0
 11
-69.313444921371882
 21
52.000000000000007
 31
0.0
  0
LINE
  5
46
  8
1
 62
     7
 10
-69.313444921371882
 20
22.37812311095335
 30
0.0
 11
-69.313444921371882
 21
-22.37812311095335
 31
0.0
  0
LINE
  5
47
  8
1
 62
     7
 10
-84.613444921371766
 20
23.558042515846459
 30
0.0
 11
-84.613444921371766
 21
-23.558042515846459
 31
0.0
  0
LINE
  5
48
  8
1
 62
     7
 10
-84.11344492137178
 20
32.218296553690848
 30
0.0
 11
-84.11344492137178
 21
56.000000000000007
 31
0.0
  0
LINE
  5
49
  8
1
 62
     7
 10
-69.313444921371882
 20
21.549401570292851
 30
0.0
 11
-73.813444921371882
 21
21.549401570292851
 31
0.0
  0
LINE
  5
4A
  8
1
 62
     7
 10
-69.313444921371882
 20
22.37812311095335
 30
0.0
 11
-66.813444921371882
 21
22.37812311095335
 31
0.0
  0
LINE
  5
4B
  8
1
 62
     7
 10
-66.813444921371882
 20
21.549401570292851
 30
0.0
 11
-65.61344492137178
 21
21.549401570292851
 31
0.0
  0
LINE
  5
4C
  8
1
 62
     7
 10
-65.61344492137178
 20
21.549401570292851
 30
0.0
 11
-65.61344492137178
 21
31.716254894180562
 31
0.0
  0
LINE
  5
4D
  8
1
 62
     7
 10
-84.613444921371766
 20
23.558042515846459
 30
0.0
 11
-66.813444921371882
 21
23.558042515846459
 31
0.0
  0
LINE
  5
4E
  8
1
 62
     7
 10
-84.613444921371766
 20
32.218296553690848
 30
0.0
 11
-66.813444921371882
 21
32.218296553690848
 31
0.0
  0
LINE
  5
4F
  8
1
 62
     7
 10
-65.61344492137178
 20
31.716254894180562
 30
0.0
 11
-66.813444921371882
 21
32.218296553690848
 31
0.0
  0
LINE
  5
50
  8
1
 62
     7
 10
-65.61344492137178
 20
23.056000856336169
 30
0.0
 11
-66.813444921371882
 21
23.558042515846459
 31
0.0
  0
LINE
  5
51
  8
1
 62
     7
 10
-73.813444921371882
 20
-21.54940157029284
 30
0.0
 11
-69.313444921371882
 21
-21.54940157029284
 31
0.0
  0
LINE
  5
52
  8
1
 62
     7
 10
-66.813444921371882
 20
-22.37812311095335
 30
0.0
 11
-66.813444921371882
 21
22.37812311095335
 31
0.0
  0
LINE
  5
53
  8
1
 62
     7
 10
-66.813444921371882
 20
-22.37812311095335
 30
0.0
 11
-69.313444921371882
 21
-22.37812311095335
 31
0.0
  0
LINE
  5
54
  8
1
 62
     7
 10
-65.61344492137178
 20
-21.54940157029284
 30
0.0
 11
-66.813444921371882
 21
-21.54940157029284
 31
0.0
  0
LINE
  5
55
  8
1
 62
     7
 10
-84.613444921371766
 20
-32.218296553690848
 30
0.0
 11
-84.613444921371766
 21
-56.000000000000028
 31
0.0
  0
LINE
  5
56
  8
1
 62
     7
 10
-84.11344492137178
 20
-32.218296553690848
 30
0.0
 11
-84.11344492137178
 21
-56.000000000000028
 31
0.0
  0
LINE
  5
57
  8
1
 62
     7
 10
-73.813444921371882
 20
-23.558042515846459
 30
0.0
 11
-73.813444921371882
 21
23.558042515846459
 31
0.0
  0
LINE
  5
58
  8
1
 62
     7
 10
-66.813444921371882
 20
-23.558042515846459
 30
0.0
 11
-84.613444921371766
 21
-23.558042515846459
 31
0.0
  0
LINE
  5
59
  8
1
 62
     7
 10
-66.813444921371882
 20
-32.218296553690848
 30
0.0
 11
-84.613444921371766
 21
-32.218296553690848
 31
0.0
  0
LINE
  5
5A
  8
1
 62
     7
 10
-65.61344492137178
 20
-21.54940157029284
 30
0.0
 11
-65.61344492137178
 21
-31.716254894180562
 31
0.0
  0
LINE
  5
5B
  8
1
 62
     7
 10
-66.813444921371882
 20
-32.218296553690848
 30
0.0
 11
-65.61344492137178
 21
-31.716254894180562
 31
0.0
  0
LINE
  5
5C
  8
1
 62
     7
 10
-66.813444921371882
 20
-23.558042515846459
 30
0.0
 11
-65.61344492137178
 21
-23.056000856336169
 31
0.0
  0
LINE
  5
5D
  8
1
 62
     7
 10
-84.613444921371766
 20
32.218296553690848
 30
0.0
 11
-84.613444921371766
 21
52.000000000000007
 31
0.0
  0
LINE
  5
5E
  8
1
 62
     7
 10
-94.11344492137178
 20
-56.000000000000028
 30
0.0
 11
-66.61344492137178
 21
-56.000000000000043
 31
0.0
  0
LINE
  5
5F
  8
1
 62
     7
 10
-65.61344492137178
 20
-55.000000000000028
 30
0.0
 11
-66.61344492137178
 21
-56.000000000000043
 31
0.0
  0
LINE
  5
60
  8
1
 62
     7
 10
-65.61344492137178
 20
-52.000000000000028
 30
0.0
 11
-66.813444921371882
 21
-52.000000000000007
 31
0.0
  0
LINE
  5
61
  8
1
 62
     7
 10
-65.61344492137178
 20
-55.000000000000028
 30
0.0
 11
-65.61344492137178
 21
-52.000000000000028
 31
0.0
  0
LINE
  5
62
  8
1
 62
     3
 10
43.800000000000132
 20
0.0
 30
0.0
 11
48.976235515760102
 21
0.0
 31
0.0
  0
LINE
  5
63
  8
1
 62
     7
 10
11.16000000000008
 20
74.664727768080525
 30
0.0
 11
11.16000000000008
 21
51.500000000000007
 31
0.0
  0
LINE
  5
64
  8
1
  6
DASHED
 62
     7
 10
-222.0144933731971
 20
-13.750653071818769
 30
0.0
 11
-226.27237115719291
 21
-9.4927752878228517
 31
0.0
  0
LINE
  5
65
  8
1
  6
DASHED
 62
     7
 10
-251.63711986039431
 20
-15.871973415378431
 30
0.0
 11
-247.3792420763983
 21
-11.61409563138251
 31
0.0
  0
LINE
  5
66
  8
1
  6
DASHED
 62
     7
 10
-253.758440203954
 20
13.75065307181883
 30
0.0
 11
-249.5005624199579
 21
9.4927752878228375
 31
0.0
  0
LINE
  5
67
  8
1
  6
DASHED
 62
     7
 10
-224.1358137167567
 20
15.871973415378431
 30
0.0
 11
-228.3936915007526
 21
11.614095631382529
 31
0.0
  0
LINE
  5
68
  8
1
  6
DASHDOT
 62
     3
 10
-272.53434716244118
 20
0.0
 30
0.0
 11
-263.58056077093102
 21
0.0
 31
0.0
  0
LINE
  5
69
  8
1
  6
DASHDOT
 62
     3
 10
-237.88646678857549
 20
-34.352804371761579
 30
0.0
 11
-237.88646678857549
 21
-25.89778906753769
 31
0.0
  0
LINE
  5
6A
  8
1
  6
DASHDOT
 62
     3
 10
-211.98269179118199
 20
0.0
 30
0.0
 11
-203.27925288863631
 21
0.0
 31
0.0
  0
LINE
  5
6B
  8
1
  6
DASHDOT
 62
     3
 10
-237.88646678857549
 20
25.64428518041349
 30
0.0
 11
-237.88646678857549
 21
34.751507084368413
 31
0.0
  0
LINE
  5
6C
  8
1
 62
     3
 10
-66.813444921371882
 20
0.0
 30
0.0
 11
-61.637209405611877
 21
0.0
 31
0.0
  0
LINE
  5
6D
  8
1
 62
     7
 10
-94.11344492137178
 20
-56.000000000000028
 30
0.0
 11
-94.11344492137178
 21
56.000000000000007
 31
0.0
  0
LINE
  5
6E
  8
1
 62
     7
 10
-96.11344492137178
 20
-51.500000000000007
 30
0.0
 11
-96.11344492137178
 21
51.500000000000007
 31
0.0
  0
LINE
  5
6F
  8
1
 62
     7
 10
-95.11344492137178
 20
-52.5
 30
0.0
 11
-96.11344492137178
 21
-51.500000000000007
 31
0.0
  0
LINE
  5
70
  8
1
 62
     7
 10
-95.11344492137178
 20
52.5
 30
0.0
 11
-96.11344492137178
 21
51.500000000000007
 31
0.0
  0
LINE
  5
71
  8
1
 62
     7
 10
-108.61344492137179
 20
-51.500000000000007
 30
0.0
 11
-108.61344492137179
 21
51.500000000000007
 31
0.0
  0
LINE
  5
72
  8
1
 62
     7
 10
-108.61344492137179
 20
51.500000000000007
 30
0.0
 11
-96.11344492137178
 21
51.500000000000007
 31
0.0
  0
LINE
  5
73
  8
1
 62
     7
 10
-69.313444921371882
 20
53.650000000000013
 30
0.0
 11
-69.313444921371882
 21
32.218296553690848
 31
0.0
  0
LINE
  5
74
  8
1
 62
     7
 10
-96.11344492137178
 20
-51.500000000000007
 30
0.0
 11
-108.61344492137179
 21
-51.500000000000007
 31
0.0
  0
LINE
  5
75
  8
1
 62
     7
 10
-109.61344492137179
 20
-50.5
 30
0.0
 11
-108.61344492137179
 21
-51.500000000000007
 31
0.0
  0
LINE
  5
76
  8
1
 62
     7
 10
-109.61344492137179
 20
-50.5
 30
0.0
 11
-109.61344492137179
 21
50.5
 31
0.0
  0
LINE
  5
77
  8
1
 62
     7
 10
-109.61344492137179
 20
-40.0
 30
0.0
 11
-110.61344492137179
 21
-40.0
 31
0.0
  0
LINE
  5
78
  8
1
 62
     7
 10
-94.11344492137178
 20
-56.000000000000028
 30
0.0
 11
-95.11344492137178
 21
-55.0
 31
0.0
  0
LINE
  5
79
  8
1
 62
     7
 10
-69.313444921371882
 20
-53.650000000000013
 30
0.0
 11
-69.313444921371882
 21
-32.218296553690848
 31
0.0
  0
LINE
  5
7A
  8
1
 62
     7
 10
-66.813444921371882
 20
-53.650000000000013
 30
0.0
 11
-69.313444921371882
 21
-53.650000000000013
 31
0.0
  0
LINE
  5
7B
  8
1
 62
     3
 10
-99.956073131090207
 20
78.236583652963489
 30
0.0
 11
-99.956073131090207
 21
74.664727768080525
 31
0.0
  0
LINE
  5
7C
  8
1
 62
     3
 10
-100.262963782149
 20
78.236583652963489
 30
0.0
 11
-100.262963782149
 21
74.664727768080525
 31
0.0
  0
LINE
  5
7D
  8
1
 62
     3
 10
-101.22455448880009
 20
78.236583652963489
 30
0.0
 11
-101.22455448880009
 21
74.664727768080525
 31
0.0
  0
LINE
  5
7E
  8
1
 62
     3
 10
-100.9176638377412
 20
78.236583652963489
 30
0.0
 11
-100.9176638377412
 21
74.664727768080525
 31
0.0
  0
LINE
  5
7F
  8
1
 62
     3
 10
-100.61344492137179
 20
78.236583652963489
 30
0.0
 11
-100.61344492137179
 21
74.664727768080525
 31
0.0
  0
LINE
  5
80
  8
1
 62
     7
 10
-101.7734449213719
 20
51.500000000000007
 30
0.0
 11
-101.7734449213719
 21
74.664727768080525
 31
0.0
  0
LINE
  5
81
  8
1
 62
     7
 10
-101.7734449213719
 20
74.664727768080525
 30
0.0
 11
-99.453444921371897
 21
74.664727768080525
 31
0.0
  0
LINE
  5
82
  8
1
 62
     7
 10
-95.11344492137178
 20
55.0
 30
0.0
 11
-95.11344492137178
 21
-55.0
 31
0.0
  0
LINE
  5
83
  8
1
 62
     7
 10
-108.61344492137179
 20
51.500000000000007
 30
0.0
 11
-109.61344492137179
 21
50.5
 31
0.0
  0
LINE
  5
84
  8
1
 62
     7
 10
-110.61344492137179
 20
-40.0
 30
0.0
 11
-110.61344492137179
 21
40.0
 31
0.0
  0
LINE
  5
85
  8
1
 62
     7
 10
-110.61344492137179
 20
40.0
 30
0.0
 11
-109.61344492137179
 21
40.0
 31
0.0
  0
LINE
  5
86
  8
1
 62
     7
 10
-95.11344492137178
 20
55.0
 30
0.0
 11
-94.11344492137178
 21
56.000000000000007
 31
0.0
  0
LINE
  5
87
  8
1
 62
     7
 10
-66.61344492137178
 20
56.000000000000007
 30
0.0
 11
-65.61344492137178
 21
55.0
 31
0.0
  0
LINE
  5
88
  8
1
 62
     3
 10
-113.9194763436621
 20
0.0
 30
0.0
 11
-110.61344492137179
 21
0.0
 31
0.0
  0
LINE
  5
89
  8
1
 62
     7
 10
-84.613444921371766
 20
52.000000000000007
 30
0.0
 11
-84.11344492137178
 21
52.000000000000007
 31
0.0
  0
LINE
  5
8A
  8
1
 62
     7
 10
-69.313444921371882
 20
53.650000000000013
 30
0.0
 11
-66.813444921371882
 21
53.650000000000013
 31
0.0
  0
LINE
  5
8B
  8
1
 62
     7
 10
-66.813444921371882
 20
52.000000000000007
 30
0.0
 11
-65.61344492137178
 21
52.000000000000007
 31
0.0
  0
LINE
  5
8C
  8
1
 62
     7
 10
-65.61344492137178
 20
52.000000000000007
 30
0.0
 11
-65.61344492137178
 21
55.0
 31
0.0
  0
LINE
  5
8D
  8
1
 62
     7
 10
-66.61344492137178
 20
56.000000000000007
 30
0.0
 11
-94.11344492137178
 21
56.000000000000007
 31
0.0
  0
LINE
  5
8E
  8
1
 62
     7
 10
-73.813444921371882
 20
-56.000000000000028
 30
0.0
 11
-73.813444921371882
 21
-32.218296553690848
 31
0.0
  0
LINE
  5
8F
  8
1
 62
     7
 10
-73.813444921371882
 20
56.000000000000007
 30
0.0
 11
-73.813444921371882
 21
32.218296553690848
 31
0.0
  0
LINE
  5
90
  8
1
 62
     7
 10
-84.11344492137178
 20
23.558042515846459
 30
0.0
 11
-84.11344492137178
 21
-23.558042515846459
 31
0.0
  0
LINE
  5
91
  8
1
 62
     7
 10
38.0
 20
50.0
 30
0.0
 11
38.0
 21
51.000000000000007
 31
0.0
  0
LINE
  5
92
  8
1
 62
     7
 10
40.100000000000179
 20
50.0
 30
0.0
 11
40.100000000000179
 21
51.000000000000007
 31
0.0
  0
LINE
  5
93
  8
1
 62
     7
 10
38.0
 20
50.0
 30
0.0
 11
40.100000000000179
 21
50.0
 31
0.0
  0
LINE
  5
94
  8
1
 62
     7
 10
36.800000000000132
 20
51.000000000000007
 30
0.0
 11
38.0
 21
51.000000000000007
 31
0.0
  0
LINE
  5
95
  8
1
 62
     7
 10
40.100000000000179
 20
51.000000000000007
 30
0.0
 11
41.300000000000132
 21
51.000000000000007
 31
0.0
  0
LINE
  5
96
  8
1
 62
     7
 10
41.300000000000132
 20
47.000000000000007
 30
0.0
 11
41.300000000000132
 21
53.650000000000013
 31
0.0
  0
LINE
  5
97
  8
1
 62
     7
 10
41.300000000000132
 20
47.000000000000007
 30
0.0
 11
42.800000000000132
 21
47.000000000000007
 31
0.0
  0
LINE
  5
98
  8
1
 62
     7
 10
41.300000000000132
 20
50.250000000000007
 30
0.0
 11
43.800000000000132
 21
50.250000000000007
 31
0.0
  0
LINE
  5
99
  8
1
 62
     7
 10
15.5
 20
-52.5
 30
0.0
 11
14.5
 21
-51.500000000000007
 31
0.0
  0
LINE
  5
9A
  8
1
 62
     7
 10
18.5
 20
-21.0
 30
0.0
 11
18.5
 21
-25.0
 31
0.0
  0
LINE
  5
9B
  8
1
 62
     7
 10
18.5
 20
-25.0
 30
0.0
 11
22.5
 21
-29.0
 31
0.0
  0
LINE
  5
9C
  8
1
 62
     7
 10
1.0
 20
-50.5
 30
0.0
 11
2.0
 21
-51.500000000000007
 31
0.0
  0
LINE
  5
9D
  8
1
 62
     7
 10
18.5
 20
-25.0
 30
0.0
 11
0.0
 21
-25.0
 31
0.0
  0
LINE
  5
9E
  8
1
 62
     7
 10
26.5
 20
-29.0
 30
0.0
 11
22.5
 21
-29.0
 31
0.0
  0
LINE
  5
9F
  8
1
 62
     7
 10
1.0
 20
-40.0
 30
0.0
 11
1.0
 21
-50.5
 31
0.0
  0
LINE
  5
A0
  8
1
 62
     7
 10
1.0
 20
-40.0
 30
0.0
 11
0.0
 21
-40.0
 31
0.0
  0
LINE
  5
A1
  8
1
 62
     7
 10
15.5
 20
-51.500000000000007
 30
0.0
 11
2.0
 21
-51.500000000000007
 31
0.0
  0
LINE
  5
A2
  8
1
 62
     7
 10
15.5
 20
-50.5
 30
0.0
 11
15.5
 21
-55.0
 31
0.0
  0
LINE
  5
A3
  8
1
 62
     7
 10
26.5
 20
-50.5
 30
0.0
 11
15.5
 21
-50.5
 31
0.0
  0
LINE
  5
A4
  8
1
 62
     7
 10
45.0
 20
-31.716254894180508
 30
0.0
 11
43.800000000000132
 21
-32.318704885592872
 31
0.0
  0
LINE
  5
A5
  8
1
 62
     7
 10
45.0
 20
-30.20965560813725
 30
0.0
 11
43.800000000000132
 21
-30.20965560813725
 31
0.0
  0
LINE
  5
A6
  8
1
 62
     7
 10
45.0
 20
-21.549401570292851
 30
0.0
 11
43.800000000000132
 21
-21.549401570292869
 31
0.0
  0
LINE
  5
A7
  8
1
 62
     7
 10
45.0
 20
-31.716254894180508
 30
0.0
 11
45.0
 21
-21.549401570292851
 31
0.0
  0
LINE
  5
A8
  8
1
 62
     7
 10
16.5
 20
-56.000000000000028
 30
0.0
 11
15.5
 21
-55.0
 31
0.0
  0
LINE
  5
A9
  8
1
 62
     7
 10
41.300000000000132
 20
-53.650000000000013
 30
0.0
 11
41.300000000000132
 21
-52.000000000000007
 31
0.0
  0
LINE
  5
AA
  8
1
 62
     7
 10
43.800000000000132
 20
-53.650000000000013
 30
0.0
 11
41.300000000000132
 21
-53.650000000000013
 31
0.0
  0
LINE
  5
AB
  8
1
 62
     7
 10
43.800000000000132
 20
-52.000000000000007
 30
0.0
 11
43.800000000000132
 21
-53.650000000000013
 31
0.0
  0
LINE
  5
AC
  8
1
 62
     3
 10
-238.38909499829359
 20
78.236583652963489
 30
0.0
 11
-238.38909499829359
 21
74.664727768080525
 31
0.0
  0
LINE
  5
AD
  8
1
 62
     3
 10
-238.69598564935259
 20
78.236583652963489
 30
0.0
 11
-238.69598564935259
 21
74.664727768080525
 31
0.0
  0
LINE
  5
AE
  8
1
 62
     3
 10
-239.6575763560036
 20
78.236583652963489
 30
0.0
 11
-239.6575763560036
 21
74.664727768080525
 31
0.0
  0
LINE
  5
AF
  8
1
 62
     3
 10
-239.3506857049446
 20
78.236583652963489
 30
0.0
 11
-239.3506857049446
 21
74.664727768080525
 31
0.0
  0
LINE
  5
B0
  8
1
 62
     3
 10
-239.04646678857549
 20
78.236583652963489
 30
0.0
 11
-239.04646678857549
 21
74.664727768080525
 31
0.0
  0
LINE
  5
B1
  8
1
 62
     3
 10
-237.38383857885731
 20
74.664727768080525
 30
0.0
 11
-237.38383857885731
 21
78.236583652963489
 31
0.0
  0
LINE
  5
B2
  8
1
 62
     3
 10
-237.07694792779839
 20
74.664727768080525
 30
0.0
 11
-237.07694792779839
 21
78.236583652963489
 31
0.0
  0
LINE
  5
B3
  8
1
 62
     3
 10
-236.11535722114729
 20
74.664727768080525
 30
0.0
 11
-236.11535722114729
 21
78.236583652963489
 31
0.0
  0
LINE
  5
B4
  8
1
 62
     3
 10
-236.42224787220641
 20
74.664727768080525
 30
0.0
 11
-236.42224787220641
 21
78.236583652963489
 31
0.0
  0
LINE
  5
B5
  8
1
 62
     3
 10
-236.72646678857549
 20
74.664727768080525
 30
0.0
 11
-236.72646678857549
 21
78.236583652963489
 31
0.0
  0
LINE
  5
B6
  8
1
 62
     7
 10
-240.20646678857551
 20
74.664727768080525
 30
0.0
 11
-235.5664667885755
 21
74.664727768080525
 31
0.0
  0
LINE
  5
B7
  8
1
 62
     7
 10
-237.88646678857549
 20
74.664727768080525
 30
0.0
 11
-237.88646678857549
 21
51.500000000000007
 31
0.0
  0
LINE
  5
B8
  8
1
 62
     3
 10
10.65737179028179
 20
78.236583652963489
 30
0.0
 11
10.65737179028179
 21
74.664727768080525
 31
0.0
  0
LINE
  5
B9
  8
1
 62
     3
 10
10.350481139222881
 20
78.236583652963489
 30
0.0
 11
10.350481139222881
 21
74.664727768080525
 31
0.0
  0
LINE
  5
BA
  8
1
 62
     3
 10
9.3888904325718272
 20
78.236583652963489
 30
0.0
 11
9.3888904325718272
 21
74.664727768080525
 31
0.0
  0
LINE
  5
BB
  8
1
 62
     3
 10
9.695781083630834
 20
78.236583652963489
 30
0.0
 11
9.695781083630834
 21
74.664727768080525
 31
0.0
  0
LINE
  5
BC
  8
1
 62
     3
 10
10.0
 20
78.236583652963489
 30
0.0
 11
10.0
 21
74.664727768080525
 31
0.0
  0
LINE
  5
BD
  8
1
 62
     7
 10
8.8400000000000336
 20
51.500000000000007
 30
0.0
 11
8.8400000000000336
 21
74.664727768080525
 31
0.0
  0
LINE
  5
BE
  8
1
 62
     7
 10
8.8400000000000336
 20
74.664727768080525
 30
0.0
 11
11.16000000000008
 21
74.664727768080525
 31
0.0
  0
LINE
  5
BF
  8
1
 62
     7
 10
14.5
 20
51.500000000000007
 30
0.0
 11
15.5
 21
52.5
 31
0.0
  0
LINE
  5
C0
  8
1
 62
     7
 10
22.5
 20
29.0
 30
0.0
 11
18.5
 21
25.0
 31
0.0
  0
LINE
  5
C1
  8
1
 62
     7
 10
2.0
 20
51.500000000000007
 30
0.0
 11
1.0
 21
50.5
 31
0.0
  0
LINE
  5
C2
  8
1
  6
DASHDOT
 62
     3
 10
-1.5195003448127979
 20
30.0
 30
0.0
 11
19.754816201949879
 21
30.0
 31
0.0
  0
LINE
  5
C3
  8
1
 62
     3
 10
13.03923048454141
 20
32.400000000000013
 30
0.0
 11
12.0
 21
33.0
 31
0.0
  0
LINE
  5
C4
  8
1
 62
     3
 10
13.03923048454141
 20
27.600000000000009
 30
0.0
 11
12.0
 21
27.0
 31
0.0
  0
LINE
  5
C5
  8
1
 62
     3
 10
0.0
 20
33.0
 30
0.0
 11
12.0
 21
33.0
 31
0.0
  0
LINE
  5
C6
  8
1
 62
     7
 10
12.0
 20
33.0
 30
0.0
 11
12.0
 21
27.0
 31
0.0
  0
LINE
  5
C7
  8
1
 62
     3
 10
12.0
 20
27.0
 30
0.0
 11
0.0
 21
27.0
 31
0.0
  0
LINE
  5
C8
  8
1
 62
     7
 10
16.800000000000129
 20
32.400000000000013
 30
0.0
 11
18.532050807569021
 21
30.0
 31
0.0
  0
LINE
  5
C9
  8
1
 62
     7
 10
18.532050807569021
 20
30.0
 30
0.0
 11
16.800000000000129
 21
27.600000000000009
 31
0.0
  0
LINE
  5
CA
  8
1
 62
     7
 10
0.0
 20
32.400000000000013
 30
0.0
 11
16.800000000000129
 21
32.400000000000013
 31
0.0
  0
LINE
  5
CB
  8
1
 62
     7
 10
16.800000000000129
 20
32.400000000000013
 30
0.0
 11
16.800000000000129
 21
27.600000000000009
 31
0.0
  0
LINE
  5
CC
  8
1
 62
     7
 10
16.800000000000129
 20
27.600000000000009
 30
0.0
 11
0.0
 21
27.600000000000009
 31
0.0
  0
LINE
  5
CD
  8
1
 62
     7
 10
0.0
 20
25.0
 30
0.0
 11
18.5
 21
25.0
 31
0.0
  0
LINE
  5
CE
  8
1
 62
     7
 10
22.5
 20
29.0
 30
0.0
 11
26.5
 21
29.0
 31
0.0
  0
LINE
  5
CF
  8
1
 62
     7
 10
0.0
 20
-40.0
 30
0.0
 11
0.0
 21
40.0
 31
0.0
  0
LINE
  5
D0
  8
1
 62
     7
 10
1.0
 20
50.5
 30
0.0
 11
1.0
 21
40.0
 31
0.0
  0
LINE
  5
D1
  8
1
 62
     7
 10
0.0
 20
40.0
 30
0.0
 11
1.0
 21
40.0
 31
0.0
  0
LINE
  5
D2
  8
1
 62
     7
 10
2.0
 20
51.500000000000007
 30
0.0
 11
15.5
 21
51.500000000000007
 31
0.0
  0
LINE
  5
D3
  8
1
 62
     7
 10
15.5
 20
55.0
 30
0.0
 11
15.5
 21
50.5
 31
0.0
  0
LINE
  5
D4
  8
1
 62
     7
 10
15.5
 20
50.5
 30
0.0
 11
26.5
 21
50.5
 31
0.0
  0
LINE
  5
D5
  8
1
 62
     7
 10
45.0
 20
31.716254894180508
 30
0.0
 11
43.800000000000132
 21
32.318704885592872
 31
0.0
  0
LINE
  5
D6
  8
1
 62
     7
 10
43.800000000000132
 20
30.20965560813725
 30
0.0
 11
45.0
 21
30.20965560813725
 31
0.0
  0
LINE
  5
D7
  8
1
 62
     7
 10
43.800000000000132
 20
21.549401570292869
 30
0.0
 11
45.0
 21
21.549401570292851
 31
0.0
  0
LINE
  5
D8
  8
1
 62
     7
 10
45.0
 20
21.549401570292851
 30
0.0
 11
45.0
 21
31.716254894180508
 31
0.0
  0
LINE
  5
D9
  8
1
 62
     7
 10
15.5
 20
55.0
 30
0.0
 11
16.5
 21
56.000000000000007
 31
0.0
  0
LINE
  5
DA
  8
1
 62
     7
 10
44.0
 20
56.000000000000007
 30
0.0
 11
45.0
 21
55.0
 31
0.0
  0
LINE
  5
DB
  8
1
 62
     3
 10
-3.3060314222901739
 20
0.0
 30
0.0
 11
0.0
 21
0.0
 31
0.0
  0
LINE
  5
DC
  8
1
 62
     7
 10
26.0
 20
50.5
 30
0.0
 11
26.0
 21
52.000000000000007
 31
0.0
  0
LINE
  5
DD
  8
1
 62
     7
 10
26.0
 20
52.000000000000007
 30
0.0
 11
41.300000000000132
 21
52.000000000000007
 31
0.0
  0
LINE
  5
DE
  8
1
 62
     7
 10
41.300000000000132
 20
53.650000000000013
 30
0.0
 11
43.800000000000132
 21
53.650000000000013
 31
0.0
  0
LINE
  5
DF
  8
1
 62
     7
 10
43.800000000000132
 20
52.000000000000007
 30
0.0
 11
45.0
 21
52.000000000000007
 31
0.0
  0
LINE
  5
E0
  8
1
 62
     7
 10
45.0
 20
52.000000000000007
 30
0.0
 11
45.0
 21
55.0
 31
0.0
  0
LINE
  5
E1
  8
1
 62
     7
 10
44.0
 20
56.000000000000007
 30
0.0
 11
16.5
 21
56.000000000000007
 31
0.0
  0
LINE
  5
E2
  8
1
 62
     7
 10
-240.20646678857551
 20
51.447717150520923
 30
0.0
 11
-240.20646678857551
 21
74.664727768080525
 31
0.0
  0
LINE
  5
E3
  8
1
 62
     7
 10
-241.88646678857549
 20
17.0
 30
0.0
 11
-233.88646678857549
 21
17.0
 31
0.0
  0
LINE
  5
E4
  8
1
 62
     7
 10
-233.88646678857549
 20
17.0
 30
0.0
 11
-233.88646678857549
 21
14.456832294800961
 31
0.0
  0
LINE
  5
E5
  8
1
 62
     7
 10
-241.88646678857549
 20
17.0
 30
0.0
 11
-241.88646678857549
 21
14.456832294800961
 31
0.0
  0
LINE
  5
E6
  8
1
  6
DASHDOT
 62
     3
 10
-228.06775441622531
 20
9.8187123723502214
 30
0.0
 11
-222.28592105639419
 21
15.600545732181301
 31
0.0
  0
LINE
  5
E7
  8
1
  6
DASHED
 62
     7
 10
-226.27237115719299
 20
9.4927752878228944
 30
0.0
 11
-222.0144933731971
 21
13.750653071818819
 31
0.0
  0
LINE
  5
E8
  8
1
  6
DASHDOT
 62
     3
 10
-247.70517916092581
 20
9.8187123723502037
 30
0.0
 11
-253.30318383411819
 21
15.416717045542651
 31
0.0
  0
LINE
  5
E9
  8
1
  6
DASHED
 62
     7
 10
-247.3792420763983
 20
11.614095631382501
 30
0.0
 11
-251.63711986039431
 21
15.871973415378459
 31
0.0
  0
LINE
  5
EA
  8
1
  6
DASHDOT
 62
     3
 10
-247.70517916092581
 20
-9.8187123723501752
 30
0.0
 11
-253.5369767291028
 21
-15.650509940527179
 31
0.0
  0
LINE
  5
EB
  8
1
  6
DASHED
 62
     7
 10
-249.5005624199579
 20
-9.4927752878228588
 30
0.0
 11
-253.758440203954
 21
-13.7506530718188
 31
0.0
  0
LINE
  5
EC
  8
1
  6
DASHDOT
 62
     3
 10
-228.06775441622531
 20
-9.8187123723502214
 30
0.0
 11
-222.18392971069571
 21
-15.70253707787964
 31
0.0
  0
LINE
  5
ED
  8
1
  6
DASHED
 62
     7
 10
-228.39369150075251
 20
-11.61409563138251
 30
0.0
 11
-224.1358137167567
 21
-15.87197341537841
 31
0.0
  0
LINE
  5
EE
  8
1
 62
     7
 10
9.0
 20
17.0
 30
0.0
 11
42.0
 21
17.0
 31
0.0
  0
LINE
  5
EF
  8
1
 62
     7
 10
23.0
 20
21.0
 30
0.0
 11
10.0
 21
21.0
 31
0.0
  0
LINE
  5
F0
  8
1
 62
     7
 10
23.0
 20
-21.0
 30
0.0
 11
10.0
 21
-21.0
 31
0.0
  0
LINE
  5
F1
  8
1
 62
     7
 10
9.0
 20
-20.0
 30
0.0
 11
9.0
 21
20.0
 31
0.0
  0
LINE
  5
F2
  8
1
 62
     7
 10
24.0
 20
26.599999999999991
 30
0.0
 11
41.0
 21
26.599999999999991
 31
0.0
  0
LINE
  5
F3
  8
1
 62
     7
 10
24.0
 20
-26.600000000000001
 30
0.0
 11
41.0
 21
-26.600000000000001
 31
0.0
  0
LINE
  5
F4
  8
1
 62
     7
 10
23.0
 20
21.0
 30
0.0
 11
23.0
 21
25.599999999999991
 31
0.0
  0
LINE
  5
F5
  8
1
 62
     7
 10
23.0
 20
-25.600000000000001
 30
0.0
 11
23.0
 21
-21.0
 31
0.0
  0
LINE
  5
F6
  8
1
 62
     7
 10
42.0
 20
-25.600000000000001
 30
0.0
 11
42.0
 21
25.599999999999991
 31
0.0
  0
LINE
  5
F7
  8
1
 62
     7
 10
18.5
 20
25.0
 30
0.0
 11
18.5
 21
21.0
 31
0.0
  0
LINE
  5
F8
  8
1
 62
     7
 10
9.0
 20
15.0
 30
0.0
 11
29.0
 21
15.0
 31
0.0
  0
LINE
  5
F9
  8
1
 62
     7
 10
9.0
 20
-15.0
 30
0.0
 11
29.0
 21
-15.0
 31
0.0
  0
LINE
  5
FA
  8
1
 62
     7
 10
35.0
 20
-15.5
 30
0.0
 11
35.0
 21
15.5
 31
0.0
  0
LINE
  5
FB
  8
1
 62
     7
 10
29.0
 20
15.5
 30
0.0
 11
29.0
 21
-15.5
 31
0.0
  0
LINE
  5
FC
  8
1
 62
     7
 10
29.0
 20
15.5
 30
0.0
 11
35.0
 21
15.5
 31
0.0
  0
LINE
  5
FD
  8
1
 62
     7
 10
29.0
 20
-15.5
 30
0.0
 11
35.0
 21
-15.5
 31
0.0
  0
LINE
  5
FE
  8
1
 62
     7
 10
10.0
 20
21.0
 30
0.0
 11
9.0
 21
20.0
 31
0.0
  0
LINE
  5
FF
  8
1
 62
     7
 10
24.0
 20
26.599999999999991
 30
0.0
 11
23.0
 21
25.599999999999991
 31
0.0
  0
LINE
  5
100
  8
1
 62
     7
 10
41.0
 20
26.599999999999991
 30
0.0
 11
42.0
 21
25.599999999999991
 31
0.0
  0
LINE
  5
101
  8
1
 62
     7
 10
41.0
 20
-26.600000000000001
 30
0.0
 11
42.0
 21
-25.600000000000001
 31
0.0
  0
LINE
  5
102
  8
1
 62
     7
 10
24.0
 20
-26.600000000000001
 30
0.0
 11
23.0
 21
-25.600000000000001
 31
0.0
  0
LINE
  5
103
  8
1
 62
     7
 10
10.0
 20
-21.0
 30
0.0
 11
9.0
 21
-20.0
 31
0.0
  0
LINE
  5
104
  8
1
 62
     7
 10
35.0
 20
15.0
 30
0.0
 11
42.0
 21
15.0
 31
0.0
  0
LINE
  5
105
  8
1
 62
     7
 10
35.0
 20
-15.0
 30
0.0
 11
42.0
 21
-15.0
 31
0.0
  0
LINE
  5
106
  8
1
 62
     7
 10
23.0
 20
23.0
 30
0.0
 11
42.0
 21
23.0
 31
0.0
  0
LINE
  5
107
  8
1
 62
     7
 10
23.0
 20
-23.0
 30
0.0
 11
42.0
 21
-23.0
 31
0.0
  0
LINE
  5
108
  8
1
  6
DASHDOT
 62
     3
 10
32.0
 20
-24.07666795816019
 30
0.0
 11
32.0
 21
-14.337547514975279
 31
0.0
  0
LINE
  5
109
  8
1
 62
     7
 10
30.5
 20
-23.0
 30
0.0
 11
30.5
 21
-15.5
 31
0.0
  0
LINE
  5
10A
  8
1
 62
     7
 10
33.5
 20
-23.0
 30
0.0
 11
33.5
 21
-15.5
 31
0.0
  0
LINE
  5
10B
  8
1
  6
DASHED
 62
     7
 10
36.800000000000132
 20
-56.000000000000028
 30
0.0
 11
36.800000000000132
 21
-52.000000000000007
 31
0.0
  0
LINE
  5
10C
  8
1
 62
     7
 10
38.0
 20
-50.999999999999993
 30
0.0
 11
38.0
 21
-50.0
 31
0.0
  0
LINE
  5
10D
  8
1
 62
     7
 10
40.100000000000179
 20
-50.999999999999993
 30
0.0
 11
40.100000000000179
 21
-50.0
 31
0.0
  0
LINE
  5
10E
  8
1
 62
     7
 10
40.100000000000179
 20
-50.0
 30
0.0
 11
38.0
 21
-50.0
 31
0.0
  0
LINE
  5
10F
  8
1
 62
     7
 10
38.0
 20
-50.999999999999993
 30
0.0
 11
36.800000000000132
 21
-50.999999999999993
 31
0.0
  0
LINE
  5
110
  8
1
 62
     7
 10
41.300000000000132
 20
-50.999999999999993
 30
0.0
 11
40.100000000000179
 21
-50.999999999999993
 31
0.0
  0
LINE
  5
111
  8
1
 62
     7
 10
41.300000000000132
 20
-53.650000000000013
 30
0.0
 11
41.300000000000132
 21
-46.999999999999993
 31
0.0
  0
LINE
  5
112
  8
1
 62
     7
 10
42.800000000000132
 20
-46.999999999999993
 30
0.0
 11
41.300000000000132
 21
-46.999999999999993
 31
0.0
  0
LINE
  5
113
  8
1
 62
     7
 10
43.800000000000132
 20
-50.249999999999993
 30
0.0
 11
41.300000000000132
 21
-50.249999999999993
 31
0.0
  0
LINE
  5
114
  8
1
 62
     7
 10
42.800000000000132
 20
-46.999999999999993
 30
0.0
 11
42.800000000000132
 21
47.000000000000007
 31
0.0
  0
LINE
  5
115
  8
1
 62
     7
 10
36.800000000000132
 20
28.5
 30
0.0
 11
41.800000000000132
 21
28.5
 31
0.0
  0
LINE
  5
116
  8
1
 62
     7
 10
42.800000000000132
 20
29.5
 30
0.0
 11
41.800000000000132
 21
28.5
 31
0.0
  0
LINE
  5
117
  8
1
  6
DASHED
 62
     7
 10
36.800000000000132
 20
56.000000000000007
 30
0.0
 11
36.800000000000132
 21
52.000000000000007
 31
0.0
  0
LINE
  5
118
  8
1
 62
     7
 10
41.800000000000132
 20
-28.5
 30
0.0
 11
42.800000000000132
 21
-29.5
 31
0.0
  0
LINE
  5
119
  8
1
 62
     7
 10
41.800000000000132
 20
-28.5
 30
0.0
 11
36.800000000000132
 21
-28.5
 31
0.0
  0
LINE
  5
11A
  8
1
 62
     7
 10
26.5
 20
23.0
 30
0.0
 11
26.5
 21
52.000000000000007
 31
0.0
  0
LINE
  5
11B
  8
1
 62
     7
 10
26.5
 20
45.0
 30
0.0
 11
36.800000000000132
 21
45.0
 31
0.0
  0
LINE
  5
11C
  8
1
 62
     7
 10
26.5
 20
38.0
 30
0.0
 11
36.800000000000132
 21
38.0
 31
0.0
  0
LINE
  5
11D
  8
1
 62
     3
 10
36.800000000000132
 20
23.0
 30
0.0
 11
26.5
 21
56.000000000000007
 31
0.0
  0
LINE
  5
11E
  8
1
 62
     3
 10
26.5
 20
23.0
 30
0.0
 11
36.800000000000132
 21
56.000000000000007
 31
0.0
  0
LINE
  5
11F
  8
1
 62
     3
 10
26.5
 20
-56.000000000000028
 30
0.0
 11
36.800000000000132
 21
-23.0
 31
0.0
  0
LINE
  5
120
  8
1
 62
     3
 10
36.800000000000132
 20
-56.000000000000028
 30
0.0
 11
26.5
 21
-23.000000000000011
 31
0.0
  0
LINE
  5
121
  8
1
 62
     7
 10
36.800000000000132
 20
-45.0
 30
0.0
 11
26.5
 21
-45.0
 31
0.0
  0
LINE
  5
122
  8
1
 62
     7
 10
36.800000000000132
 20
-38.0
 30
0.0
 11
26.5
 21
-38.0
 31
0.0
  0
LINE
  5
123
  8
1
 62
     7
 10
26.5
 20
-23.000000000000011
 30
0.0
 11
26.5
 21
-52.000000000000028
 31
0.0
  0
LINE
  5
124
  8
1
 62
     7
 10
26.0
 20
-50.5
 30
0.0
 11
26.0
 21
-52.000000000000028
 31
0.0
  0
LINE
  5
125
  8
1
 62
     7
 10
-70.563444921371882
 20
51.000000000000007
 30
0.0
 11
-69.313444921371882
 21
51.000000000000007
 31
0.0
  0
LINE
  5
126
  8
1
 62
     7
 10
-73.813444921371882
 20
51.000000000000007
 30
0.0
 11
-72.563444921371882
 21
51.000000000000007
 31
0.0
  0
LINE
  5
127
  8
1
 62
     7
 10
-70.563444921371882
 20
51.000000000000007
 30
0.0
 11
-70.563444921371882
 21
32.218296553690848
 31
0.0
  0
LINE
  5
128
  8
1
 62
     7
 10
-72.563444921371882
 20
51.000000000000007
 30
0.0
 11
-72.563444921371882
 21
32.218296553690848
 31
0.0
  0
LINE
  5
129
  8
1
 62
     7
 10
-70.563444921371882
 20
21.549401570292851
 30
0.0
 11
-70.563444921371882
 21
-21.54940157029284
 31
0.0
  0
LINE
  5
12A
  8
1
 62
     7
 10
-72.563444921371882
 20
21.549401570292851
 30
0.0
 11
-72.563444921371882
 21
-21.549401570292851
 31
0.0
  0
LINE
  5
12B
  8
1
 62
     7
 10
-70.563444921371882
 20
-50.999999999999993
 30
0.0
 11
-69.313444921371882
 21
-50.999999999999993
 31
0.0
  0
LINE
  5
12C
  8
1
 62
     7
 10
-73.813444921371882
 20
-50.999999999999993
 30
0.0
 11
-72.563444921371882
 21
-50.999999999999993
 31
0.0
  0
LINE
  5
12D
  8
1
 62
     7
 10
-70.563444921371882
 20
-50.999999999999993
 30
0.0
 11
-70.563444921371882
 21
-32.218296553690848
 31
0.0
  0
LINE
  5
12E
  8
1
 62
     7
 10
-72.563444921371882
 20
-32.218296553690848
 30
0.0
 11
-72.563444921371882
 21
-50.999999999999993
 31
0.0
  0
LINE
  5
12F
  8
1
 62
     7
 10
-69.313444921371882
 20
-52.000000000000007
 30
0.0
 11
-73.813444921371882
 21
-52.000000000000007
 31
0.0
  0
LINE
  5
130
  8
1
 62
     7
 10
-66.813444921371882
 20
53.650000000000013
 30
0.0
 11
-66.813444921371882
 21
23.558042515846459
 31
0.0
  0
LINE
  5
131
  8
1
 62
     7
 10
-66.813444921371882
 20
-23.558042515846459
 30
0.0
 11
-66.813444921371882
 21
-53.650000000000013
 31
0.0
  0
LINE
  5
132
  8
1
 62
     7
 10
-84.613444921371766
 20
-52.000000000000028
 30
0.0
 11
-84.11344492137178
 21
-52.000000000000028
 31
0.0
  0
LINE
  5
133
  8
1
 62
     7
 10
16.5
 20
-56.000000000000028
 30
0.0
 11
44.0
 21
-56.000000000000007
 31
0.0
  0
LINE
  5
134
  8
1
 62
     7
 10
45.0
 20
-55.0
 30
0.0
 11
44.0
 21
-56.000000000000007
 31
0.0
  0
LINE
  5
135
  8
1
 62
     7
 10
43.800000000000132
 20
-53.650000000000013
 30
0.0
 11
43.800000000000132
 21
53.650000000000013
 31
0.0
  0
LINE
  5
136
  8
1
 62
     7
 10
45.0
 20
-52.000000000000007
 30
0.0
 11
43.800000000000132
 21
-52.000000000000007
 31
0.0
  0
LINE
  5
137
  8
1
 62
     7
 10
45.0
 20
-55.0
 30
0.0
 11
45.0
 21
-52.000000000000007
 31
0.0
  0
LINE
  5
138
  8
1
 62
     7
 10
41.300000000000132
 20
-52.000000000000007
 30
0.0
 11
26.0
 21
-52.000000000000028
 31
0.0
  0
LINE
  5
139
  8
1
 62
     7
 10
36.800000000000132
 20
-52.000000000000007
 30
0.0
 11
36.800000000000132
 21
-23.0
 31
0.0
  0
LINE
  5
13A
  8
1
  6
DASHED
 62
     7
 10
26.5
 20
-52.000000000000028
 30
0.0
 11
26.5
 21
-56.000000000000028
 31
0.0
  0
LINE
  5
13B
  8
1
 62
     7
 10
36.800000000000132
 20
52.000000000000007
 30
0.0
 11
36.800000000000132
 21
23.0
 31
0.0
  0
LINE
  5
13C
  8
1
  6
DASHED
 62
     7
 10
26.5
 20
52.000000000000007
 30
0.0
 11
26.5
 21
56.000000000000007
 31
0.0
  0
ARC
  5
13D
  8
1
  6
DASHDOT
 62
     3
 10
-237.88646678857549
 20
0.0
 30
0.0
 40
29.99999999999994
 50
170.17884012098571
 51
189.4886896858219
  0
ARC
  5
13E
  8
1
  6
DASHDOT
 62
     3
 10
-237.88646678857549
 20
0.0
 30
0.0
 40
29.999999999999979
 50
261.37180339251557
 51
278.59540160446301
  0
ARC
  5
13F
  8
1
  6
DASHDOT
 62
     3
 10
-237.88646678857549
 20
0.0
 30
0.0
 40
29.999999999999918
 50
352.12664806678657
 51
7.8575845013004271
  0
ARC
  5
140
  8
1
  6
DASHDOT
 62
     3
 10
-237.88646678857549
 20
0.0
 30
0.0
 40
29.999999999999979
 50
80.423068096027578
 51
100.52106283443889
  0
ARC
  5
141
  8
1
 62
     7
 10
-237.88646678857549
 20
0.0
 30
0.0
 40
55.000000000000028
 50
92.417557444758714
 51
87.582442555241315
  0
ARC
  5
142
  8
1
 62
     7
 10
-237.88646678857549
 20
0.0
 30
0.0
 40
55.999999999999993
 50
92.374361821391275
 51
87.625638178608739
  0
ARC
  5
143
  8
1
 62
     7
 10
-237.88646678857549
 20
0.0
 30
0.0
 40
15.0
 50
105.4660099534206
 51
74.533990046579461
  0
ARC
  5
144
  8
1
 62
     7
 10
-71.563444921371882
 20
51.000000000000007
 30
0.0
 40
1.0
 50
0.0
 51
180.0
  0
ARC
  5
145
  8
1
 62
     7
 10
-71.563444921371882
 20
-50.999999999999993
 30
0.0
 40
1.0
 50
180.0
 51
0.0
  0
CIRCLE
  5
146
  8
1
 62
     7
 10
-237.88646678857549
 20
0.0
 30
0.0
 40
51.5
  0
CIRCLE
  5
147
  8
1
 62
     7
 10
-237.88646678857549
 20
0.0
 30
0.0
 40
25.0
  0
CIRCLE
  5
148
  8
1
 62
     7
 10
-237.88646678857549
 20
0.0
 30
0.0
 40
50.5
  0
CIRCLE
  5
149
  8
1
 62
     7
 10
-237.88646678857549
 20
0.0
 30
0.0
 40
40.0
  0
CIRCLE
  5
14A
  8
1
 62
     7
 10
39.050000000000132
 20
51.000000000000007
 30
0.0
 40
1.0
  0
CIRCLE
  5
14B
  8
1
 62
     3
 10
-207.88646678857569
 20
0.0000000000000426
 30
0.0
 40
3.0
  0
CIRCLE
  5
14C
  8
1
 62
     7
 10
-207.88646678857569
 20
0.0000000000000426
 30
0.0
 40
2.3999999999999768
  0
CIRCLE
  5
14D
  8
1
 62
     3
 10
-237.88646678857549
 20
-30.000000000000028
 30
0.0
 40
3.0
  0
CIRCLE
  5
14E
  8
1
 62
     7
 10
-237.88646678857549
 20
-30.000000000000028
 30
0.0
 40
2.3999999999999768
  0
CIRCLE
  5
14F
  8
1
 62
     3
 10
-237.88646678857549
 20
29.999999999999979
 30
0.0
 40
3.0
  0
CIRCLE
  5
150
  8
1
 62
     7
 10
-237.88646678857549
 20
29.999999999999979
 30
0.0
 40
2.3999999999998911
  0
CIRCLE
  5
151
  8
1
 62
     7
 10
-237.88646678857549
 20
0.0
 30
0.0
 40
21.0
  0
CIRCLE
  5
152
  8
1
 62
     3
 10
-267.88646678857572
 20
0.0000000000000426
 30
0.0
 40
3.0
  0
CIRCLE
  5
153
  8
1
 62
     7
 10
-267.88646678857572
 20
0.0000000000000426
 30
0.0
 40
2.4000000000000341
  0
CIRCLE
  5
154
  8
1
 62
     7
 10
39.050000000000132
 20
-50.999999999999993
 30
0.0
 40
1.0
  0
TEXT
  5
156
  8
1
 62
     7
 10
-250.4537403652169
 20
109.14581312174241
 30
0.0
 40
5.0
  1
MWB 5
 41
0.9
  7
SIMPLEX
  0
INSERT
  5
157
  8
0
  2
_X1
 10
0.0
 20
0.0
 30
0.0
  0
INSERT
  5
158
  8
0
  2
_X0
 10
0.0
 20
0.0
 30
0.0
  0
ENDSEC
  0
EOF
