  0
SECTION
  2
HEADER
  9
$ACADVER
  1
AC1009
  9
$INSBASE
 10
0.0
 20
0.0
 30
0.0
  9
$EXTMIN
 10
-626.28574716928165
 20
4.9109444577869823
 30
0.0
  9
$EXTMAX
 10
-259.31113597572312
 20
139.748218256397
 30
0.0
  9
$LIMMIN
 10
-626.28574716928165
 20
7.225004833468355
  9
$LIMMAX
 10
-259.31113597572312
 20
139.748218256397
  9
$ORTHOMODE
 70
     0
  9
$REGENMODE
 70
     1
  9
$FILLMODE
 70
     1
  9
$QTEXTMODE
 70
     0
  9
$MIRRTEXT
 70
     1
  9
$DRAGMODE
 70
     2
  9
$LTSCALE
 40
1.0
  9
$OSMODE
 70
    37
  9
$ATTMODE
 70
     1
  9
$TEXTSIZE
 40
3.5
  9
$TRACEWID
 40
0.5
  9
$TEXTSTYLE
  7
STANDARD
  9
$CLAYER
  8
0
  9
$CELTYPE
  6
BYLAYER
  9
$CECOLOR
 62
   256
  9
$DIMSCALE
 40
1.0
  9
$DIMASZ
 40
0.18
  9
$DIMEXO
 40
0.0625
  9
$DIMDLI
 40
0.38
  9
$DIMRND
 40
0.0
  9
$DIMDLE
 40
0.0
  9
$DIMEXE
 40
0.18
  9
$DIMTP
 40
0.0
  9
$DIMTM
 40
0.0
  9
$DIMTXT
 40
0.18
  9
$DIMCEN
 40
0.09
  9
$DIMTSZ
 40
0.0
  9
$DIMTOL
 70
     0
  9
$DIMLIM
 70
     0
  9
$DIMTIH
 70
     1
  9
$DIMTOH
 70
     1
  9
$DIMSE1
 70
     0
  9
$DIMSE2
 70
     0
  9
$DIMTAD
 70
     0
  9
$DIMZIN
 70
     0
  9
$DIMBLK
  1

  9
$DIMASO
 70
     1
  9
$DIMSHO
 70
     1
  9
$DIMPOST
  1

  9
$DIMAPOST
  1

  9
$DIMALT
 70
     0
  9
$DIMALTD
 70
     2
  9
$DIMALTF
 40
25.399999999999999
  9
$DIMLFAC
 40
1.0
  9
$DIMTOFL
 70
     0
  9
$DIMTVP
 40
0.0
  9
$DIMTIX
 70
     0
  9
$DIMSOXD
 70
     0
  9
$DIMSAH
 70
     0
  9
$DIMBLK1
  1

  9
$DIMBLK2
  1

  9
$DIMSTYLE
  2
STANDARD
  9
$DIMCLRD
 70
     0
  9
$DIMCLRE
 70
     0
  9
$DIMCLRT
 70
     0
  9
$DIMTFAC
 40
1.0
  9
$DIMGAP
 40
0.09
  9
$LUNITS
 70
     2
  9
$LUPREC
 70
     4
  9
$SKETCHINC
 40
0.1
  9
$FILLETRAD
 40
2.0
  9
$AUNITS
 70
     0
  9
$AUPREC
 70
     0
  9
$MENU
  1
ACAD
  9
$ELEVATION
 40
0.0
  9
$PELEVATION
 40
0.0
  9
$THICKNESS
 40
0.0
  9
$LIMCHECK
 70
     0
  9
$BLIPMODE
 70
     0
  9
$CHAMFERA
 40
0.0
  9
$CHAMFERB
 40
0.0
  9
$SKPOLY
 70
     0
  9
$TDCREATE
 40
2452095.0318605318
  9
$TDUPDATE
 40
2452095.0326557872
  9
$TDINDWG
 40
0.0009453704
  9
$TDUSRTIMER
 40
0.0009453704
  9
$USRTIMER
 70
     1
  9
$ANGBASE
 50
0.0
  9
$ANGDIR
 70
     0
  9
$PDMODE
 70
     0
  9
$PDSIZE
 40
0.0
  9
$PLINEWID
 40
0.0
  9
$COORDS
 70
     1
  9
$SPLFRAME
 70
     0
  9
$SPLINETYPE
 70
     6
  9
$SPLINESEGS
 70
     8
  9
$ATTDIA
 70
     0
  9
$ATTREQ
 70
     1
  9
$HANDLING
 70
 10241
  9
$HANDSEED
  5
18C
  9
$SURFTAB1
 70
     6
  9
$SURFTAB2
 70
     6
  9
$SURFTYPE
 70
     6
  9
$SURFU
 70
     6
  9
$SURFV
 70
     6
  9
$UCSNAME
  2

  9
$UCSORG
 10
0.0
 20
0.0
 30
0.0
  9
$UCSXDIR
 10
1.0
 20
0.0
 30
0.0
  9
$UCSYDIR
 10
0.0
 20
1.0
 30
0.0
  9
$PUCSNAME
  2

  9
$PUCSORG
 10
0.0
 20
0.0
 30
0.0
  9
$PUCSXDIR
 10
1.0
 20
0.0
 30
0.0
  9
$PUCSYDIR
 10
0.0
 20
1.0
 30
0.0
  9
$USERI1
 70
     0
  9
$USERI2
 70
     0
  9
$USERI3
 70
     0
  9
$USERI4
 70
     0
  9
$USERI5
 70
     0
  9
$USERR1
 40
0.0
  9
$USERR2
 40
0.0
  9
$USERR3
 40
0.0
  9
$USERR4
 40
0.0
  9
$USERR5
 40
0.0
  9
$WORLDVIEW
 70
     1
  9
$SHADEDGE
 70
     3
  9
$SHADEDIF
 70
    70
  9
$TILEMODE
 70
     1
  9
$MAXACTVP
 70
    64
  9
$PLIMCHECK
 70
     0
  9
$PEXTMIN
 10
1.0000000000000000E+020
 20
1.0000000000000000E+020
 30
1.0000000000000000E+020
  9
$PEXTMAX
 10
-1.0000000000000000E+020
 20
-1.0000000000000000E+020
 30
-1.0000000000000000E+020
  9
$PLIMMIN
 10
0.0
 20
0.0
  9
$PLIMMAX
 10
12.0
 20
9.0
  9
$UNITMODE
 70
     0
  9
$VISRETAIN
 70
     1
  9
$PLINEGEN
 70
     0
  9
$PSLTSCALE
 70
     1
  0
ENDSEC
  0
SECTION
  2
TABLES
  0
TABLE
  2
VPORT
 70
     2
  0
VPORT
  2
*ACTIVE
 70
     0
 10
0.0
 20
0.0
 11
1.0
 21
1.0
 12
-615.66367178007624
 22
135.4903702849974
 13
0.0
 23
0.0
 14
1.0
 24
1.0
 15
0.0
 25
0.0
 16
0.0
 26
0.0
 36
1.0
 17
0.0
 27
0.0
 37
0.0
 40
9.0000000077731102
 41
2.4144144144144142
 42
50.0
 43
0.0
 44
0.0
 50
0.0
 51
0.0
 71
     0
 72
   100
 73
     1
 74
     1
 75
     0
 76
     0
 77
     0
 78
     0
  0
ENDTAB
  0
TABLE
  2
LTYPE
 70
     9
  0
LTYPE
  2
CONTINUOUS
 70
     0
  3
Solid line
 72
    65
 73
     0
 40
0.0
  0
LTYPE
  2
BORDER
 70
     0
  3
__ __ . __ __ .
 72
    65
 73
     6
 40
16.900146568124409
 49
4.8286133051784024
 49
-2.4143066525892012
 49
4.8286133051784024
 49
-2.4143066525892012
 49
0.0
 49
-2.4143066525892012
  0
LTYPE
  2
CENTER
 70
     0
  3
____ _ ____ _
 72
    65
 73
     4
 40
19.314453220713599
 49
12.07153326294601
 49
-2.4143066525892012
 49
2.4143066525892012
 49
-2.4143066525892012
  0
LTYPE
  2
DASHDOT
 70
     0
  3
__ . __ . __ .
 72
    65
 73
     4
 40
9.6572266103568047
 49
4.8286133051784024
 49
-2.4143066525892012
 49
0.0
 49
-2.4143066525892012
  0
LTYPE
  2
DASHED
 70
     0
  3
__ __ __ __ __
 72
    65
 73
     2
 40
7.2429199577676027
 49
4.8286133051784024
 49
-2.4143066525892012
  0
LTYPE
  2
DIVIDE
 70
     0
  3
__ . . __ . . 
 72
    65
 73
     6
 40
12.07153326294601
 49
4.8286133051784024
 49
-2.4143066525892012
 49
0.0
 49
-2.4143066525892012
 49
0.0
 49
-2.4143066525892012
  0
LTYPE
  2
DOT
 70
     0
  3
..............
 72
    65
 73
     4
 40
4.8286133051784024
 49
0.0
 49
-2.4143066525892012
 49
0.0
 49
-2.4143066525892012
  0
LTYPE
  2
HIDDEN
 70
     0
  3
_ _ _ _ _ _ _
 72
    65
 73
     2
 40
3.6214599788838009
 49
2.4143066525892012
 49
-1.2071533262945999
  0
LTYPE
  2
PHANTOM
 70
     0
  3
_____ _ _ _____ _ _ 
 72
    65
 73
     6
 40
24.14306652589201
 49
12.07153326294601
 49
-2.4143066525892012
 49
2.4143066525892012
 49
-2.4143066525892012
 49
2.4143066525892012
 49
-2.4143066525892012
  0
ENDTAB
  0
TABLE
  2
LAYER
 70
     2
  0
LAYER
  2
0
 70
     0
 62
     7
  6
CONTINUOUS
  0
LAYER
  2
1
 70
     0
 62
     7
  6
CONTINUOUS
  0
ENDTAB
  0
TABLE
  2
STYLE
 70
     4
  0
STYLE
  2
STANDARD
 70
     0
 40
0.0
 41
1.0
 50
0.0
 71
     0
 42
3.5
  3
txt
  4

  0
STYLE
  2
SIMPLEX
 70
     0
 40
0.0
 41
1.0
 50
0.0
 71
     0
 42
3.5
  3
simplex
  4

  0
STYLE
  2
COMPLEX
 70
     0
 40
0.0
 41
1.0
 50
0.0
 71
     0
 42
3.5
  3
complex
  4

  0
STYLE
  2
ITALIC
 70
     0
 40
0.0
 41
1.0
 50
0.0
 71
     0
 42
3.5
  3
italic
  4

  0
ENDTAB
  0
TABLE
  2
VIEW
 70
     0
  0
ENDTAB
  0
TABLE
  2
UCS
 70
     0
  0
ENDTAB
  0
TABLE
  2
APPID
 70
     1
  0
APPID
  2
ACAD
 70
     0
  0
ENDTAB
  0
TABLE
  2
DIMSTYLE
 70
     1
  0
DIMSTYLE
  2
STANDARD
 70
     0
  3

  4

  5

  6

  7

 40
1.0
 41
0.18
 42
0.0625
 43
0.38
 44
0.18
 45
0.0
 46
0.0
 47
0.0
 48
0.0
140
0.18
141
0.09
142
0.0
143
25.399999999999999
144
1.0
145
0.0
146
1.0
147
0.09
 71
     0
 72
     0
 73
     1
 74
     1
 75
     0
 76
     0
 77
     0
 78
     0
170
     0
171
     2
172
     0
173
     0
174
     0
175
     0
176
     0
177
     0
178
     0
  0
ENDTAB
  0
ENDSEC
  0
SECTION
  2
BLOCKS
  0
BLOCK
  8
0
  2
$MODEL_SPACE
 70
     0
 10
0.0
 20
0.0
 30
0.0
  3
$MODEL_SPACE
  1

  0
ENDBLK
  5
20
  8
0
  0
BLOCK
 67
     1
  8
0
  2
$PAPER_SPACE
 70
     0
 10
0.0
 20
0.0
 30
0.0
  3
$PAPER_SPACE
  1

  0
ENDBLK
  5
1C
 67
     1
  8
0
  0
ENDSEC
  0
SECTION
  2
ENTITIES
  0
LINE
  5
33
  8
1
  6
DASHDOT
 62
     3
 10
-508.48960992296497
 20
94.769784172661915
 30
0.0
 11
-504.12759553447569
 21
94.769784172661915
 31
0.0
  0
LINE
  5
34
  8
1
 62
     7
 10
-580.28574716928176
 20
79.2697841726619
 30
0.0
 11
-580.28574716928176
 21
98.769784172661915
 31
0.0
  0
LINE
  5
35
  8
1
 62
     7
 10
-592.28574716928165
 20
79.2697841726619
 30
0.0
 11
-592.28574716928165
 21
98.769784172661915
 31
0.0
  0
LINE
  5
36
  8
1
 62
     7
 10
-550.68887231461713
 20
63.7028472987949
 30
0.0
 11
-549.81837129005351
 21
64.205431299656652
 31
0.0
  0
LINE
  5
37
  8
1
 62
     7
 10
-554.68887231461713
 20
24.908517816253362
 30
0.0
 11
-553.81837129005351
 21
24.40593381539178
 31
0.0
  0
LINE
  5
38
  8
1
 62
     7
 10
-590.28574716928176
 20
8.9754546901202961
 30
0.0
 11
-590.28574716928176
 21
7.9702866883971151
 31
0.0
  0
LINE
  5
39
  8
1
 62
     7
 10
-621.8826220239464
 20
31.836721046528918
 30
0.0
 11
-622.75312304850991
 21
31.334137045667202
 31
0.0
  0
LINE
  5
3A
  8
1
 62
     7
 10
-617.88262202394628
 20
70.631050529070507
 30
0.0
 11
-618.75312304851002
 21
71.133634529932053
 31
0.0
  0
LINE
  5
3B
  8
1
 62
     7
 10
-554.68887231461713
 20
70.631050529070421
 30
0.0
 11
-553.81837129005362
 21
71.13363452993201
 31
0.0
  0
LINE
  5
3C
  8
1
 62
     7
 10
-550.68887231461713
 20
31.836721046528869
 30
0.0
 11
-549.81837129005351
 21
31.33413704566728
 31
0.0
  0
LINE
  5
3D
  8
1
 62
     7
 10
-582.28574716928176
 20
8.9754546901202925
 30
0.0
 11
-582.28574716928176
 21
7.9702866883971302
 31
0.0
  0
LINE
  5
3E
  8
1
 62
     7
 10
-617.8826220239464
 20
24.908517816253411
 30
0.0
 11
-618.75312304851002
 21
24.405933815391819
 31
0.0
  0
LINE
  5
3F
  8
1
 62
     7
 10
-621.88262202394628
 20
63.702847298795
 30
0.0
 11
-622.75312304850991
 21
64.205431299656581
 31
0.0
  0
LINE
  5
40
  8
1
  6
DASHDOT
 62
     3
 10
-586.28574716928176
 20
43.927792294845283
 30
0.0
 11
-586.28574716928176
 21
51.611776050478497
 31
0.0
  0
LINE
  5
41
  8
1
  6
DASHDOT
 62
     3
 10
-582.44375529146521
 20
47.769784172661893
 30
0.0
 11
-590.12773904709843
 21
47.769784172661893
 31
0.0
  0
LINE
  5
42
  8
1
 62
     7
 10
-578.19136129683375
 20
86.942235172668433
 30
0.0
 11
-573.31270593289082
 21
105.1496248635215
 31
0.0
  0
LINE
  5
43
  8
1
  6
DASHDOT
 62
     3
 10
-586.28574716928176
 20
91.038528719781226
 30
0.0
 11
-586.28574716928176
 21
98.501039625542575
 31
0.0
  0
LINE
  5
44
  8
1
  6
DASHDOT
 62
     3
 10
-582.55449171640112
 20
94.769784172661915
 30
0.0
 11
-590.01700262216241
 21
94.769784172661915
 31
0.0
  0
LINE
  5
45
  8
1
 62
     7
 10
-570.21739593022971
 20
109.4966199500349
 30
0.0
 11
-571.51149115574231
 21
104.6669908185897
 31
0.0
  0
LINE
  5
46
  8
1
 62
     7
 10
-570.60934336555329
 20
109.60164194880539
 30
0.0
 11
-571.90343859106588
 21
104.77201281736011
 31
0.0
  0
LINE
  5
47
  8
1
 62
     7
 10
-571.51572180973926
 20
109.844505320962
 30
0.0
 11
-572.80981703525185
 21
105.0148761895167
 31
0.0
  0
LINE
  5
48
  8
1
 62
     7
 10
-571.14827108912323
 20
109.74604719711461
 30
0.0
 11
-572.44236631463582
 21
104.9164180656694
 31
0.0
  0
LINE
  5
49
  8
1
 62
     7
 10
-570.89813674888296
 20
109.679023902648
 30
0.0
 11
-572.19223197439555
 21
104.8493947712026
 31
0.0
  0
LINE
  5
4A
  8
1
 62
     7
 10
-573.23870219453829
 20
96.462018907041511
 30
0.0
 11
-571.07175801590029
 21
104.5491646788837
 31
0.0
  0
LINE
  5
4B
  8
1
 62
     7
 10
-567.97644801323918
 20
108.8961597653971
 30
0.0
 11
-569.27054323875166
 21
104.0665306339517
 31
0.0
  0
LINE
  5
4C
  8
1
 62
     7
 10
-568.36839544856275
 20
109.0011817641675
 30
0.0
 11
-569.66249067407523
 21
104.1715526327222
 31
0.0
  0
LINE
  5
4D
  8
1
 62
     7
 10
-569.27477389274861
 20
109.2440451363241
 30
0.0
 11
-570.56886911826109
 21
104.4144160048787
 31
0.0
  0
LINE
  5
4E
  8
1
 62
     7
 10
-568.90732317213269
 20
109.1455870124768
 30
0.0
 11
-570.20141839764517
 21
104.31595788103149
 31
0.0
  0
LINE
  5
4F
  8
1
 62
     7
 10
-568.6571888318922
 20
109.0785637180102
 30
0.0
 11
-569.95128405740479
 21
104.2489345865647
 31
0.0
  0
LINE
  5
50
  8
1
 62
     7
 10
-573.31270593289082
 20
105.1496248635215
 30
0.0
 11
-568.83081009890964
 21
103.9487044942459
 31
0.0
  0
LINE
  5
51
  8
1
 62
     7
 10
-575.93298536518103
 20
86.406817224224625
 30
0.0
 11
-571.07175801590029
 21
104.5491646788837
 31
0.0
  0
LINE
  5
52
  8
1
 62
     7
 10
-573.70946546285245
 20
85.741314803392726
 30
0.0
 11
-568.83081009890964
 21
103.9487044942459
 31
0.0
  0
LINE
  5
53
  8
1
 62
     7
 10
-590.28574716928176
 20
100.7697841726619
 30
0.0
 11
-582.28574716928176
 21
100.7697841726619
 31
0.0
  0
LINE
  5
54
  8
1
 62
     7
 10
-589.28574716928165
 20
59.469784172661903
 30
0.0
 11
-583.28574716928165
 21
59.469784172661903
 31
0.0
  0
LINE
  5
55
  8
1
 62
     7
 10
-589.28574716928165
 20
57.309176186831358
 30
0.0
 11
-589.28574716928165
 21
59.469784172661903
 31
0.0
  0
LINE
  5
56
  8
1
 62
     7
 10
-583.28574716928165
 20
57.309176186831358
 30
0.0
 11
-583.28574716928165
 21
59.469784172661903
 31
0.0
  0
LINE
  5
57
  8
1
  6
DASHDOT
 62
     3
 10
-268.23482597187171
 20
29.827868226517982
 30
0.0
 11
-264.1983270771471
 21
27.497394503065092
 31
0.0
  0
LINE
  5
58
  8
1
  6
DASHDOT
 62
     3
 10
-299.31113597572312
 20
11.88595228037412
 30
0.0
 11
-299.31113597572312
 21
7.225004833468355
 31
0.0
  0
LINE
  5
59
  8
1
  6
DASHDOT
 62
     3
 10
-330.38744597957458
 20
29.82786822651801
 30
0.0
 11
-334.4239448742992
 21
27.497394503065141
 31
0.0
  0
LINE
  5
5A
  8
1
  6
DASHDOT
 62
     3
 10
-330.38744597957458
 20
65.711700118805766
 30
0.0
 11
-334.4239448742992
 21
68.042173842258634
 31
0.0
  0
LINE
  5
5B
  8
1
  6
DASHDOT
 62
     3
 10
-299.31113597572312
 20
83.653616064949617
 30
0.0
 11
-299.31113597572312
 21
88.314563511855425
 31
0.0
  0
LINE
  5
5C
  8
1
  6
DASHDOT
 62
     3
 10
-268.23482597187171
 20
65.711700118805766
 30
0.0
 11
-264.1983270771471
 21
68.042173842258634
 31
0.0
  0
LINE
  5
5D
  8
1
  6
DASHDOT
 62
     3
 10
-299.31113597572312
 20
51.611776050478497
 30
0.0
 11
-299.31113597572312
 21
43.927792294845283
 31
0.0
  0
LINE
  5
5E
  8
1
  6
DASHDOT
 62
     3
 10
-295.46914409790662
 20
47.769784172661893
 30
0.0
 11
-303.15312785353979
 21
47.769784172661893
 31
0.0
  0
LINE
  5
5F
  8
1
 62
     7
 10
-312.28417721211412
 20
105.1496248635215
 30
0.0
 11
-307.4055218481713
 21
86.942235172668433
 31
0.0
  0
LINE
  5
60
  8
1
  6
DASHDOT
 62
     3
 10
-299.31113597572312
 20
98.501039625542575
 30
0.0
 11
-299.31113597572312
 21
91.038528719781226
 31
0.0
  0
LINE
  5
61
  8
1
  6
DASHDOT
 62
     3
 10
-295.57988052284259
 20
94.769784172661915
 30
0.0
 11
-303.04239142860382
 21
94.769784172661915
 31
0.0
  0
LINE
  5
62
  8
1
 62
     7
 10
-423.30547674430079
 20
10.26978417266189
 30
0.0
 11
-421.80547674430079
 21
8.7697841726619004
 31
0.0
  0
LINE
  5
63
  8
1
 62
     3
 10
-507.30547674430079
 20
47.769784172661893
 30
0.0
 11
-510.30547674430079
 21
47.769784172661893
 31
0.0
  0
LINE
  5
64
  8
1
 62
     3
 10
-462.30547674430079
 20
47.769784172661893
 30
0.0
 11
-459.30547674430079
 21
47.769784172661893
 31
0.0
  0
LINE
  5
65
  8
1
 62
     7
 10
-505.80547674430079
 20
8.769784172661895
 30
0.0
 11
-505.80547674430079
 21
86.769784172661886
 31
0.0
  0
LINE
  5
66
  8
1
 62
     7
 10
-507.20547674430082
 20
100.7697841726619
 30
0.0
 11
-507.20547674430082
 21
85.392055481071935
 31
0.0
  0
LINE
  5
67
  8
1
 62
     3
 10
-475.80547674430079
 20
87.769784172661915
 30
0.0
 11
-467.30547674430079
 21
7.7697841726618959
 31
0.0
  0
LINE
  5
68
  8
1
 62
     3
 10
-475.80547674430079
 20
7.7697841726618959
 30
0.0
 11
-467.30547674430079
 21
87.769784172661915
 31
0.0
  0
LINE
  5
69
  8
1
 62
     7
 10
-463.80547674430079
 20
83.269784172661886
 30
0.0
 11
-463.80547674430079
 21
12.2697841726619
 31
0.0
  0
LINE
  5
6A
  8
1
 62
     7
 10
-505.80547674430079
 20
86.769784172661886
 30
0.0
 11
-507.30547674430079
 21
85.269784172661886
 31
0.0
  0
LINE
  5
6B
  8
1
 62
     7
 10
-507.30547674430079
 20
85.269784172661886
 30
0.0
 11
-507.30547674430079
 21
10.26978417266189
 31
0.0
  0
LINE
  5
6C
  8
1
 62
     7
 10
-479.80547674430079
 20
86.769784172661886
 30
0.0
 11
-479.80547674430079
 21
8.769784172661895
 31
0.0
  0
LINE
  5
6D
  8
1
 62
     7
 10
-477.80547674430079
 20
84.769784172661886
 30
0.0
 11
-477.80547674430079
 21
10.7697841726619
 31
0.0
  0
LINE
  5
6E
  8
1
 62
     7
 10
-477.80547674430079
 20
83.569784172661883
 30
0.0
 11
-475.80547674430079
 21
83.569784172661883
 31
0.0
  0
LINE
  5
6F
  8
1
 62
     7
 10
-462.80547674430079
 20
66.219784172661889
 30
0.0
 11
-462.30547674430079
 21
66.219784172661889
 31
0.0
  0
LINE
  5
70
  8
1
 62
     7
 10
-475.80547674430079
 20
87.769784172661915
 30
0.0
 11
-467.30547674430079
 21
87.769784172661915
 31
0.0
  0
LINE
  5
71
  8
1
 62
     7
 10
-475.80547674430079
 20
87.769784172661915
 30
0.0
 11
-475.80547674430079
 21
7.7697841726618959
 31
0.0
  0
LINE
  5
72
  8
1
 62
     7
 10
-467.30547674430079
 20
83.269784172661886
 30
0.0
 11
-463.80547674430079
 21
83.269784172661886
 31
0.0
  0
LINE
  5
73
  8
1
 62
     7
 10
-462.80547674430079
 20
75.125437744687304
 30
0.0
 11
-463.80547674430079
 21
83.269784172661886
 31
0.0
  0
LINE
  5
74
  8
1
 62
     7
 10
-477.80547674430079
 20
84.769784172661886
 30
0.0
 11
-479.80547674430079
 21
86.769784172661886
 31
0.0
  0
LINE
  5
75
  8
1
 62
     7
 10
-479.80547674430079
 20
86.769784172661886
 30
0.0
 11
-505.80547674430079
 21
86.769784172661886
 31
0.0
  0
LINE
  5
76
  8
1
 62
     7
 10
-462.30547674430079
 20
66.219784172661889
 30
0.0
 11
-462.30547674430079
 21
29.31978417266189
 31
0.0
  0
LINE
  5
77
  8
1
 62
     3
 10
-378.30547674430079
 20
47.769784172661893
 30
0.0
 11
-375.30547674430079
 21
47.769784172661893
 31
0.0
  0
LINE
  5
78
  8
1
 62
     3
 10
-426.30547674430079
 20
47.769784172661893
 30
0.0
 11
-423.30547674430079
 21
47.769784172661893
 31
0.0
  0
LINE
  5
79
  8
1
 62
     7
 10
-379.80547674430079
 20
30.7697841726619
 30
0.0
 11
-381.30547674430079
 21
30.7697841726619
 31
0.0
  0
LINE
  5
7A
  8
1
 62
     7
 10
-381.30547674430079
 20
29.319784172661901
 30
0.0
 11
-391.80547674430079
 21
29.319784172661901
 31
0.0
  0
LINE
  5
7B
  8
1
 62
     7
 10
-378.30547674430079
 20
32.0197841726619
 30
0.0
 11
-391.80547674430079
 21
32.0197841726619
 31
0.0
  0
LINE
  5
7C
  8
1
 62
     7
 10
-393.80547674430079
 20
11.7697841726619
 30
0.0
 11
-393.80547674430079
 21
10.7697841726619
 31
0.0
  0
LINE
  5
7D
  8
1
 62
     7
 10
-393.80547674430079
 20
11.7697841726619
 30
0.0
 11
-393.80547674430079
 21
10.7697841726619
 31
0.0
  0
LINE
  5
7E
  8
1
 62
     7
 10
-393.80547674430079
 20
11.7697841726619
 30
0.0
 11
-393.80547674430079
 21
10.7697841726619
 31
0.0
  0
LINE
  5
7F
  8
1
 62
     7
 10
-391.80547674430079
 20
12.469784172661891
 30
0.0
 11
-397.80547674430079
 21
12.469784172661891
 31
0.0
  0
LINE
  5
80
  8
1
 62
     7
 10
-391.80547674430079
 20
7.7697841726619004
 30
0.0
 11
-391.80547674430079
 21
32.2697841726619
 31
0.0
  0
LINE
  5
81
  8
1
 62
     7
 10
-395.80547674430079
 20
8.7697841726619004
 30
0.0
 11
-393.80547674430079
 21
10.7697841726619
 31
0.0
  0
LINE
  5
82
  8
1
 62
     7
 10
-393.80547674430079
 20
11.7697841726619
 30
0.0
 11
-393.80547674430079
 21
10.7697841726619
 31
0.0
  0
LINE
  5
83
  8
1
 62
     7
 10
-423.30547674430079
 20
30.5237410071943
 30
0.0
 11
-423.30547674430079
 21
10.26978417266189
 31
0.0
  0
LINE
  5
84
  8
1
 62
     3
 10
-391.80547674430079
 20
7.7697841726619004
 30
0.0
 11
-383.30547674430079
 21
32.0197841726619
 31
0.0
  0
LINE
  5
85
  8
1
 62
     3
 10
-383.30547674430079
 20
7.7697841726619004
 30
0.0
 11
-391.80547674430079
 21
32.0197841726619
 31
0.0
  0
LINE
  5
86
  8
1
 62
     7
 10
-383.30547674430079
 20
7.7697841726619004
 30
0.0
 11
-391.80547674430079
 21
7.7697841726619004
 31
0.0
  0
LINE
  5
87
  8
1
 62
     7
 10
-383.30547674430079
 20
7.7697841726619004
 30
0.0
 11
-383.30547674430079
 21
32.0197841726619
 31
0.0
  0
LINE
  5
88
  8
1
 62
     7
 10
-381.30547674430079
 20
29.0197841726619
 30
0.0
 11
-383.30547674430079
 21
29.0197841726619
 31
0.0
  0
LINE
  5
89
  8
1
 62
     7
 10
-381.30547674430079
 20
31.569784172661901
 30
0.0
 11
-383.30547674430079
 21
31.569784172661901
 31
0.0
  0
LINE
  5
8A
  8
1
 62
     7
 10
-381.30547674430079
 20
31.569784172661901
 30
0.0
 11
-381.30547674430079
 21
26.7697841726619
 31
0.0
  0
LINE
  5
8B
  8
1
 62
     7
 10
-379.80547674430079
 20
12.2697841726619
 30
0.0
 11
-383.30547674430079
 21
12.2697841726619
 31
0.0
  0
LINE
  5
8C
  8
1
 62
     7
 10
-381.30547674430079
 20
26.7697841726619
 30
0.0
 11
-378.80547674430079
 21
26.7697841726619
 31
0.0
  0
LINE
  5
8D
  8
1
 62
     7
 10
-378.80547674430079
 20
20.41413060063649
 30
0.0
 11
-378.80547674430079
 21
28.434532374100701
 31
0.0
  0
LINE
  5
8E
  8
1
 62
     7
 10
-379.80547674430079
 20
12.2697841726619
 30
0.0
 11
-378.80547674430079
 21
20.41413060063649
 31
0.0
  0
LINE
  5
8F
  8
1
 62
     7
 10
-379.80547674430079
 20
28.469784172661889
 30
0.0
 11
-381.30547674430079
 21
28.469784172661889
 31
0.0
  0
LINE
  5
90
  8
1
 62
     7
 10
-379.80547674430079
 20
28.469784172661889
 30
0.0
 11
-379.80547674430079
 21
30.7697841726619
 31
0.0
  0
LINE
  5
91
  8
1
  6
DASHED
 62
     7
 10
-402.80547674430079
 20
37.2697841726619
 30
0.0
 11
-402.80547674430079
 21
32.7697841726619
 31
0.0
  0
LINE
  5
92
  8
1
  6
DASHED
 62
     7
 10
-400.80547674430079
 20
37.2697841726619
 30
0.0
 11
-400.80547674430079
 21
26.4697841726619
 31
0.0
  0
LINE
  5
93
  8
1
  6
DASHDOT
 62
     3
 10
-401.80547674430079
 20
37.93
 30
0.0
 11
-401.80547674430079
 21
31.324784172661911
 31
0.0
  0
LINE
  5
94
  8
1
  6
DASHED
 62
     7
 10
-389.30547674430079
 20
37.2697841726619
 30
0.0
 11
-389.30547674430079
 21
32.0197841726619
 31
0.0
  0
LINE
  5
95
  8
1
  6
DASHED
 62
     7
 10
-387.30547674430079
 20
37.2697841726619
 30
0.0
 11
-387.30547674430079
 21
32.0197841726619
 31
0.0
  0
LINE
  5
96
  8
1
  6
DASHDOT
 62
     3
 10
-388.30547674430079
 20
38.053453237410103
 30
0.0
 11
-388.30547674430079
 21
30.5197841726619
 31
0.0
  0
LINE
  5
97
  8
1
 62
     7
 10
-398.80547674430079
 20
20.26978417266189
 30
0.0
 11
-398.80547674430079
 21
11.7697841726619
 31
0.0
  0
LINE
  5
98
  8
1
 62
     7
 10
-398.80547674430079
 20
20.26978417266189
 30
0.0
 11
-396.80547674430079
 21
22.26978417266189
 31
0.0
  0
LINE
  5
99
  8
1
 62
     7
 10
-395.80547674430079
 20
8.7697841726619004
 30
0.0
 11
-393.80547674430079
 21
10.7697841726619
 31
0.0
  0
LINE
  5
9A
  8
1
 62
     7
 10
-422.05547674430079
 20
24.2697841726619
 30
0.0
 11
-423.30547674430079
 21
24.2697841726619
 31
0.0
  0
LINE
  5
9B
  8
1
 62
     7
 10
-422.05547674430079
 20
27.419784172661899
 30
0.0
 11
-422.05547674430079
 21
23.0197841726619
 31
0.0
  0
LINE
  5
9C
  8
1
 62
     7
 10
-420.30547674430079
 20
27.419784172661899
 30
0.0
 11
-422.05547674430079
 21
27.419784172661899
 31
0.0
  0
LINE
  5
9D
  8
1
 62
     7
 10
-420.30547674430079
 20
23.0197841726619
 30
0.0
 11
-422.05547674430079
 21
23.0197841726619
 31
0.0
  0
LINE
  5
9E
  8
1
 62
     7
 10
-395.80547674430079
 20
8.7697841726619004
 30
0.0
 11
-421.80547674430079
 21
8.7697841726619004
 31
0.0
  0
LINE
  5
9F
  8
1
 62
     7
 10
-393.80547674430079
 20
11.7697841726619
 30
0.0
 11
-393.80547674430079
 21
10.7697841726619
 31
0.0
  0
LINE
  5
A0
  8
1
 62
     7
 10
-398.80547674430079
 20
11.7697841726619
 30
0.0
 11
-393.80547674430079
 21
11.7697841726619
 31
0.0
  0
LINE
  5
A1
  8
1
 62
     7
 10
-396.80547674430079
 20
25.7697841726619
 30
0.0
 11
-396.80547674430079
 21
22.26978417266189
 31
0.0
  0
LINE
  5
A2
  8
1
 62
     7
 10
-402.30547674430079
 20
25.7697841726619
 30
0.0
 11
-396.80547674430079
 21
25.7697841726619
 31
0.0
  0
LINE
  5
A3
  8
1
 62
     7
 10
-396.30547674430079
 20
15.7697841726619
 30
0.0
 11
-396.30547674430079
 21
26.4697841726619
 31
0.0
  0
LINE
  5
A4
  8
1
 62
     7
 10
-397.80547674430079
 20
15.7697841726619
 30
0.0
 11
-396.30547674430079
 21
15.7697841726619
 31
0.0
  0
LINE
  5
A5
  8
1
 62
     7
 10
-401.80547674430079
 20
26.4697841726619
 30
0.0
 11
-396.30547674430079
 21
26.4697841726619
 31
0.0
  0
LINE
  5
A6
  8
1
 62
     7
 10
-401.80547674430079
 20
30.2697841726619
 30
0.0
 11
-401.80547674430079
 21
26.4697841726619
 31
0.0
  0
LINE
  5
A7
  8
1
 62
     7
 10
-402.30547674430079
 20
30.2697841726619
 30
0.0
 11
-401.80547674430079
 21
30.2697841726619
 31
0.0
  0
LINE
  5
A8
  8
1
 62
     7
 10
-397.80547674430079
 20
12.469784172661891
 30
0.0
 11
-397.80547674430079
 21
15.7697841726619
 31
0.0
  0
LINE
  5
A9
  8
1
 62
     7
 10
-420.30547674430079
 20
24.2697841726619
 30
0.0
 11
-402.30547674430079
 21
24.2697841726619
 31
0.0
  0
LINE
  5
AA
  8
1
 62
     7
 10
-411.30547674430079
 20
32.7697841726619
 30
0.0
 11
-411.30547674430079
 21
24.2697841726619
 31
0.0
  0
LINE
  5
AB
  8
1
 62
     7
 10
-420.30547674430079
 20
32.7697841726619
 30
0.0
 11
-402.30547674430079
 21
32.7697841726619
 31
0.0
  0
LINE
  5
AC
  8
1
 62
     7
 10
-417.08047674430082
 20
30.72814895231221
 30
0.0
 11
-420.30547674430079
 21
30.72814895231221
 31
0.0
  0
LINE
  5
AD
  8
1
 62
     7
 10
-414.53047674430093
 20
30.72814895231221
 30
0.0
 11
-408.08047674430082
 21
30.72814895231221
 31
0.0
  0
LINE
  5
AE
  8
1
 62
     7
 10
-414.53047674430093
 20
26.31141939301158
 30
0.0
 11
-408.08047674430082
 21
26.31141939301158
 31
0.0
  0
LINE
  5
AF
  8
1
 62
     7
 10
-417.08047674430082
 20
26.31141939301158
 30
0.0
 11
-420.30547674430079
 21
26.31141939301159
 31
0.0
  0
LINE
  5
B0
  8
1
 62
     7
 10
-405.53047674430093
 20
30.72814895231221
 30
0.0
 11
-402.30547674430079
 21
30.72814895231221
 31
0.0
  0
LINE
  5
B1
  8
1
 62
     7
 10
-405.53047674430093
 20
26.31141939301158
 30
0.0
 11
-402.30547674430079
 21
26.31141939301159
 31
0.0
  0
LINE
  5
B2
  8
1
 62
     7
 10
-402.30547674430079
 20
32.7697841726619
 30
0.0
 11
-402.30547674430079
 21
24.2697841726619
 31
0.0
  0
LINE
  5
B3
  8
1
 62
     7
 10
-421.80547674430079
 20
30.119784172661891
 30
0.0
 11
-421.80547674430079
 21
33.469784172661903
 31
0.0
  0
LINE
  5
B4
  8
1
 62
     7
 10
-420.30547674430079
 20
30.119784172661891
 30
0.0
 11
-421.80547674430079
 21
30.119784172661891
 31
0.0
  0
LINE
  5
B5
  8
1
 62
     7
 10
-404.30547674430079
 20
37.7697841726619
 30
0.0
 11
-423.30547674430079
 21
37.7697841726619
 31
0.0
  0
LINE
  5
B6
  8
1
 62
     7
 10
-399.30547674430079
 20
37.2697841726619
 30
0.0
 11
-404.30547674430079
 21
37.2697841726619
 31
0.0
  0
LINE
  5
B7
  8
1
 62
     7
 10
-390.80547674430079
 20
37.7697841726619
 30
0.0
 11
-399.30547674430079
 21
37.7697841726619
 31
0.0
  0
LINE
  5
B8
  8
1
 62
     7
 10
-385.80547674430079
 20
37.2697841726619
 30
0.0
 11
-390.80547674430079
 21
37.2697841726619
 31
0.0
  0
LINE
  5
B9
  8
1
 62
     7
 10
-378.30547674430079
 20
37.7697841726619
 30
0.0
 11
-385.80547674430079
 21
37.7697841726619
 31
0.0
  0
LINE
  5
BA
  8
1
 62
     7
 10
-421.80547674430079
 20
32.7697841726619
 30
0.0
 11
-423.30547674430079
 21
32.7697841726619
 31
0.0
  0
LINE
  5
BB
  8
1
 62
     7
 10
-420.30547674430079
 20
33.469784172661903
 30
0.0
 11
-421.80547674430079
 21
33.469784172661903
 31
0.0
  0
LINE
  5
BC
  8
1
 62
     7
 10
-402.30547674430079
 20
32.2697841726619
 30
0.0
 11
-391.80547674430079
 21
32.2697841726619
 31
0.0
  0
LINE
  5
BD
  8
1
 62
     7
 10
-378.30547674430079
 20
29.319784172661901
 30
0.0
 11
-379.80547674430079
 21
29.319784172661901
 31
0.0
  0
LINE
  5
BE
  8
1
 62
     7
 10
-378.30547674430079
 20
29.319784172661901
 30
0.0
 11
-378.30547674430079
 21
66.219784172661889
 31
0.0
  0
LINE
  5
BF
  8
1
 62
     7
 10
-381.30547674430079
 20
64.7697841726619
 30
0.0
 11
-379.80547674430079
 21
64.7697841726619
 31
0.0
  0
LINE
  5
C0
  8
1
 62
     7
 10
-391.80547674430079
 20
66.219784172661889
 30
0.0
 11
-381.30547674430079
 21
66.219784172661889
 31
0.0
  0
LINE
  5
C1
  8
1
 62
     7
 10
-391.80547674430079
 20
63.519784172661893
 30
0.0
 11
-378.30547674430079
 21
63.519784172661893
 31
0.0
  0
LINE
  5
C2
  8
1
 62
     7
 10
-498.10072198971608
 20
111.5521243491939
 30
0.0
 11
-498.10072198971608
 21
106.5521243491939
 31
0.0
  0
LINE
  5
C3
  8
1
 62
     7
 10
-498.50649583347962
 20
111.5521243491939
 30
0.0
 11
-498.50649583347962
 21
106.5521243491939
 31
0.0
  0
LINE
  5
C4
  8
1
 62
     7
 10
-499.44484784718247
 20
111.5521243491939
 30
0.0
 11
-499.44484784718247
 21
106.5521243491939
 31
0.0
  0
LINE
  5
C5
  8
1
 62
     7
 10
-499.0644348686543
 20
111.5521243491939
 30
0.0
 11
-499.0644348686543
 21
106.5521243491939
 31
0.0
  0
LINE
  5
C6
  8
1
 62
     7
 10
-498.80547674430079
 20
111.5521243491939
 30
0.0
 11
-498.80547674430079
 21
106.5521243491939
 31
0.0
  0
LINE
  5
C7
  8
1
 62
     7
 10
-499.96547674430082
 20
106.5521243491939
 30
0.0
 11
-497.64547674430082
 21
106.5521243491939
 31
0.0
  0
LINE
  5
C8
  8
1
 62
     7
 10
-497.64547674430082
 20
86.769784172661915
 30
0.0
 11
-497.64547674430082
 21
106.5521243491939
 31
0.0
  0
LINE
  5
C9
  8
1
 62
     7
 10
-499.96547674430082
 20
106.5521243491939
 30
0.0
 11
-499.96547674430082
 21
86.769784172661915
 31
0.0
  0
LINE
  5
CA
  8
1
 62
     7
 10
-507.30547674430079
 20
10.26978417266189
 30
0.0
 11
-505.80547674430079
 21
8.769784172661895
 31
0.0
  0
LINE
  5
CB
  8
1
 62
     7
 10
-475.80547674430079
 20
11.969784172661891
 30
0.0
 11
-477.80547674430079
 21
11.969784172661891
 31
0.0
  0
LINE
  5
CC
  8
1
 62
     7
 10
-462.30547674430079
 20
29.31978417266189
 30
0.0
 11
-462.80547674430079
 21
29.31978417266189
 31
0.0
  0
LINE
  5
CD
  8
1
 62
     7
 10
-505.80547674430079
 20
8.769784172661895
 30
0.0
 11
-479.80547674430079
 21
8.769784172661895
 31
0.0
  0
LINE
  5
CE
  8
1
 62
     7
 10
-467.30547674430079
 20
7.7697841726618959
 30
0.0
 11
-475.80547674430079
 21
7.7697841726618959
 31
0.0
  0
LINE
  5
CF
  8
1
 62
     7
 10
-467.30547674430079
 20
7.7697841726618959
 30
0.0
 11
-467.30547674430079
 21
87.769784172661915
 31
0.0
  0
LINE
  5
D0
  8
1
 62
     7
 10
-463.80547674430079
 20
12.2697841726619
 30
0.0
 11
-467.30547674430079
 21
12.2697841726619
 31
0.0
  0
LINE
  5
D1
  8
1
 62
     7
 10
-462.80547674430079
 20
20.41413060063649
 30
0.0
 11
-462.80547674430079
 21
75.125437744687304
 31
0.0
  0
LINE
  5
D2
  8
1
 62
     7
 10
-463.80547674430079
 20
12.2697841726619
 30
0.0
 11
-462.80547674430079
 21
20.41413060063649
 31
0.0
  0
LINE
  5
D3
  8
1
 62
     7
 10
-479.80547674430079
 20
8.769784172661895
 30
0.0
 11
-477.80547674430079
 21
10.7697841726619
 31
0.0
  0
LINE
  5
D4
  8
1
 62
     7
 10
-507.20547674430082
 20
100.7697841726619
 30
0.0
 11
-505.20547674430082
 21
100.7697841726619
 31
0.0
  0
LINE
  5
D5
  8
1
 62
     7
 10
-505.20547674430082
 20
100.7697841726619
 30
0.0
 11
-505.20547674430082
 21
86.769784172661915
 31
0.0
  0
LINE
  5
D6
  8
1
 62
     7
 10
-314.08539198926258
 20
104.6669908185897
 30
0.0
 11
-315.37948721477528
 21
109.4966199500349
 31
0.0
  0
LINE
  5
D7
  8
1
 62
     7
 10
-313.69344455393889
 20
104.77201281736011
 30
0.0
 11
-314.98753977945159
 21
109.60164194880539
 31
0.0
  0
LINE
  5
D8
  8
1
 62
     7
 10
-312.78706610975308
 20
105.0148761895167
 30
0.0
 11
-314.08116133526562
 21
109.844505320962
 31
0.0
  0
LINE
  5
D9
  8
1
 62
     7
 10
-313.15451683036912
 20
104.9164180656694
 30
0.0
 11
-314.44861205588171
 21
109.74604719711461
 31
0.0
  0
LINE
  5
DA
  8
1
 62
     7
 10
-313.40465117060938
 20
104.8493947712026
 30
0.0
 11
-314.69874639612209
 21
109.679023902648
 31
0.0
  0
LINE
  5
DB
  8
1
 62
     7
 10
-314.52512512910482
 20
104.5491646788837
 30
0.0
 11
-312.35818095046682
 21
96.462018907041511
 31
0.0
  0
LINE
  5
DC
  8
1
 62
     7
 10
-316.32633990625328
 20
104.0665306339517
 30
0.0
 11
-317.62043513176582
 21
108.8961597653971
 31
0.0
  0
LINE
  5
DD
  8
1
 62
     7
 10
-315.93439247092959
 20
104.1715526327222
 30
0.0
 11
-317.22848769644207
 21
109.0011817641675
 31
0.0
  0
LINE
  5
DE
  8
1
 62
     7
 10
-315.02801402674362
 20
104.4144160048787
 30
0.0
 11
-316.32210925225633
 21
109.2440451363241
 31
0.0
  0
LINE
  5
DF
  8
1
 62
     7
 10
-315.39546474735971
 20
104.31595788103149
 30
0.0
 11
-316.68955997287219
 21
109.1455870124768
 31
0.0
  0
LINE
  5
E0
  8
1
 62
     7
 10
-315.64559908760009
 20
104.2489345865647
 30
0.0
 11
-316.93969431311262
 21
109.0785637180102
 31
0.0
  0
LINE
  5
E1
  8
1
 62
     7
 10
-316.76607304609541
 20
103.9487044942459
 30
0.0
 11
-312.28417721211412
 21
105.1496248635215
 31
0.0
  0
LINE
  5
E2
  8
1
 62
     7
 10
-314.52512512910482
 20
104.5491646788837
 30
0.0
 11
-309.66389777982391
 21
86.406817224224625
 31
0.0
  0
LINE
  5
E3
  8
1
 62
     7
 10
-316.76607304609541
 20
103.9487044942459
 30
0.0
 11
-311.8874176821526
 21
85.741314803392726
 31
0.0
  0
LINE
  5
E4
  8
1
 62
     7
 10
-414.10072198971608
 20
111.5521243491939
 30
0.0
 11
-414.10072198971608
 21
106.5521243491939
 31
0.0
  0
LINE
  5
E5
  8
1
 62
     7
 10
-414.50649583347962
 20
111.5521243491939
 30
0.0
 11
-414.50649583347962
 21
106.5521243491939
 31
0.0
  0
LINE
  5
E6
  8
1
 62
     7
 10
-415.44484784718247
 20
111.5521243491939
 30
0.0
 11
-415.44484784718247
 21
106.5521243491939
 31
0.0
  0
LINE
  5
E7
  8
1
 62
     7
 10
-415.0644348686543
 20
111.5521243491939
 30
0.0
 11
-415.0644348686543
 21
106.5521243491939
 31
0.0
  0
LINE
  5
E8
  8
1
 62
     7
 10
-414.80547674430079
 20
111.5521243491939
 30
0.0
 11
-414.80547674430079
 21
106.5521243491939
 31
0.0
  0
LINE
  5
E9
  8
1
 62
     7
 10
-415.96547674430082
 20
106.5521243491939
 30
0.0
 11
-413.64547674430082
 21
106.5521243491939
 31
0.0
  0
LINE
  5
EA
  8
1
 62
     7
 10
-415.96547674430082
 20
86.769784172661915
 30
0.0
 11
-415.96547674430082
 21
106.5521243491939
 31
0.0
  0
LINE
  5
EB
  8
1
 62
     7
 10
-413.64547674430082
 20
86.769784172661915
 30
0.0
 11
-413.64547674430082
 21
106.5521243491939
 31
0.0
  0
LINE
  5
EC
  8
1
  6
DASHED
 62
     7
 10
-292.98261911717452
 20
40.027053751740198
 30
0.0
 11
-288.90378145642381
 21
35.948216090989391
 31
0.0
  0
LINE
  5
ED
  8
1
  6
DASHED
 62
     7
 10
-307.05386639664482
 20
41.44126731411329
 30
0.0
 11
-311.13270405739581
 21
37.36242965336249
 31
0.0
  0
LINE
  5
EE
  8
1
  6
DASHED
 62
     7
 10
-305.63965283427183
 20
55.512514593583603
 30
0.0
 11
-309.71849049502248
 21
59.591352254334403
 31
0.0
  0
LINE
  5
EF
  8
1
  6
DASHDOT
 62
     3
 10
-293.29389620670872
 20
41.752544403647299
 30
0.0
 11
-287.3679802394638
 21
35.826628436402594
 31
0.0
  0
LINE
  5
F0
  8
1
  6
DASHDOT
 62
     3
 10
-305.3283757447378
 20
41.752544403647313
 30
0.0
 11
-311.25429171198238
 21
35.826628436402601
 31
0.0
  0
LINE
  5
F1
  8
1
  6
DASHDOT
 62
     3
 10
-305.3283757447378
 20
53.787023941676502
 30
0.0
 11
-311.25429171198238
 21
59.712939908921207
 31
0.0
  0
LINE
  5
F2
  8
1
  6
DASHED
 62
     7
 10
-291.56840555480142
 20
41.44126731411329
 30
0.0
 11
-287.48956789405059
 21
37.362429653362469
 31
0.0
  0
LINE
  5
F3
  8
1
  6
DASHED
 62
     7
 10
-305.63965283427183
 20
40.027053751740198
 30
0.0
 11
-309.71849049502248
 21
35.948216090989391
 31
0.0
  0
LINE
  5
F4
  8
1
  6
DASHED
 62
     7
 10
-307.05386639664482
 20
54.098301031210489
 30
0.0
 11
-311.1327040573957
 21
58.177138691961318
 31
0.0
  0
LINE
  5
F5
  8
1
  6
DASHED
 62
     7
 10
-291.56840555480142
 20
54.098301031210489
 30
0.0
 11
-287.48956789405059
 21
58.177138691961318
 31
0.0
  0
LINE
  5
F6
  8
1
  6
DASHED
 62
     7
 10
-292.98261911717452
 20
55.512514593583603
 30
0.0
 11
-288.90378145642381
 21
59.591352254334403
 31
0.0
  0
LINE
  5
F7
  8
1
  6
DASHDOT
 62
     3
 10
-293.29389620670872
 20
53.787023941676502
 30
0.0
 11
-287.3679802394638
 21
59.7129399089212
 31
0.0
  0
LINE
  5
F8
  8
1
 62
     7
 10
-303.31113597572312
 20
100.7697841726619
 30
0.0
 11
-295.31113597572312
 21
100.7697841726619
 31
0.0
  0
LINE
  5
F9
  8
1
 62
     7
 10
-293.31113597572312
 20
98.769784172661915
 30
0.0
 11
-293.31113597572312
 21
87.317224039232286
 31
0.0
  0
LINE
  5
FA
  8
1
 62
     7
 10
-305.31113597572312
 20
98.769784172661915
 30
0.0
 11
-305.31113597572312
 21
87.317224039232286
 31
0.0
  0
LINE
  5
FB
  8
1
 62
     7
 10
-302.31113597572312
 20
59.469784172661903
 30
0.0
 11
-296.31113597572312
 21
59.469784172661903
 31
0.0
  0
LINE
  5
FC
  8
1
 62
     7
 10
-296.31113597572312
 20
59.469784172661903
 30
0.0
 11
-296.31113597572312
 21
57.309176186831358
 31
0.0
  0
LINE
  5
FD
  8
1
 62
     7
 10
-302.31113597572312
 20
59.469784172661903
 30
0.0
 11
-302.31113597572312
 21
57.309176186831358
 31
0.0
  0
LINE
  5
FE
  8
1
 62
     7
 10
-269.70120873759112
 20
69.48388578779965
 30
0.0
 11
-265.70120873759112
 21
62.555682557524108
 31
0.0
  0
LINE
  5
FF
  8
1
 62
     7
 10
-262.84376009649498
 20
64.205431299656524
 30
0.0
 11
-265.70120873759112
 21
62.555682557524108
 31
0.0
  0
LINE
  5
100
  8
1
 62
     7
 10
-266.84376009649498
 20
71.133634529932053
 30
0.0
 11
-269.70120873759112
 21
69.48388578779965
 31
0.0
  0
LINE
  5
101
  8
1
 62
     7
 10
-265.70120873759112
 20
32.983885787799643
 30
0.0
 11
-269.70120873759112
 21
26.055682557524118
 31
0.0
  0
LINE
  5
102
  8
1
 62
     7
 10
-266.84376009649498
 20
24.40593381539173
 30
0.0
 11
-269.70120873759112
 21
26.055682557524118
 31
0.0
  0
LINE
  5
103
  8
1
 62
     7
 10
-262.84376009649498
 20
31.33413704566723
 30
0.0
 11
-265.70120873759112
 21
32.983885787799643
 31
0.0
  0
LINE
  5
104
  8
1
 62
     7
 10
-295.31113597572312
 20
11.26978417266189
 30
0.0
 11
-303.31113597572312
 21
11.26978417266189
 31
0.0
  0
LINE
  5
105
  8
1
 62
     7
 10
-303.31113597572312
 20
7.9702866883970893
 30
0.0
 11
-303.31113597572312
 21
11.26978417266189
 31
0.0
  0
LINE
  5
106
  8
1
 62
     7
 10
-295.31113597572312
 20
7.9702866883970849
 30
0.0
 11
-295.31113597572312
 21
11.26978417266189
 31
0.0
  0
LINE
  5
107
  8
1
 62
     7
 10
-328.92106321385512
 20
26.05568255752414
 30
0.0
 11
-332.92106321385512
 21
32.98388578779965
 31
0.0
  0
LINE
  5
108
  8
1
 62
     7
 10
-335.77851185495138
 20
31.334137045667259
 30
0.0
 11
-332.92106321385512
 21
32.98388578779965
 31
0.0
  0
LINE
  5
109
  8
1
 62
     7
 10
-331.77851185495132
 20
24.405933815391752
 30
0.0
 11
-328.92106321385512
 21
26.05568255752414
 31
0.0
  0
LINE
  5
10A
  8
1
 62
     7
 10
-332.92106321385512
 20
62.555682557524143
 30
0.0
 11
-328.92106321385512
 21
69.48388578779965
 31
0.0
  0
LINE
  5
10B
  8
1
 62
     7
 10
-331.77851185495132
 20
71.133634529932053
 30
0.0
 11
-328.92106321385512
 21
69.48388578779965
 31
0.0
  0
LINE
  5
10C
  8
1
 62
     7
 10
-335.77851185495138
 20
64.205431299656539
 30
0.0
 11
-332.92106321385512
 21
62.555682557524143
 31
0.0
  0
LINE
  5
10D
  8
1
 62
     7
 10
-303.31113597572312
 20
84.269784172661886
 30
0.0
 11
-295.31113597572312
 21
84.269784172661886
 31
0.0
  0
LINE
  5
10E
  8
1
 62
     7
 10
-295.31113597572312
 20
87.569281656926705
 30
0.0
 11
-295.31113597572312
 21
84.269784172661886
 31
0.0
  0
LINE
  5
10F
  8
1
 62
     7
 10
-303.31113597572312
 20
87.569281656926705
 30
0.0
 11
-303.31113597572312
 21
84.269784172661886
 31
0.0
  0
LINE
  5
110
  8
1
 62
     7
 10
-393.80547674430079
 20
84.7697841726619
 30
0.0
 11
-393.80547674430079
 21
83.7697841726619
 31
0.0
  0
LINE
  5
111
  8
1
 62
     7
 10
-393.80547674430079
 20
84.7697841726619
 30
0.0
 11
-393.80547674430079
 21
83.7697841726619
 31
0.0
  0
LINE
  5
112
  8
1
 62
     7
 10
-393.80547674430079
 20
84.7697841726619
 30
0.0
 11
-393.80547674430079
 21
83.7697841726619
 31
0.0
  0
LINE
  5
113
  8
1
 62
     7
 10
-397.80547674430079
 20
83.069784172661926
 30
0.0
 11
-391.80547674430079
 21
83.069784172661926
 31
0.0
  0
LINE
  5
114
  8
1
 62
     7
 10
-391.80547674430079
 20
87.769784172661915
 30
0.0
 11
-391.80547674430079
 21
63.2697841726619
 31
0.0
  0
LINE
  5
115
  8
1
 62
     7
 10
-393.80547674430079
 20
84.7697841726619
 30
0.0
 11
-395.80547674430079
 21
86.769784172661915
 31
0.0
  0
LINE
  5
116
  8
1
 62
     7
 10
-393.80547674430079
 20
84.7697841726619
 30
0.0
 11
-393.80547674430079
 21
83.7697841726619
 31
0.0
  0
LINE
  5
117
  8
1
 62
     7
 10
-423.30547674430079
 20
59.469784172661903
 30
0.0
 11
-378.30547674430079
 21
59.469784172661903
 31
0.0
  0
LINE
  5
118
  8
1
  6
DASHDOT
 62
     3
 10
-424.48960992296497
 20
94.769784172661915
 30
0.0
 11
-420.12759553447569
 21
94.769784172661915
 31
0.0
  0
LINE
  5
119
  8
1
 62
     7
 10
-423.20547674430082
 20
92.019784172661915
 30
0.0
 11
-421.20547674430071
 21
92.019784172661915
 31
0.0
  0
LINE
  5
11A
  8
1
 62
     7
 10
-423.20547674430082
 20
97.519784172661915
 30
0.0
 11
-421.20547674430071
 21
97.519784172661915
 31
0.0
  0
LINE
  5
11B
  8
1
 62
     7
 10
-423.20547674430082
 20
100.7697841726619
 30
0.0
 11
-423.20547674430082
 21
72.7697841726619
 31
0.0
  0
LINE
  5
11C
  8
1
 62
     7
 10
-423.20547674430082
 20
100.7697841726619
 30
0.0
 11
-421.20547674430071
 21
100.7697841726619
 31
0.0
  0
LINE
  5
11D
  8
1
 62
     7
 10
-421.20547674430071
 20
100.7697841726619
 30
0.0
 11
-421.20547674430071
 21
72.7697841726619
 31
0.0
  0
LINE
  5
11E
  8
1
 62
     7
 10
-423.30547674430079
 20
72.7697841726619
 30
0.0
 11
-421.20547674430071
 21
72.7697841726619
 31
0.0
  0
LINE
  5
11F
  8
1
 62
     7
 10
-423.30547674430079
 20
65.015827338129483
 30
0.0
 11
-423.30547674430079
 21
72.7697841726619
 31
0.0
  0
LINE
  5
120
  8
1
 62
     3
 10
-383.30547674430079
 20
63.519784172661893
 30
0.0
 11
-391.80547674430079
 21
87.769784172661915
 31
0.0
  0
LINE
  5
121
  8
1
 62
     3
 10
-391.80547674430079
 20
63.519784172661893
 30
0.0
 11
-383.30547674430079
 21
87.769784172661915
 31
0.0
  0
LINE
  5
122
  8
1
 62
     7
 10
-391.80547674430079
 20
87.769784172661915
 30
0.0
 11
-383.30547674430079
 21
87.769784172661915
 31
0.0
  0
LINE
  5
123
  8
1
 62
     7
 10
-383.30547674430079
 20
87.769784172661915
 30
0.0
 11
-383.30547674430079
 21
63.519784172661893
 31
0.0
  0
LINE
  5
124
  8
1
 62
     7
 10
-383.30547674430079
 20
66.5197841726619
 30
0.0
 11
-381.30547674430079
 21
66.5197841726619
 31
0.0
  0
LINE
  5
125
  8
1
 62
     7
 10
-383.30547674430079
 20
63.969784172661903
 30
0.0
 11
-381.30547674430079
 21
63.969784172661903
 31
0.0
  0
LINE
  5
126
  8
1
 62
     7
 10
-381.30547674430079
 20
63.969784172661903
 30
0.0
 11
-381.30547674430079
 21
68.7697841726619
 31
0.0
  0
LINE
  5
127
  8
1
 62
     7
 10
-383.30547674430079
 20
83.2697841726619
 30
0.0
 11
-379.80547674430079
 21
83.2697841726619
 31
0.0
  0
LINE
  5
128
  8
1
 62
     7
 10
-378.80547674430079
 20
68.7697841726619
 30
0.0
 11
-381.30547674430079
 21
68.7697841726619
 31
0.0
  0
LINE
  5
129
  8
1
 62
     7
 10
-378.80547674430079
 20
67.105035971223103
 30
0.0
 11
-378.80547674430079
 21
75.125437744687304
 31
0.0
  0
LINE
  5
12A
  8
1
 62
     7
 10
-378.80547674430079
 20
75.125437744687304
 30
0.0
 11
-379.80547674430079
 21
83.2697841726619
 31
0.0
  0
LINE
  5
12B
  8
1
 62
     7
 10
-381.30547674430079
 20
67.069784172661883
 30
0.0
 11
-379.80547674430079
 21
67.069784172661883
 31
0.0
  0
LINE
  5
12C
  8
1
 62
     7
 10
-379.80547674430079
 20
67.069784172661883
 30
0.0
 11
-379.80547674430079
 21
64.7697841726619
 31
0.0
  0
LINE
  5
12D
  8
1
 62
     7
 10
-398.80547674430079
 20
83.7697841726619
 30
0.0
 11
-398.80547674430079
 21
75.2697841726619
 31
0.0
  0
LINE
  5
12E
  8
1
 62
     7
 10
-396.80547674430079
 20
73.2697841726619
 30
0.0
 11
-398.80547674430079
 21
75.2697841726619
 31
0.0
  0
LINE
  5
12F
  8
1
 62
     7
 10
-393.80547674430079
 20
84.7697841726619
 30
0.0
 11
-395.80547674430079
 21
86.769784172661915
 31
0.0
  0
LINE
  5
130
  8
1
 62
     7
 10
-423.30547674430079
 20
71.2697841726619
 30
0.0
 11
-422.05547674430079
 21
71.2697841726619
 31
0.0
  0
LINE
  5
131
  8
1
 62
     7
 10
-422.05547674430079
 20
72.5197841726619
 30
0.0
 11
-422.05547674430079
 21
68.119784172661895
 31
0.0
  0
LINE
  5
132
  8
1
 62
     7
 10
-422.05547674430079
 20
68.119784172661895
 30
0.0
 11
-420.30547674430079
 21
68.119784172661895
 31
0.0
  0
LINE
  5
133
  8
1
 62
     7
 10
-422.05547674430079
 20
72.5197841726619
 30
0.0
 11
-420.30547674430079
 21
72.5197841726619
 31
0.0
  0
LINE
  5
134
  8
1
 62
     7
 10
-421.20547674430071
 20
86.769784172661915
 30
0.0
 11
-395.80547674430079
 21
86.769784172661915
 31
0.0
  0
LINE
  5
135
  8
1
 62
     7
 10
-393.80547674430079
 20
84.7697841726619
 30
0.0
 11
-393.80547674430079
 21
83.7697841726619
 31
0.0
  0
LINE
  5
136
  8
1
 62
     7
 10
-393.80547674430079
 20
83.7697841726619
 30
0.0
 11
-398.80547674430079
 21
83.7697841726619
 31
0.0
  0
LINE
  5
137
  8
1
 62
     7
 10
-396.80547674430079
 20
73.2697841726619
 30
0.0
 11
-396.80547674430079
 21
69.7697841726619
 31
0.0
  0
LINE
  5
138
  8
1
 62
     7
 10
-396.80547674430079
 20
69.7697841726619
 30
0.0
 11
-402.30547674430079
 21
69.7697841726619
 31
0.0
  0
LINE
  5
139
  8
1
 62
     7
 10
-396.30547674430079
 20
69.069784172661898
 30
0.0
 11
-396.30547674430079
 21
79.7697841726619
 31
0.0
  0
LINE
  5
13A
  8
1
 62
     7
 10
-396.30547674430079
 20
79.7697841726619
 30
0.0
 11
-397.80547674430079
 21
79.7697841726619
 31
0.0
  0
LINE
  5
13B
  8
1
 62
     7
 10
-396.30547674430079
 20
69.069784172661898
 30
0.0
 11
-401.80547674430079
 21
69.069784172661898
 31
0.0
  0
LINE
  5
13C
  8
1
 62
     7
 10
-401.80547674430079
 20
69.069784172661898
 30
0.0
 11
-401.80547674430079
 21
65.2697841726619
 31
0.0
  0
LINE
  5
13D
  8
1
 62
     7
 10
-401.80547674430079
 20
65.2697841726619
 30
0.0
 11
-402.30547674430079
 21
65.2697841726619
 31
0.0
  0
LINE
  5
13E
  8
1
 62
     7
 10
-397.80547674430079
 20
79.7697841726619
 30
0.0
 11
-397.80547674430079
 21
83.069784172661926
 31
0.0
  0
LINE
  5
13F
  8
1
 62
     7
 10
-420.30547674430079
 20
71.2697841726619
 30
0.0
 11
-402.30547674430079
 21
71.2697841726619
 31
0.0
  0
LINE
  5
140
  8
1
 62
     7
 10
-420.30547674430079
 20
72.5197841726619
 30
0.0
 11
-420.30547674430079
 21
62.06978417266189
 31
0.0
  0
LINE
  5
141
  8
1
 62
     7
 10
-420.30547674430079
 20
62.769784172661893
 30
0.0
 11
-402.30547674430079
 21
62.769784172661893
 31
0.0
  0
LINE
  5
142
  8
1
 62
     7
 10
-420.30547674430079
 20
64.81141939301159
 30
0.0
 11
-417.08047674430082
 21
64.811419393011576
 31
0.0
  0
LINE
  5
143
  8
1
 62
     7
 10
-414.53047674430093
 20
64.811419393011576
 30
0.0
 11
-408.08047674430082
 21
64.811419393011576
 31
0.0
  0
LINE
  5
144
  8
1
 62
     7
 10
-414.53047674430093
 20
69.228148952312225
 30
0.0
 11
-408.08047674430082
 21
69.228148952312225
 31
0.0
  0
LINE
  5
145
  8
1
 62
     7
 10
-420.30547674430079
 20
69.22814895231221
 30
0.0
 11
-417.08047674430082
 21
69.228148952312225
 31
0.0
  0
LINE
  5
146
  8
1
 62
     7
 10
-411.30547674430079
 20
62.769784172661893
 30
0.0
 11
-411.30547674430079
 21
71.2697841726619
 31
0.0
  0
LINE
  5
147
  8
1
 62
     7
 10
-402.30547674430079
 20
71.2697841726619
 30
0.0
 11
-402.30547674430079
 21
62.769784172661893
 31
0.0
  0
LINE
  5
148
  8
1
 62
     7
 10
-402.30547674430079
 20
64.81141939301159
 30
0.0
 11
-405.53047674430093
 21
64.811419393011576
 31
0.0
  0
LINE
  5
149
  8
1
 62
     7
 10
-402.30547674430079
 20
69.22814895231221
 30
0.0
 11
-405.53047674430093
 21
69.228148952312225
 31
0.0
  0
LINE
  5
14A
  8
1
 62
     7
 10
-421.80547674430079
 20
65.419784172661906
 30
0.0
 11
-421.80547674430079
 21
62.06978417266189
 31
0.0
  0
LINE
  5
14B
  8
1
 62
     7
 10
-421.80547674430079
 20
65.419784172661906
 30
0.0
 11
-420.30547674430079
 21
65.419784172661906
 31
0.0
  0
LINE
  5
14C
  8
1
 62
     7
 10
-385.80547674430079
 20
58.2697841726619
 30
0.0
 11
-385.80547674430079
 21
37.2697841726619
 31
0.0
  0
LINE
  5
14D
  8
1
 62
     7
 10
-390.80547674430079
 20
58.2697841726619
 30
0.0
 11
-390.80547674430079
 21
37.2697841726619
 31
0.0
  0
LINE
  5
14E
  8
1
 62
     7
 10
-399.30547674430079
 20
58.2697841726619
 30
0.0
 11
-399.30547674430079
 21
37.2697841726619
 31
0.0
  0
LINE
  5
14F
  8
1
 62
     7
 10
-404.30547674430079
 20
58.2697841726619
 30
0.0
 11
-404.30547674430079
 21
37.2697841726619
 31
0.0
  0
LINE
  5
150
  8
1
 62
     7
 10
-423.30547674430079
 20
57.769784172661893
 30
0.0
 11
-404.30547674430079
 21
57.769784172661893
 31
0.0
  0
LINE
  5
151
  8
1
 62
     7
 10
-404.30547674430079
 20
58.2697841726619
 30
0.0
 11
-399.30547674430079
 21
58.2697841726619
 31
0.0
  0
LINE
  5
152
  8
1
 62
     7
 10
-399.30547674430079
 20
57.769784172661893
 30
0.0
 11
-390.80547674430079
 21
57.769784172661893
 31
0.0
  0
LINE
  5
153
  8
1
 62
     7
 10
-390.80547674430079
 20
58.2697841726619
 30
0.0
 11
-385.80547674430079
 21
58.2697841726619
 31
0.0
  0
LINE
  5
154
  8
1
 62
     7
 10
-385.80547674430079
 20
57.769784172661893
 30
0.0
 11
-378.30547674430079
 21
57.769784172661893
 31
0.0
  0
LINE
  5
155
  8
1
 62
     7
 10
-423.30547674430079
 20
62.769784172661893
 30
0.0
 11
-423.30547674430079
 21
32.7697841726619
 31
0.0
  0
LINE
  5
156
  8
1
 62
     7
 10
-423.30547674430079
 20
62.769784172661893
 30
0.0
 11
-421.80547674430079
 21
62.769784172661893
 31
0.0
  0
LINE
  5
157
  8
1
 62
     7
 10
-421.80547674430079
 20
62.06978417266189
 30
0.0
 11
-420.30547674430079
 21
62.06978417266189
 31
0.0
  0
LINE
  5
158
  8
1
 62
     7
 10
-391.80547674430079
 20
63.2697841726619
 30
0.0
 11
-402.30547674430079
 21
63.2697841726619
 31
0.0
  0
LINE
  5
159
  8
1
 62
     7
 10
-379.80547674430079
 20
66.219784172661889
 30
0.0
 11
-378.30547674430079
 21
66.219784172661889
 31
0.0
  0
LINE
  5
15A
  8
1
 62
     7
 10
-420.30547674430079
 20
23.0197841726619
 30
0.0
 11
-420.30547674430079
 21
33.469784172661903
 31
0.0
  0
ARC
  5
15B
  8
1
 62
     7
 10
-582.28574716928176
 20
98.769784172661915
 30
0.0
 40
1.999999999999885
 50
0.0
 51
90.0
  0
ARC
  5
15C
  8
1
 62
     7
 10
-590.28574716928176
 20
98.769784172661915
 30
0.0
 40
2.0
 50
90.0
 51
180.0
  0
ARC
  5
15D
  8
1
 62
     7
 10
-303.31113597572312
 20
98.769784172661915
 30
0.0
 40
2.0
 50
90.0
 51
180.0
  0
ARC
  5
15E
  8
1
 62
     7
 10
-295.31113597572312
 20
98.769784172661915
 30
0.0
 40
2.0
 50
0.0
 51
90.0
  0
ARC
  5
15F
  8
1
 62
     7
 10
-586.28574716928176
 20
79.2697841726619
 30
0.0
 40
6.0
 50
180.0
 51
0.0
  0
ARC
  5
160
  8
1
 62
     7
 10
-586.28574716928176
 20
47.769784172661893
 30
0.0
 40
38.999999999999979
 50
98.849883098429032
 51
81.150116901571138
  0
ARC
  5
161
  8
1
 62
     7
 10
-586.28574716928176
 20
47.769784172661893
 30
0.0
 40
39.99999999999995
 50
35.739170477266761
 51
81.373073441321509
  0
ARC
  5
162
  8
1
 62
     7
 10
-586.28574716928176
 20
47.769784172661893
 30
0.0
 40
37.5
 50
99.2068962213459
 51
80.793103778654284
  0
ARC
  5
163
  8
1
 62
     7
 10
-586.28574716928176
 20
47.769784172661893
 30
0.0
 40
39.999999999999957
 50
335.73917047726678
 51
24.260829522733371
  0
ARC
  5
164
  8
1
 62
     7
 10
-586.28574716928176
 20
47.769784172661893
 30
0.0
 40
39.999999999999957
 50
275.73917047726673
 51
324.26082952273327
  0
ARC
  5
165
  8
1
 62
     7
 10
-586.28574716928176
 20
47.769784172661893
 30
0.0
 40
40.000000000000021
 50
215.73917047726661
 51
264.26082952273322
  0
ARC
  5
166
  8
1
 62
     7
 10
-586.28574716928176
 20
47.769784172661893
 30
0.0
 40
39.999999999999993
 50
155.7391704772667
 51
204.2608295227333
  0
ARC
  5
167
  8
1
 62
     7
 10
-586.28574716928176
 20
47.769784172661893
 30
0.0
 40
10.0
 50
107.45760312372209
 51
72.54239687627792
  0
ARC
  5
168
  8
1
 62
     7
 10
-586.28574716928176
 20
47.769784172661893
 30
0.0
 40
40.0
 50
98.626926558678633
 51
144.2608295227333
  0
ARC
  5
169
  8
1
 62
     7
 10
-299.31113597572312
 20
47.769784172661893
 30
0.0
 40
10.0
 50
107.45760312372209
 51
72.54239687627792
  0
ARC
  5
16A
  8
1
 62
     7
 10
-299.31113597572312
 20
47.769784172661893
 30
0.0
 40
38.999999999999993
 50
24.11315786129223
 51
35.886842138707678
  0
ARC
  5
16B
  8
1
 62
     7
 10
-299.31113597572312
 20
47.769784172661893
 30
0.0
 40
39.000000000000028
 50
324.11315786129211
 51
335.88684213870772
  0
ARC
  5
16C
  8
1
 62
     7
 10
-299.31113597572312
 20
47.769784172661893
 30
0.0
 40
39.0
 50
264.11315786129228
 51
275.88684213870772
  0
ARC
  5
16D
  8
1
 62
     7
 10
-299.31113597572312
 20
47.769784172661893
 30
0.0
 40
39.00000000000005
 50
204.11315786129211
 51
215.88684213870761
  0
ARC
  5
16E
  8
1
 62
     7
 10
-299.31113597572312
 20
47.769784172661893
 30
0.0
 40
39.000000000000057
 50
144.11315786129231
 51
155.88684213870781
  0
ARC
  5
16F
  8
1
 62
     7
 10
-299.31113597572312
 20
47.769784172661893
 30
0.0
 40
38.999999999999993
 50
84.113157861292265
 51
95.886842138707706
  0
ARC
  5
170
  8
1
 62
     7
 10
-299.31113597572312
 20
47.769784172661893
 30
0.0
 40
40.000000000000028
 50
335.73917047726678
 51
24.260829522733172
  0
ARC
  5
171
  8
1
 62
     7
 10
-299.31113597572312
 20
47.769784172661893
 30
0.0
 40
40.0
 50
275.73917047726673
 51
324.26082952273322
  0
ARC
  5
172
  8
1
 62
     7
 10
-299.31113597572312
 20
47.769784172661893
 30
0.0
 40
40.000000000000021
 50
215.73917047726681
 51
264.26082952273322
  0
ARC
  5
173
  8
1
 62
     7
 10
-299.31113597572312
 20
47.769784172661893
 30
0.0
 40
40.000000000000028
 50
155.73917047726681
 51
204.2608295227331
  0
ARC
  5
174
  8
1
 62
     7
 10
-299.31113597572312
 20
47.769784172661893
 30
0.0
 40
40.0
 50
95.739170477266768
 51
144.26082952273319
  0
ARC
  5
175
  8
1
 62
     7
 10
-299.31113597572312
 20
47.769784172661893
 30
0.0
 40
40.0
 50
35.739170477266747
 51
84.260829522733218
  0
CIRCLE
  5
176
  8
1
 62
     7
 10
-586.28574716928176
 20
47.769784172661893
 30
0.0
 40
23.5
  0
CIRCLE
  5
177
  8
1
 62
     7
 10
-586.28574716928176
 20
47.769784172661893
 30
0.0
 40
15.0
  0
CIRCLE
  5
178
  8
1
 62
     7
 10
-586.28574716928176
 20
94.769784172661915
 30
0.0
 40
2.75
  0
CIRCLE
  5
179
  8
1
 62
     7
 10
-415.80547674430079
 20
28.5197841726619
 30
0.0
 40
2.55000000000001
  0
CIRCLE
  5
17A
  8
1
 62
     7
 10
-406.80547674430079
 20
28.5197841726619
 30
0.0
 40
2.5499999999998981
  0
CIRCLE
  5
17B
  8
1
 62
     7
 10
-299.31113597572312
 20
94.769784172661915
 30
0.0
 40
2.75
  0
CIRCLE
  5
17C
  8
1
 62
     7
 10
-299.31113597572312
 20
47.769784172661893
 30
0.0
 40
15.75
  0
CIRCLE
  5
17D
  8
1
 62
     7
 10
-299.31113597572312
 20
47.769784172661893
 30
0.0
 40
18.449999999999982
  0
CIRCLE
  5
17E
  8
1
 62
     7
 10
-299.31113597572312
 20
47.769784172661893
 30
0.0
 40
35.5
  0
CIRCLE
  5
17F
  8
1
 62
     7
 10
-299.31113597572312
 20
47.769784172661893
 30
0.0
 40
27.3556535720254
  0
CIRCLE
  5
180
  8
1
 62
     7
 10
-299.31113597572312
 20
47.769784172661893
 30
0.0
 40
21.0
  0
CIRCLE
  5
181
  8
1
 62
     7
 10
-415.80547674430079
 20
67.0197841726619
 30
0.0
 40
2.55000000000001
  0
CIRCLE
  5
182
  8
1
 62
     7
 10
-406.80547674430079
 20
67.0197841726619
 30
0.0
 40
2.5499999999998981
  0
TEXT
  5
184
  8
1
 62
     7
 10
-625.53995163648278
 20
135.748218256397
 30
0.0
 40
4.0
  1
MWC 1.2
 41
0.9
  7
SIMPLEX
  0
ENDSEC
  0
EOF
