  0
SECTION
  2
HEADER
  9
$ACADVER
  1
AC1009
  9
$INSBASE
 10
0.0
 20
0.0
 30
0.0
  9
$EXTMIN
 10
-917.77727227892319
 20
-223.42169556038459
 30
0.0
  9
$EXTMAX
 10
-222.27727227892299
 20
20.333199214311051
 30
0.0
  9
$LIMMIN
 10
-917.77727227892296
 20
-218.8124339813763
  9
$LIMMAX
 10
-222.27727227892311
 20
20.333199214311051
  9
$ORTHOMODE
 70
     0
  9
$REGENMODE
 70
     1
  9
$FILLMODE
 70
     1
  9
$QTEXTMODE
 70
     0
  9
$MIRRTEXT
 70
     1
  9
$DRAGMODE
 70
     2
  9
$LTSCALE
 40
1.0
  9
$OSMODE
 70
    37
  9
$ATTMODE
 70
     1
  9
$TEXTSIZE
 40
3.5
  9
$TRACEWID
 40
0.5
  9
$TEXTSTYLE
  7
STANDARD
  9
$CLAYER
  8
0
  9
$CELTYPE
  6
BYLAYER
  9
$CECOLOR
 62
   256
  9
$DIMSCALE
 40
1.0
  9
$DIMASZ
 40
0.18
  9
$DIMEXO
 40
0.0625
  9
$DIMDLI
 40
0.38
  9
$DIMRND
 40
0.0
  9
$DIMDLE
 40
0.0
  9
$DIMEXE
 40
0.18
  9
$DIMTP
 40
0.0
  9
$DIMTM
 40
0.0
  9
$DIMTXT
 40
0.18
  9
$DIMCEN
 40
0.09
  9
$DIMTSZ
 40
0.0
  9
$DIMTOL
 70
     0
  9
$DIMLIM
 70
     0
  9
$DIMTIH
 70
     1
  9
$DIMTOH
 70
     1
  9
$DIMSE1
 70
     0
  9
$DIMSE2
 70
     0
  9
$DIMTAD
 70
     0
  9
$DIMZIN
 70
     0
  9
$DIMBLK
  1

  9
$DIMASO
 70
     1
  9
$DIMSHO
 70
     1
  9
$DIMPOST
  1

  9
$DIMAPOST
  1

  9
$DIMALT
 70
     0
  9
$DIMALTD
 70
     2
  9
$DIMALTF
 40
25.399999999999999
  9
$DIMLFAC
 40
1.0
  9
$DIMTOFL
 70
     0
  9
$DIMTVP
 40
0.0
  9
$DIMTIX
 70
     0
  9
$DIMSOXD
 70
     0
  9
$DIMSAH
 70
     0
  9
$DIMBLK1
  1

  9
$DIMBLK2
  1

  9
$DIMSTYLE
  2
STANDARD
  9
$DIMCLRD
 70
     0
  9
$DIMCLRE
 70
     0
  9
$DIMCLRT
 70
     0
  9
$DIMTFAC
 40
1.0
  9
$DIMGAP
 40
0.09
  9
$LUNITS
 70
     2
  9
$LUPREC
 70
     4
  9
$SKETCHINC
 40
0.1
  9
$FILLETRAD
 40
2.0
  9
$AUNITS
 70
     0
  9
$AUPREC
 70
     0
  9
$MENU
  1
ACAD
  9
$ELEVATION
 40
0.0
  9
$PELEVATION
 40
0.0
  9
$THICKNESS
 40
0.0
  9
$LIMCHECK
 70
     0
  9
$BLIPMODE
 70
     0
  9
$CHAMFERA
 40
0.0
  9
$CHAMFERB
 40
0.0
  9
$SKPOLY
 70
     0
  9
$TDCREATE
 40
2452095.0390256951
  9
$TDUPDATE
 40
2452095.0396868051
  9
$TDINDWG
 40
0.0006827546
  9
$TDUSRTIMER
 40
0.0006827546
  9
$USRTIMER
 70
     1
  9
$ANGBASE
 50
0.0
  9
$ANGDIR
 70
     0
  9
$PDMODE
 70
     0
  9
$PDSIZE
 40
0.0
  9
$PLINEWID
 40
0.0
  9
$COORDS
 70
     1
  9
$SPLFRAME
 70
     0
  9
$SPLINETYPE
 70
     6
  9
$SPLINESEGS
 70
     8
  9
$ATTDIA
 70
     0
  9
$ATTREQ
 70
     1
  9
$HANDLING
 70
 10241
  9
$HANDSEED
  5
18F
  9
$SURFTAB1
 70
     6
  9
$SURFTAB2
 70
     6
  9
$SURFTYPE
 70
     6
  9
$SURFU
 70
     6
  9
$SURFV
 70
     6
  9
$UCSNAME
  2

  9
$UCSORG
 10
0.0
 20
0.0
 30
0.0
  9
$UCSXDIR
 10
1.0
 20
0.0
 30
0.0
  9
$UCSYDIR
 10
0.0
 20
1.0
 30
0.0
  9
$PUCSNAME
  2

  9
$PUCSORG
 10
0.0
 20
0.0
 30
0.0
  9
$PUCSXDIR
 10
1.0
 20
0.0
 30
0.0
  9
$PUCSYDIR
 10
0.0
 20
1.0
 30
0.0
  9
$USERI1
 70
     0
  9
$USERI2
 70
     0
  9
$USERI3
 70
     0
  9
$USERI4
 70
     0
  9
$USERI5
 70
     0
  9
$USERR1
 40
0.0
  9
$USERR2
 40
0.0
  9
$USERR3
 40
0.0
  9
$USERR4
 40
0.0
  9
$USERR5
 40
0.0
  9
$WORLDVIEW
 70
     1
  9
$SHADEDGE
 70
     3
  9
$SHADEDIF
 70
    70
  9
$TILEMODE
 70
     1
  9
$MAXACTVP
 70
    64
  9
$PLIMCHECK
 70
     0
  9
$PEXTMIN
 10
1.0000000000000000E+020
 20
1.0000000000000000E+020
 30
1.0000000000000000E+020
  9
$PEXTMAX
 10
-1.0000000000000000E+020
 20
-1.0000000000000000E+020
 30
-1.0000000000000000E+020
  9
$PLIMMIN
 10
0.0
 20
0.0
  9
$PLIMMAX
 10
12.0
 20
9.0
  9
$UNITMODE
 70
     0
  9
$VISRETAIN
 70
     1
  9
$PLINEGEN
 70
     0
  9
$PSLTSCALE
 70
     1
  0
ENDSEC
  0
SECTION
  2
TABLES
  0
TABLE
  2
VPORT
 70
     2
  0
VPORT
  2
*ACTIVE
 70
     0
 10
0.0
 20
0.0
 11
1.0
 21
1.0
 12
-907.15519609637863
 22
-0.0561967939778363
 13
0.0
 23
0.0
 14
1.0
 24
1.0
 15
0.0
 25
0.0
 16
0.0
 26
0.0
 36
1.0
 17
0.0
 27
0.0
 37
0.0
 40
8.9999995810265077
 41
2.4144144144144142
 42
50.0
 43
0.0
 44
0.0
 50
0.0
 51
0.0
 71
     0
 72
   100
 73
     1
 74
     1
 75
     0
 76
     0
 77
     0
 78
     0
  0
ENDTAB
  0
TABLE
  2
LTYPE
 70
     9
  0
LTYPE
  2
CONTINUOUS
 70
     0
  3
Solid line
 72
    65
 73
     0
 40
0.0
  0
LTYPE
  2
BORDER
 70
     0
  3
__ __ . __ __ .
 72
    65
 73
     6
 40
32.02960526315789
 49
9.1513157894736832
 49
-4.5756578947368407
 49
9.1513157894736832
 49
-4.5756578947368407
 49
0.0
 49
-4.5756578947368407
  0
LTYPE
  2
CENTER
 70
     0
  3
____ _ ____ _
 72
    65
 73
     4
 40
36.605263157894719
 49
22.878289473684209
 49
-4.5756578947368407
 49
4.5756578947368407
 49
-4.5756578947368407
  0
LTYPE
  2
DASHDOT
 70
     0
  3
__ . __ . __ .
 72
    65
 73
     4
 40
18.302631578947359
 49
9.1513157894736832
 49
-4.5756578947368407
 49
0.0
 49
-4.5756578947368407
  0
LTYPE
  2
DASHED
 70
     0
  3
__ __ __ __ __
 72
    65
 73
     2
 40
13.72697368421052
 49
9.1513157894736832
 49
-4.5756578947368407
  0
LTYPE
  2
DIVIDE
 70
     0
  3
__ . . __ . . 
 72
    65
 73
     6
 40
22.878289473684209
 49
9.1513157894736832
 49
-4.5756578947368407
 49
0.0
 49
-4.5756578947368407
 49
0.0
 49
-4.5756578947368407
  0
LTYPE
  2
DOT
 70
     0
  3
..............
 72
    65
 73
     4
 40
9.1513157894736832
 49
0.0
 49
-4.5756578947368407
 49
0.0
 49
-4.5756578947368407
  0
LTYPE
  2
HIDDEN
 70
     0
  3
_ _ _ _ _ _ _
 72
    65
 73
     2
 40
6.8634868421052611
 49
4.5756578947368407
 49
-2.2878289473684199
  0
LTYPE
  2
PHANTOM
 70
     0
  3
_____ _ _ _____ _ _ 
 72
    65
 73
     6
 40
45.756578947368418
 49
22.878289473684209
 49
-4.5756578947368407
 49
4.5756578947368407
 49
-4.5756578947368407
 49
4.5756578947368407
 49
-4.5756578947368407
  0
ENDTAB
  0
TABLE
  2
LAYER
 70
     2
  0
LAYER
  2
0
 70
     0
 62
     7
  6
CONTINUOUS
  0
LAYER
  2
1
 70
     0
 62
     7
  6
CONTINUOUS
  0
ENDTAB
  0
TABLE
  2
STYLE
 70
     4
  0
STYLE
  2
STANDARD
 70
     0
 40
0.0
 41
1.0
 50
0.0
 71
     0
 42
3.5
  3
txt
  4

  0
STYLE
  2
SIMPLEX
 70
     0
 40
0.0
 41
1.0
 50
0.0
 71
     0
 42
3.5
  3
simplex
  4

  0
STYLE
  2
COMPLEX
 70
     0
 40
0.0
 41
1.0
 50
0.0
 71
     0
 42
3.5
  3
complex
  4

  0
STYLE
  2
ITALIC
 70
     0
 40
0.0
 41
1.0
 50
0.0
 71
     0
 42
3.5
  3
italic
  4

  0
ENDTAB
  0
TABLE
  2
VIEW
 70
     0
  0
ENDTAB
  0
TABLE
  2
UCS
 70
     0
  0
ENDTAB
  0
TABLE
  2
APPID
 70
     1
  0
APPID
  2
ACAD
 70
     0
  0
ENDTAB
  0
TABLE
  2
DIMSTYLE
 70
     1
  0
DIMSTYLE
  2
STANDARD
 70
     0
  3

  4

  5

  6

  7

 40
1.0
 41
0.18
 42
0.0625
 43
0.38
 44
0.18
 45
0.0
 46
0.0
 47
0.0
 48
0.0
140
0.18
141
0.09
142
0.0
143
25.399999999999999
144
1.0
145
0.0
146
1.0
147
0.09
 71
     0
 72
     0
 73
     1
 74
     1
 75
     0
 76
     0
 77
     0
 78
     0
170
     0
171
     2
172
     0
173
     0
174
     0
175
     0
176
     0
177
     0
178
     0
  0
ENDTAB
  0
ENDSEC
  0
SECTION
  2
BLOCKS
  0
BLOCK
  8
0
  2
$MODEL_SPACE
 70
     0
 10
0.0
 20
0.0
 30
0.0
  3
$MODEL_SPACE
  1

  0
ENDBLK
  5
20
  8
0
  0
BLOCK
 67
     1
  8
0
  2
$PAPER_SPACE
 70
     0
 10
0.0
 20
0.0
 30
0.0
  3
$PAPER_SPACE
  1

  0
ENDBLK
  5
1C
 67
     1
  8
0
  0
ENDSEC
  0
SECTION
  2
ENTITIES
  0
LINE
  5
33
  8
1
 62
     7
 10
-521.90227227892296
 20
-101.7658197539902
 30
0.0
 11
-524.77727227892296
 21
-101.7658197539902
 31
0.0
  0
LINE
  5
34
  8
1
 62
     7
 10
-521.90227227892296
 20
-92.672553014253694
 30
0.0
 11
-524.77727227892296
 21
-92.672553014253694
 31
0.0
  0
LINE
  5
35
  8
1
 62
     7
 10
-515.87727227892287
 20
-88.469186384122011
 30
0.0
 11
-522.67727227892271
 21
-88.469186384122011
 31
0.0
  0
LINE
  5
36
  8
1
 62
     7
 10
-513.77727227892308
 20
-105.969186384122
 30
0.0
 11
-513.77727227892308
 21
-88.469186384122011
 31
0.0
  0
LINE
  5
37
  8
1
 62
     7
 10
-510.90227227892302
 20
-101.7658197539902
 30
0.0
 11
-516.65227227892296
 21
-101.7658197539902
 31
0.0
  0
LINE
  5
38
  8
1
 62
     7
 10
-502.77727227892291
 20
-101.7658197539902
 30
0.0
 11
-505.65227227892302
 21
-101.7658197539902
 31
0.0
  0
LINE
  5
39
  8
1
 62
     7
 10
-502.77727227892291
 20
-92.672553014253694
 30
0.0
 11
-505.65227227892302
 21
-92.672553014253694
 31
0.0
  0
LINE
  5
3A
  8
1
 62
     7
 10
-510.90227227892302
 20
-92.672553014253694
 30
0.0
 11
-516.65227227892296
 21
-92.672553014253694
 31
0.0
  0
LINE
  5
3B
  8
1
 62
     7
 10
-504.87727227892299
 20
-88.469186384122011
 30
0.0
 11
-511.67727227892283
 21
-88.469186384122011
 31
0.0
  0
LINE
  5
3C
  8
1
 62
     7
 10
-484.27727227892302
 20
-65.469186384121997
 30
0.0
 11
-488.77727227892302
 21
-60.969186384121997
 31
0.0
  0
LINE
  5
3D
  8
1
 62
     7
 10
-492.27727227892302
 20
-83.969186384121997
 30
0.0
 11
-493.77727227892302
 21
-82.469186384121997
 31
0.0
  0
LINE
  5
3E
  8
1
 62
     7
 10
-530.77727227892308
 20
-88.469186384122011
 30
0.0
 11
-527.77727227892296
 21
-88.469186384122011
 31
0.0
  0
LINE
  5
3F
  8
1
 62
     7
 10
-527.77727227892296
 20
-86.719186384122011
 30
0.0
 11
-524.77727227892296
 21
-86.719186384122011
 31
0.0
  0
LINE
  5
40
  8
1
 62
     7
 10
-502.77727227892291
 20
-88.469186384122011
 30
0.0
 11
-524.77727227892296
 21
-88.469186384122011
 31
0.0
  0
LINE
  5
41
  8
1
 62
     7
 10
-527.67727227892283
 20
-60.969186384121997
 30
0.0
 11
-488.77727227892302
 21
-60.969186384121997
 31
0.0
  0
LINE
  5
42
  8
1
 62
     7
 10
-484.27727227892302
 20
-65.469186384121997
 30
0.0
 11
-484.27727227892302
 21
-66.969186384121997
 31
0.0
  0
LINE
  5
43
  8
1
 62
     7
 10
-484.27727227892302
 20
-66.969186384121997
 30
0.0
 11
-494.27727227892291
 21
-66.969186384121997
 31
0.0
  0
LINE
  5
44
  8
1
 62
     7
 10
-492.27727227892302
 20
-83.969186384121997
 30
0.0
 11
-492.27727227892302
 21
-92.469186384122025
 31
0.0
  0
LINE
  5
45
  8
1
 62
     7
 10
-492.27727227892302
 20
-92.469186384122025
 30
0.0
 11
-502.77727227892291
 21
-92.469186384122025
 31
0.0
  0
LINE
  5
46
  8
1
 62
     7
 10
-502.77727227892291
 20
-101.469186384122
 30
0.0
 11
-501.27727227892302
 21
-101.469186384122
 31
0.0
  0
LINE
  5
47
  8
1
 62
     7
 10
-501.27727227892302
 20
-101.469186384122
 30
0.0
 11
-501.27727227892302
 21
-93.269186384121994
 31
0.0
  0
LINE
  5
48
  8
1
 62
     7
 10
-501.27727227892302
 20
-93.269186384121994
 30
0.0
 11
-491.27727227892302
 21
-93.269186384121994
 31
0.0
  0
LINE
  5
49
  8
1
 62
     7
 10
-491.27727227892302
 20
-93.269186384121994
 30
0.0
 11
-491.27727227892302
 21
-75.219186384121997
 31
0.0
  0
LINE
  5
4A
  8
1
 62
     7
 10
-491.27727227892302
 20
-75.219186384121997
 30
0.0
 11
-492.27727227892302
 21
-75.219186384121997
 31
0.0
  0
LINE
  5
4B
  8
1
 62
     7
 10
-492.27727227892302
 20
-75.219186384121997
 30
0.0
 11
-492.27727227892302
 21
-67.769186384121994
 31
0.0
  0
LINE
  5
4C
  8
1
 62
     7
 10
-492.27727227892302
 20
-67.769186384121994
 30
0.0
 11
-482.27727227892302
 21
-67.769186384121994
 31
0.0
  0
LINE
  5
4D
  8
1
 62
     7
 10
-457.77727227892302
 20
-104.469186384122
 30
0.0
 11
-458.77727227892302
 21
-103.469186384122
 31
0.0
  0
LINE
  5
4E
  8
1
 62
     7
 10
-471.77727227892302
 20
-113.469186384122
 30
0.0
 11
-457.77727227892302
 21
-113.469186384122
 31
0.0
  0
LINE
  5
4F
  8
1
 62
     7
 10
-457.77727227892302
 20
-110.969186384122
 30
0.0
 11
-530.77727227892308
 21
-110.969186384122
 31
0.0
  0
LINE
  5
50
  8
1
 62
     7
 10
-506.27727227892302
 20
-113.469186384122
 30
0.0
 11
-530.77727227892308
 21
-113.469186384122
 31
0.0
  0
LINE
  5
51
  8
1
 62
     7
 10
-498.27727227892302
 20
-113.469186384122
 30
0.0
 11
-479.77727227892302
 21
-113.469186384122
 31
0.0
  0
LINE
  5
52
  8
1
 62
     7
 10
-506.27727227892302
 20
-112.469186384122
 30
0.0
 11
-498.27727227892302
 21
-112.469186384122
 31
0.0
  0
LINE
  5
53
  8
1
 62
     7
 10
-479.77727227892302
 20
-112.469186384122
 30
0.0
 11
-471.77727227892302
 21
-112.469186384122
 31
0.0
  0
LINE
  5
54
  8
1
 62
     7
 10
-498.27727227892302
 20
-112.469186384122
 30
0.0
 11
-498.27727227892302
 21
-164.46918638412191
 31
0.0
  0
LINE
  5
55
  8
1
 62
     7
 10
-506.27727227892302
 20
-112.469186384122
 30
0.0
 11
-506.27727227892302
 21
-164.46918638412191
 31
0.0
  0
LINE
  5
56
  8
1
 62
     7
 10
-479.77727227892302
 20
-112.469186384122
 30
0.0
 11
-479.77727227892302
 21
-164.46918638412191
 31
0.0
  0
LINE
  5
57
  8
1
 62
     7
 10
-471.77727227892302
 20
-112.469186384122
 30
0.0
 11
-471.77727227892302
 21
-164.46918638412191
 31
0.0
  0
LINE
  5
58
  8
1
 62
     7
 10
-530.77727227892308
 20
-105.969186384122
 30
0.0
 11
-530.77727227892308
 21
-170.969186384122
 31
0.0
  0
LINE
  5
59
  8
1
 62
     7
 10
-530.77727227892308
 20
-105.969186384122
 30
0.0
 11
-527.27727227892296
 21
-105.969186384122
 31
0.0
  0
LINE
  5
5A
  8
1
 62
     7
 10
-527.27727227892296
 20
-107.469186384122
 30
0.0
 11
-524.77727227892296
 21
-107.469186384122
 31
0.0
  0
LINE
  5
5B
  8
1
 62
     7
 10
-502.77727227892291
 20
-104.969186384122
 30
0.0
 11
-482.27727227892302
 21
-104.969186384122
 31
0.0
  0
LINE
  5
5C
  8
1
 62
     7
 10
-460.27727227892302
 20
-103.469186384122
 30
0.0
 11
-458.77727227892302
 21
-103.469186384122
 31
0.0
  0
LINE
  5
5D
  8
1
 62
     7
 10
-457.77727227892302
 20
-104.469186384122
 30
0.0
 11
-457.77727227892302
 21
-172.469186384122
 31
0.0
  0
LINE
  5
5E
  8
1
 62
     7
 10
-460.27727227892302
 20
-98.569186384122006
 30
0.0
 11
-462.77727227892302
 21
-98.569186384122006
 31
0.0
  0
LINE
  5
5F
  8
1
 62
     7
 10
-462.77727227892302
 20
-104.969186384122
 30
0.0
 11
-462.77727227892302
 21
-94.469186384122011
 31
0.0
  0
LINE
  5
60
  8
1
 62
     7
 10
-462.77727227892302
 20
-94.469186384122011
 30
0.0
 11
-459.27727227892302
 21
-94.469186384122011
 31
0.0
  0
LINE
  5
61
  8
1
 62
     7
 10
-459.27727227892302
 20
-83.757879240071176
 30
0.0
 11
-461.27727227892291
 21
-67.469186384121997
 31
0.0
  0
LINE
  5
62
  8
1
 62
     7
 10
-468.27727227892302
 20
-67.469186384121997
 30
0.0
 11
-461.27727227892291
 21
-67.469186384121997
 31
0.0
  0
LINE
  5
63
  8
1
 62
     7
 10
-462.77727227892302
 20
-102.719186384122
 30
0.0
 11
-468.27727227892302
 21
-102.719186384122
 31
0.0
  0
LINE
  5
64
  8
1
 62
     7
 10
-462.77727227892302
 20
-98.469186384122011
 30
0.0
 11
-468.27727227892302
 21
-98.469186384122011
 31
0.0
  0
LINE
  5
65
  8
1
 62
     7
 10
-459.27727227892302
 20
-96.959294297791104
 30
0.0
 11
-459.27727227892302
 21
-83.757879240071176
 31
0.0
  0
LINE
  5
66
  8
1
 62
     7
 10
-482.27727227892302
 20
-59.969186384121997
 30
0.0
 11
-468.27727227892302
 21
-59.969186384121997
 31
0.0
  0
LINE
  5
67
  8
1
 62
     7
 10
-482.27727227892302
 20
-59.969186384121997
 30
0.0
 11
-482.27727227892302
 21
-104.969186384122
 31
0.0
  0
LINE
  5
68
  8
1
 62
     7
 10
-468.27727227892302
 20
-59.969186384121997
 30
0.0
 11
-468.27727227892302
 21
-103.469186384122
 31
0.0
  0
LINE
  5
69
  8
1
 62
     7
 10
-524.77727227892296
 20
-101.06918638412201
 30
0.0
 11
-527.27727227892296
 21
-101.06918638412201
 31
0.0
  0
LINE
  5
6A
  8
1
 62
     7
 10
-524.77727227892296
 20
-86.719186384122011
 30
0.0
 11
-524.77727227892296
 21
-107.469186384122
 31
0.0
  0
LINE
  5
6B
  8
1
 62
     7
 10
-527.27727227892296
 20
-107.469186384122
 30
0.0
 11
-524.77727227892296
 21
-107.469186384122
 31
0.0
  0
LINE
  5
6C
  8
1
 62
     7
 10
-527.27727227892296
 20
-101.06918638412201
 30
0.0
 11
-527.27727227892296
 21
-107.469186384122
 31
0.0
  0
LINE
  5
6D
  8
1
 62
     7
 10
-524.77727227892296
 20
-86.719186384122011
 30
0.0
 11
-527.77727227892296
 21
-86.719186384122011
 31
0.0
  0
LINE
  5
6E
  8
1
 62
     7
 10
-527.77727227892296
 20
-95.019186384122008
 30
0.0
 11
-524.77727227892296
 21
-95.019186384122008
 31
0.0
  0
LINE
  5
6F
  8
1
 62
     7
 10
-527.77727227892296
 20
-86.719186384122011
 30
0.0
 11
-527.77727227892296
 21
-99.287779029430197
 31
0.0
  0
LINE
  5
70
  8
1
 62
     7
 10
-502.77727227892291
 20
-88.469186384122011
 30
0.0
 11
-502.77727227892291
 21
-105.969186384122
 31
0.0
  0
LINE
  5
71
  8
1
 62
     7
 10
-530.77727227892308
 20
-84.469186384121997
 30
0.0
 11
-530.77727227892308
 21
-102.38742379419389
 31
0.0
  0
LINE
  5
72
  8
1
 62
     7
 10
-494.27727227892291
 20
-82.469186384121997
 30
0.0
 11
-494.27727227892291
 21
-66.969186384121997
 31
0.0
  0
LINE
  5
73
  8
1
 62
     7
 10
-530.77727227892308
 20
-213.469186384122
 30
0.0
 11
-528.27727227892296
 21
-215.96918638412191
 31
0.0
  0
LINE
  5
74
  8
1
 62
     7
 10
-488.77727227892302
 20
-215.96918638412191
 30
0.0
 11
-528.27727227892296
 21
-215.96918638412191
 31
0.0
  0
LINE
  5
75
  8
1
 62
     3
 10
-482.27727227892302
 20
-103.469186384122
 30
0.0
 11
-468.27727227892302
 21
-59.969186384121997
 31
0.0
  0
LINE
  5
76
  8
1
 62
     3
 10
-468.27727227892302
 20
-103.469186384122
 30
0.0
 11
-482.27727227892302
 21
-59.969186384121997
 31
0.0
  0
LINE
  5
77
  8
1
 62
     7
 10
-527.67727227892283
 20
-84.469186384121997
 30
0.0
 11
-527.67727227892283
 21
-39.46918638412199
 31
0.0
  0
LINE
  5
78
  8
1
 62
     7
 10
-530.67727227892283
 20
-39.46918638412199
 30
0.0
 11
-530.67727227892283
 21
-84.469186384121997
 31
0.0
  0
LINE
  5
79
  8
1
 62
     7
 10
-530.67727227892283
 20
-39.46918638412199
 30
0.0
 11
-527.67727227892283
 21
-39.46918638412199
 31
0.0
  0
LINE
  5
7A
  8
1
 62
     7
 10
-530.77727227892308
 20
-84.469186384121997
 30
0.0
 11
-527.67727227892283
 21
-84.469186384121997
 31
0.0
  0
LINE
  5
7B
  8
1
 62
     7
 10
-530.67727227892283
 20
-44.219186384121997
 30
0.0
 11
-527.67727227892283
 21
-44.219186384121997
 31
0.0
  0
LINE
  5
7C
  8
1
 62
     7
 10
-530.67727227892283
 20
-50.71918638412199
 30
0.0
 11
-527.67727227892283
 21
-50.71918638412199
 31
0.0
  0
LINE
  5
7D
  8
1
  6
DASHDOT
 62
     3
 10
-532.75459657333397
 20
-47.46918638412199
 30
0.0
 11
-525.67070614721297
 21
-47.46918638412199
 31
0.0
  0
LINE
  5
7E
  8
1
 62
     7
 10
-516.4622722789228
 20
-35.912665252837392
 30
0.0
 11
-516.4622722789228
 21
-60.969186384121997
 31
0.0
  0
LINE
  5
7F
  8
1
 62
     7
 10
-519.09227227892302
 20
-35.912665252837392
 30
0.0
 11
-519.09227227892302
 21
-60.969186384121997
 31
0.0
  0
LINE
  5
80
  8
1
 62
     7
 10
-518.18869929172581
 20
-35.912665252837392
 30
0.0
 11
-518.18869929172581
 21
-30.912665252837389
 31
0.0
  0
LINE
  5
81
  8
1
 62
     7
 10
-518.52379846308474
 20
-35.912665252837392
 30
0.0
 11
-518.52379846308474
 21
-30.912665252837389
 31
0.0
  0
LINE
  5
82
  8
1
 62
     7
 10
-517.46922165909996
 20
-35.912665252837392
 30
0.0
 11
-517.46922165909996
 21
-30.912665252837389
 31
0.0
  0
LINE
  5
83
  8
1
 62
     7
 10
-517.05527562389102
 20
-35.912665252837392
 30
0.0
 11
-517.05527562389102
 21
-30.912665252837389
 31
0.0
  0
LINE
  5
84
  8
1
 62
     7
 10
-519.09227227892302
 20
-35.912665252837392
 30
0.0
 11
-516.4622722789228
 21
-35.912665252837392
 31
0.0
  0
LINE
  5
85
  8
1
 62
     7
 10
-294.77727227892302
 20
-60.198821621972087
 30
0.0
 11
-294.77727227892302
 21
-65.969186384121997
 31
0.0
  0
LINE
  5
86
  8
1
 62
     7
 10
-306.77727227892302
 20
-60.198821621972087
 30
0.0
 11
-306.77727227892302
 21
-65.969186384121997
 31
0.0
  0
LINE
  5
87
  8
1
 62
     7
 10
-306.77727227892302
 20
-65.969186384121997
 30
0.0
 11
-294.77727227892302
 21
-65.969186384121997
 31
0.0
  0
LINE
  5
88
  8
1
 62
     7
 10
-365.56139652641917
 20
-94.137851580340353
 30
0.0
 11
-360.56411405329482
 21
-97.023033961415294
 31
0.0
  0
LINE
  5
89
  8
1
 62
     7
 10
-371.56139652641917
 20
-104.5301564257535
 30
0.0
 11
-366.56411405329482
 21
-107.4153388068286
 31
0.0
  0
LINE
  5
8A
  8
1
 62
     7
 10
-366.56411405329482
 20
-107.4153388068286
 30
0.0
 11
-360.56411405329482
 21
-97.023033961415294
 31
0.0
  0
LINE
  5
8B
  8
1
 62
     7
 10
-371.56139652641917
 20
-172.40821634249011
 30
0.0
 11
-366.56411405329487
 21
-169.52303396141531
 31
0.0
  0
LINE
  5
8C
  8
1
 62
     7
 10
-365.56139652641917
 20
-182.80052118790351
 30
0.0
 11
-360.56411405329487
 21
-179.91533880682849
 31
0.0
  0
LINE
  5
8D
  8
1
 62
     7
 10
-360.56411405329487
 20
-179.91533880682849
 30
0.0
 11
-366.56411405329487
 21
-169.52303396141531
 31
0.0
  0
LINE
  5
8E
  8
1
 62
     7
 10
-306.77727227892302
 20
-216.73955114627179
 30
0.0
 11
-306.77727227892302
 21
-210.9691863841218
 31
0.0
  0
LINE
  5
8F
  8
1
 62
     7
 10
-294.77727227892302
 20
-216.73955114627191
 30
0.0
 11
-294.77727227892302
 21
-210.9691863841218
 31
0.0
  0
LINE
  5
90
  8
1
 62
     7
 10
-294.77727227892302
 20
-210.9691863841218
 30
0.0
 11
-306.77727227892302
 21
-210.9691863841218
 31
0.0
  0
LINE
  5
91
  8
1
 62
     7
 10
-235.9931480314269
 20
-182.80052118790351
 30
0.0
 11
-240.99043050455131
 21
-179.91533880682849
 31
0.0
  0
LINE
  5
92
  8
1
 62
     7
 10
-229.9931480314269
 20
-172.40821634249031
 30
0.0
 11
-234.99043050455131
 21
-169.52303396141531
 31
0.0
  0
LINE
  5
93
  8
1
 62
     7
 10
-234.99043050455131
 20
-169.52303396141531
 30
0.0
 11
-240.99043050455131
 21
-179.91533880682849
 31
0.0
  0
LINE
  5
94
  8
1
 62
     7
 10
-229.9931480314269
 20
-104.5301564257535
 30
0.0
 11
-234.99043050455131
 21
-107.4153388068286
 31
0.0
  0
LINE
  5
95
  8
1
 62
     7
 10
-235.9931480314269
 20
-94.137851580340353
 30
0.0
 11
-240.9904305045512
 21
-97.023033961415294
 31
0.0
  0
LINE
  5
96
  8
1
 62
     7
 10
-240.9904305045512
 20
-97.023033961415294
 30
0.0
 11
-234.99043050455131
 21
-107.4153388068286
 31
0.0
  0
LINE
  5
97
  8
1
 62
     7
 10
-307.77727227892302
 20
-110.969186384122
 30
0.0
 11
-293.77727227892302
 21
-110.969186384122
 31
0.0
  0
LINE
  5
98
  8
1
 62
     7
 10
-293.77727227892302
 20
-110.969186384122
 30
0.0
 11
-293.77727227892302
 21
-114.469186384122
 31
0.0
  0
LINE
  5
99
  8
1
 62
     7
 10
-307.77727227892302
 20
-110.969186384122
 30
0.0
 11
-307.77727227892302
 21
-114.469186384122
 31
0.0
  0
LINE
  5
9A
  8
1
  6
DASHDOT
 62
     3
 10
-361.08557284800412
 20
-103.6501728161941
 30
0.0
 11
-370.35656572068831
 21
-98.297562585494802
 31
0.0
  0
LINE
  5
9B
  8
1
  6
DASHDOT
 62
     3
 10
-361.08557284800412
 20
-173.28819995204981
 30
0.0
 11
-370.35656572068842
 21
-178.64081018274911
 31
0.0
  0
LINE
  5
9C
  8
1
  6
DASHDOT
 62
     3
 10
-240.4689717098419
 20
-173.28819995204981
 30
0.0
 11
-231.19797883715779
 21
-178.64081018274911
 31
0.0
  0
LINE
  5
9D
  8
1
  6
DASHDOT
 62
     3
 10
-240.4689717098419
 20
-103.6501728161941
 30
0.0
 11
-231.19797883715779
 21
-98.297562585494802
 31
0.0
  0
LINE
  5
9E
  8
1
 62
     7
 10
-306.77727227892302
 20
-39.46918638412199
 30
0.0
 11
-294.77727227892302
 21
-39.46918638412199
 31
0.0
  0
LINE
  5
9F
  8
1
 62
     7
 10
-292.77727227892302
 20
-41.46918638412199
 30
0.0
 11
-292.77727227892302
 21
-60.377893655675003
 31
0.0
  0
LINE
  5
A0
  8
1
 62
     7
 10
-308.77727227892302
 20
-41.46918638412199
 30
0.0
 11
-308.77727227892302
 21
-60.37789365567501
 31
0.0
  0
LINE
  5
A1
  8
1
 62
     7
 10
-323.6235463311408
 20
-63.367270550163688
 30
0.0
 11
-329.85624521398103
 21
-40.106521651126108
 31
0.0
  0
LINE
  5
A2
  8
1
 62
     7
 10
-329.48274000062412
 20
-34.830060328787923
 30
0.0
 11
-328.18864477511153
 21
-39.659689460233253
 31
0.0
  0
LINE
  5
A3
  8
1
 62
     7
 10
-329.15905905664039
 20
-34.743330281242137
 30
0.0
 11
-327.86496383112791
 21
-39.572959412687482
 31
0.0
  0
LINE
  5
A4
  8
1
 62
     7
 10
-330.1777020274148
 20
-35.01627484263679
 30
0.0
 11
-328.88360680190232
 21
-39.845903974082127
 31
0.0
  0
LINE
  5
A5
  8
1
 62
     7
 10
-330.57754319351312
 20
-35.123411960193557
 30
0.0
 11
-329.28344796800059
 21
-39.953041091638902
 31
0.0
  0
LINE
  5
A6
  8
1
 62
     7
 10
-327.31586029084082
 20
-39.425827562506491
 30
0.0
 11
-321.0945673194708
 21
-62.64400902043014
 31
0.0
  0
LINE
  5
A7
  8
1
 62
     7
 10
-318.54277648486033
 20
-62.005882372924432
 30
0.0
 11
-324.77547536770061
 21
-38.74513347388686
 31
0.0
  0
LINE
  5
A8
  8
1
 62
     7
 10
-326.9423550774838
 20
-34.149366240168291
 30
0.0
 11
-325.64825985197132
 21
-38.978995371613628
 31
0.0
  0
LINE
  5
A9
  8
1
 62
     7
 10
-326.61867413350029
 20
-34.062636192622513
 30
0.0
 11
-325.32457890798759
 21
-38.89226532406785
 31
0.0
  0
LINE
  5
AA
  8
1
 62
     7
 10
-327.6373171042747
 20
-34.335580754017172
 30
0.0
 11
-326.34322187876211
 21
-39.165209885462488
 31
0.0
  0
LINE
  5
AB
  8
1
 62
     7
 10
-328.03715827037303
 20
-34.442717871573933
 30
0.0
 11
-326.74306304486038
 21
-39.27234700301927
 31
0.0
  0
LINE
  5
AC
  8
1
 62
     7
 10
-329.85624521398103
 20
-40.106521651126108
 30
0.0
 11
-324.77547536770061
 21
-38.74513347388686
 31
0.0
  0
LINE
  5
AD
  8
1
 62
     7
 10
-327.29579126558212
 20
-34.244069181345139
 30
0.0
 11
-326.00169604006959
 21
-39.073698312790491
 31
0.0
  0
LINE
  5
AE
  8
1
 62
     7
 10
-329.87159009496401
 20
-34.93425239754302
 30
0.0
 11
-328.5774948694513
 21
-39.763881528988357
 31
0.0
  0
LINE
  5
AF
  8
1
  6
DASHDOT
 62
     3
 10
-284.14629011942611
 20
-121.838204224625
 30
0.0
 11
-273.86515733326451
 21
-111.55707143846359
 31
0.0
  0
LINE
  5
B0
  8
1
  6
DASHED
 62
     7
 10
-284.19211141568138
 20
-119.7627051773209
 30
0.0
 11
-277.11193398754659
 21
-112.68252774918609
 31
0.0
  0
LINE
  5
B1
  8
1
  6
DASHED
 62
     7
 10
-282.07079107212178
 20
-121.8840255208805
 30
0.0
 11
-274.99061364398688
 21
-114.8038480927457
 31
0.0
  0
LINE
  5
B2
  8
1
  6
DASHED
 62
     7
 10
-319.48375348572409
 20
-121.8840255208804
 30
0.0
 11
-326.563930913859
 21
-114.8038480927455
 31
0.0
  0
LINE
  5
B3
  8
1
  6
DASHED
 62
     7
 10
-317.36243314216449
 20
-157.17566759092301
 30
0.0
 11
-324.44261057029922
 21
-164.25584501905789
 31
0.0
  0
LINE
  5
B4
  8
1
  6
DASHED
 62
     7
 10
-282.07079107212178
 20
-155.05434724736341
 30
0.0
 11
-274.99061364398722
 21
-162.13452467549811
 31
0.0
  0
LINE
  5
B5
  8
1
  6
DASHDOT
 62
     3
 10
-317.40825443841999
 20
-121.838204224625
 30
0.0
 11
-327.68938722458142
 21
-111.5570714384634
 31
0.0
  0
LINE
  5
B6
  8
1
  6
DASHDOT
 62
     3
 10
-317.40825443841999
 20
-155.10016854361879
 30
0.0
 11
-327.68938722458142
 21
-165.38130132978031
 31
0.0
  0
LINE
  5
B7
  8
1
  6
DASHDOT
 62
     3
 10
-284.14629011942611
 20
-155.10016854361879
 30
0.0
 11
-273.86515733326462
 21
-165.38130132978031
 31
0.0
  0
LINE
  5
B8
  8
1
  6
DASHED
 62
     7
 10
-317.36243314216449
 20
-119.7627051773209
 30
0.0
 11
-324.44261057029922
 21
-112.68252774918599
 31
0.0
  0
LINE
  5
B9
  8
1
  6
DASHED
 62
     7
 10
-319.48375348572409
 20
-155.05434724736341
 30
0.0
 11
-326.563930913859
 21
-162.13452467549831
 31
0.0
  0
LINE
  5
BA
  8
1
  6
DASHED
 62
     7
 10
-284.19211141568161
 20
-157.17566759092301
 30
0.0
 11
-277.11193398754659
 21
-164.25584501905789
 31
0.0
  0
LINE
  5
BB
  8
1
 62
     7
 10
-682.27727227892296
 20
-213.469186384122
 30
0.0
 11
-679.77727227892308
 21
-215.96918638412191
 31
0.0
  0
LINE
  5
BC
  8
1
 62
     7
 10
-640.27727227892296
 20
-215.96918638412191
 30
0.0
 11
-635.77727227892296
 21
-211.46918638412191
 31
0.0
  0
LINE
  5
BD
  8
1
 62
     7
 10
-640.27727227892296
 20
-215.96918638412191
 30
0.0
 11
-679.77727227892308
 21
-215.96918638412191
 31
0.0
  0
LINE
  5
BE
  8
1
 62
     7
 10
-610.27727227892296
 20
-173.469186384122
 30
0.0
 11
-609.27727227892308
 21
-172.469186384122
 31
0.0
  0
LINE
  5
BF
  8
1
 62
     7
 10
-612.77727227892308
 20
-209.46918638412191
 30
0.0
 11
-610.77727227892296
 21
-193.1804935281728
 31
0.0
  0
LINE
  5
C0
  8
1
 62
     7
 10
-612.77727227892308
 20
-209.46918638412191
 30
0.0
 11
-619.77727227892296
 21
-209.46918638412191
 31
0.0
  0
LINE
  5
C1
  8
1
 62
     7
 10
-619.77727227892296
 20
-216.969186384122
 30
0.0
 11
-633.77727227892308
 21
-216.969186384122
 31
0.0
  0
LINE
  5
C2
  8
1
 62
     7
 10
-610.27727227892296
 20
-173.469186384122
 30
0.0
 11
-610.77727227892296
 21
-173.469186384122
 31
0.0
  0
LINE
  5
C3
  8
1
 62
     7
 10
-633.77727227892308
 20
-209.66918638412201
 30
0.0
 11
-635.77727227892296
 21
-209.66918638412201
 31
0.0
  0
LINE
  5
C4
  8
1
 62
     7
 10
-682.17727227892283
 20
-39.46918638412199
 30
0.0
 11
-679.17727227892283
 21
-39.46918638412199
 31
0.0
  0
LINE
  5
C5
  8
1
  6
DASHDOT
 62
     3
 10
-684.25459657333386
 20
-47.46918638412199
 30
0.0
 11
-677.17070614721285
 21
-47.46918638412199
 31
0.0
  0
LINE
  5
C6
  8
1
  6
DASHDOT
 62
     3
 10
-296.210650770558
 20
-47.46918638412199
 30
0.0
 11
-305.34389378728798
 21
-47.46918638412199
 31
0.0
  0
LINE
  5
C7
  8
1
  6
DASHDOT
 62
     3
 10
-300.77727227892302
 20
-42.902564875756973
 30
0.0
 11
-300.77727227892302
 21
-52.035807892487007
 31
0.0
  0
LINE
  5
C8
  8
1
  6
DASHDOT
 62
     3
 10
-300.77727227892308
 20
-68.831159248266303
 30
0.0
 11
-300.77727227892308
 21
-58.125938786867721
 31
0.0
  0
LINE
  5
C9
  8
1
  6
DASHDOT
 62
     3
 10
-300.77727227892308
 20
-208.10721351997759
 30
0.0
 11
-300.77727227892308
 21
-218.8124339813763
 31
0.0
  0
LINE
  5
CA
  8
1
  6
DASHDOT
 62
     3
 10
-293.75086752507798
 20
-138.469186384122
 30
0.0
 11
-307.80367703276812
 21
-138.469186384122
 31
0.0
  0
LINE
  5
CB
  8
1
  6
DASHDOT
 62
     3
 10
-300.77727227892302
 20
-131.44278163027701
 30
0.0
 11
-300.77727227892302
 21
-145.4955911379669
 31
0.0
  0
LINE
  5
CC
  8
1
 62
     7
 10
-516.65227227892296
 20
-175.17255301425359
 30
0.0
 11
-510.90227227892302
 21
-175.17255301425359
 31
0.0
  0
LINE
  5
CD
  8
1
 62
     7
 10
-524.77727227892296
 20
-175.17255301425359
 30
0.0
 11
-521.90227227892296
 21
-175.17255301425359
 31
0.0
  0
LINE
  5
CE
  8
1
 62
     7
 10
-524.77727227892296
 20
-184.26581975399029
 30
0.0
 11
-521.90227227892296
 21
-184.26581975399029
 31
0.0
  0
LINE
  5
CF
  8
1
 62
     7
 10
-516.65227227892296
 20
-184.26581975399029
 30
0.0
 11
-510.90227227892302
 21
-184.26581975399029
 31
0.0
  0
LINE
  5
D0
  8
1
 62
     7
 10
-522.67727227892271
 20
-188.469186384122
 30
0.0
 11
-515.87727227892287
 21
-188.469186384122
 31
0.0
  0
LINE
  5
D1
  8
1
 62
     7
 10
-513.77727227892308
 20
-188.469186384122
 30
0.0
 11
-513.77727227892308
 21
-170.969186384122
 31
0.0
  0
LINE
  5
D2
  8
1
 62
     7
 10
-505.65227227892302
 20
-175.17255301425359
 30
0.0
 11
-502.77727227892291
 21
-175.17255301425359
 31
0.0
  0
LINE
  5
D3
  8
1
 62
     7
 10
-505.65227227892302
 20
-184.26581975399029
 30
0.0
 11
-502.77727227892291
 21
-184.26581975399029
 31
0.0
  0
LINE
  5
D4
  8
1
 62
     7
 10
-511.67727227892283
 20
-188.469186384122
 30
0.0
 11
-504.87727227892299
 21
-188.469186384122
 31
0.0
  0
LINE
  5
D5
  8
1
 62
     7
 10
-488.77727227892302
 20
-215.96918638412191
 30
0.0
 11
-484.27727227892302
 21
-211.46918638412191
 31
0.0
  0
LINE
  5
D6
  8
1
 62
     7
 10
-493.77727227892302
 20
-194.46918638412191
 30
0.0
 11
-492.27727227892302
 21
-192.96918638412191
 31
0.0
  0
LINE
  5
D7
  8
1
 62
     7
 10
-527.77727227892296
 20
-188.469186384122
 30
0.0
 11
-530.77727227892308
 21
-188.469186384122
 31
0.0
  0
LINE
  5
D8
  8
1
 62
     7
 10
-502.77727227892291
 20
-188.469186384122
 30
0.0
 11
-524.77727227892296
 21
-188.469186384122
 31
0.0
  0
LINE
  5
D9
  8
1
 62
     7
 10
-488.77727227892302
 20
-215.96918638412191
 30
0.0
 11
-527.67727227892283
 21
-215.96918638412191
 31
0.0
  0
LINE
  5
DA
  8
1
 62
     7
 10
-484.27727227892302
 20
-209.96918638412191
 30
0.0
 11
-484.27727227892302
 21
-211.46918638412191
 31
0.0
  0
LINE
  5
DB
  8
1
 62
     7
 10
-493.77727227892302
 20
-194.46918638412191
 30
0.0
 11
-494.27727227892291
 21
-194.46918638412191
 31
0.0
  0
LINE
  5
DC
  8
1
 62
     7
 10
-492.27727227892302
 20
-184.46918638412191
 30
0.0
 11
-492.27727227892302
 21
-192.96918638412191
 31
0.0
  0
LINE
  5
DD
  8
1
 62
     7
 10
-502.77727227892291
 20
-184.46918638412191
 30
0.0
 11
-492.27727227892302
 21
-184.46918638412191
 31
0.0
  0
LINE
  5
DE
  8
1
 62
     7
 10
-501.27727227892302
 20
-175.469186384122
 30
0.0
 11
-502.77727227892291
 21
-175.469186384122
 31
0.0
  0
LINE
  5
DF
  8
1
 62
     7
 10
-501.27727227892302
 20
-183.66918638412201
 30
0.0
 11
-501.27727227892302
 21
-175.469186384122
 31
0.0
  0
LINE
  5
E0
  8
1
 62
     7
 10
-491.27727227892302
 20
-183.66918638412201
 30
0.0
 11
-501.27727227892302
 21
-183.66918638412201
 31
0.0
  0
LINE
  5
E1
  8
1
 62
     7
 10
-491.27727227892302
 20
-201.71918638412191
 30
0.0
 11
-491.27727227892302
 21
-183.66918638412201
 31
0.0
  0
LINE
  5
E2
  8
1
 62
     7
 10
-492.27727227892302
 20
-201.71918638412191
 30
0.0
 11
-491.27727227892302
 21
-201.71918638412191
 31
0.0
  0
LINE
  5
E3
  8
1
 62
     7
 10
-492.27727227892302
 20
-209.16918638412201
 30
0.0
 11
-492.27727227892302
 21
-201.71918638412191
 31
0.0
  0
LINE
  5
E4
  8
1
 62
     7
 10
-482.27727227892302
 20
-209.16918638412201
 30
0.0
 11
-492.27727227892302
 21
-209.16918638412201
 31
0.0
  0
LINE
  5
E5
  8
1
 62
     7
 10
-482.27727227892302
 20
-173.469186384122
 30
0.0
 11
-462.77727227892302
 21
-173.469186384122
 31
0.0
  0
LINE
  5
E6
  8
1
 62
     7
 10
-458.77727227892302
 20
-173.469186384122
 30
0.0
 11
-457.77727227892302
 21
-172.469186384122
 31
0.0
  0
LINE
  5
E7
  8
1
 62
     7
 10
-471.77727227892302
 20
-163.469186384122
 30
0.0
 11
-457.77727227892302
 21
-163.469186384122
 31
0.0
  0
LINE
  5
E8
  8
1
 62
     7
 10
-506.27727227892302
 20
-163.469186384122
 30
0.0
 11
-530.77727227892308
 21
-163.469186384122
 31
0.0
  0
LINE
  5
E9
  8
1
 62
     7
 10
-479.77727227892302
 20
-163.469186384122
 30
0.0
 11
-498.27727227892302
 21
-163.469186384122
 31
0.0
  0
LINE
  5
EA
  8
1
 62
     7
 10
-498.27727227892302
 20
-164.46918638412191
 30
0.0
 11
-506.27727227892302
 21
-164.46918638412191
 31
0.0
  0
LINE
  5
EB
  8
1
 62
     7
 10
-471.77727227892302
 20
-164.46918638412191
 30
0.0
 11
-479.77727227892302
 21
-164.46918638412191
 31
0.0
  0
LINE
  5
EC
  8
1
 62
     7
 10
-527.27727227892296
 20
-170.969186384122
 30
0.0
 11
-530.77727227892308
 21
-170.969186384122
 31
0.0
  0
LINE
  5
ED
  8
1
 62
     7
 10
-482.27727227892302
 20
-177.969186384122
 30
0.0
 11
-462.77727227892302
 21
-177.969186384122
 31
0.0
  0
LINE
  5
EE
  8
1
 62
     7
 10
-460.27727227892302
 20
-171.96918638412191
 30
0.0
 11
-462.77727227892302
 21
-171.96918638412191
 31
0.0
  0
LINE
  5
EF
  8
1
 62
     7
 10
-458.77727227892302
 20
-173.469186384122
 30
0.0
 11
-460.27727227892302
 21
-173.469186384122
 31
0.0
  0
LINE
  5
F0
  8
1
 62
     7
 10
-462.77727227892302
 20
-178.369186384122
 30
0.0
 11
-460.27727227892302
 21
-178.369186384122
 31
0.0
  0
LINE
  5
F1
  8
1
 62
     7
 10
-459.27727227892302
 20
-182.469186384122
 30
0.0
 11
-462.77727227892302
 21
-182.469186384122
 31
0.0
  0
LINE
  5
F2
  8
1
 62
     7
 10
-462.77727227892302
 20
-182.469186384122
 30
0.0
 11
-462.77727227892302
 21
-171.96918638412191
 31
0.0
  0
LINE
  5
F3
  8
1
 62
     7
 10
-461.27727227892291
 20
-209.46918638412191
 30
0.0
 11
-459.27727227892302
 21
-193.1804935281728
 31
0.0
  0
LINE
  5
F4
  8
1
 62
     7
 10
-461.27727227892291
 20
-209.46918638412191
 30
0.0
 11
-468.27727227892302
 21
-209.46918638412191
 31
0.0
  0
LINE
  5
F5
  8
1
 62
     7
 10
-468.27727227892302
 20
-174.21918638412191
 30
0.0
 11
-462.77727227892302
 21
-174.21918638412191
 31
0.0
  0
LINE
  5
F6
  8
1
 62
     7
 10
-468.27727227892302
 20
-178.46918638412191
 30
0.0
 11
-462.77727227892302
 21
-178.46918638412191
 31
0.0
  0
LINE
  5
F7
  8
1
 62
     7
 10
-459.27727227892302
 20
-193.1804935281728
 30
0.0
 11
-459.27727227892302
 21
-179.97907847045289
 31
0.0
  0
LINE
  5
F8
  8
1
 62
     7
 10
-468.27727227892302
 20
-216.969186384122
 30
0.0
 11
-482.27727227892302
 21
-216.969186384122
 31
0.0
  0
LINE
  5
F9
  8
1
 62
     7
 10
-482.27727227892302
 20
-216.969186384122
 30
0.0
 11
-482.27727227892302
 21
-171.96918638412191
 31
0.0
  0
LINE
  5
FA
  8
1
 62
     7
 10
-468.27727227892302
 20
-173.469186384122
 30
0.0
 11
-468.27727227892302
 21
-216.969186384122
 31
0.0
  0
LINE
  5
FB
  8
1
 62
     7
 10
-527.27727227892296
 20
-175.869186384122
 30
0.0
 11
-524.77727227892296
 21
-175.869186384122
 31
0.0
  0
LINE
  5
FC
  8
1
 62
     7
 10
-524.77727227892296
 20
-169.469186384122
 30
0.0
 11
-524.77727227892296
 21
-190.219186384122
 31
0.0
  0
LINE
  5
FD
  8
1
 62
     7
 10
-524.77727227892296
 20
-169.469186384122
 30
0.0
 11
-527.27727227892296
 21
-169.469186384122
 31
0.0
  0
LINE
  5
FE
  8
1
 62
     7
 10
-527.27727227892296
 20
-169.469186384122
 30
0.0
 11
-527.27727227892296
 21
-175.869186384122
 31
0.0
  0
LINE
  5
FF
  8
1
 62
     7
 10
-527.77727227892296
 20
-190.219186384122
 30
0.0
 11
-524.77727227892296
 21
-190.219186384122
 31
0.0
  0
LINE
  5
100
  8
1
 62
     7
 10
-524.77727227892296
 20
-181.91918638412201
 30
0.0
 11
-527.77727227892296
 21
-181.91918638412201
 31
0.0
  0
LINE
  5
101
  8
1
 62
     7
 10
-527.77727227892296
 20
-190.219186384122
 30
0.0
 11
-527.77727227892296
 21
-177.6505937388138
 31
0.0
  0
LINE
  5
102
  8
1
 62
     7
 10
-502.77727227892291
 20
-188.469186384122
 30
0.0
 11
-502.77727227892291
 21
-170.969186384122
 31
0.0
  0
LINE
  5
103
  8
1
 62
     7
 10
-494.27727227892291
 20
-209.96918638412191
 30
0.0
 11
-494.27727227892291
 21
-194.46918638412191
 31
0.0
  0
LINE
  5
104
  8
1
 62
     3
 10
-468.27727227892302
 20
-216.969186384122
 30
0.0
 11
-482.27727227892302
 21
-173.469186384122
 31
0.0
  0
LINE
  5
105
  8
1
 62
     3
 10
-482.27727227892302
 20
-216.969186384122
 30
0.0
 11
-468.27727227892302
 21
-173.469186384122
 31
0.0
  0
LINE
  5
106
  8
1
 62
     7
 10
-530.77727227892308
 20
-213.469186384122
 30
0.0
 11
-530.77727227892308
 21
-174.5509489740499
 31
0.0
  0
LINE
  5
107
  8
1
 62
     7
 10
-494.27727227892291
 20
-209.96918638412191
 30
0.0
 11
-484.27727227892302
 21
-209.96918638412191
 31
0.0
  0
LINE
  5
108
  8
1
 62
     7
 10
-524.77727227892296
 20
-169.469186384122
 30
0.0
 11
-527.27727227892296
 21
-169.469186384122
 31
0.0
  0
LINE
  5
109
  8
1
 62
     7
 10
-524.77727227892296
 20
-190.219186384122
 30
0.0
 11
-527.77727227892296
 21
-190.219186384122
 31
0.0
  0
LINE
  5
10A
  8
1
 62
     7
 10
-482.27727227892302
 20
-171.96918638412191
 30
0.0
 11
-502.77727227892291
 21
-171.96918638412191
 31
0.0
  0
LINE
  5
10B
  8
1
  6
DASHED
 62
     7
 10
-500.77727227892302
 20
-164.46918638412191
 30
0.0
 11
-500.77727227892302
 21
-183.66918638412201
 31
0.0
  0
LINE
  5
10C
  8
1
  6
DASHDOT
 62
     3
 10
-502.27727227892302
 20
-163.43877646745091
 30
0.0
 11
-502.27727227892302
 21
-176.35772379702701
 31
0.0
  0
LINE
  5
10D
  8
1
  6
DASHED
 62
     7
 10
-503.77727227892302
 20
-170.969186384122
 30
0.0
 11
-503.77727227892302
 21
-164.46918638412191
 31
0.0
  0
LINE
  5
10E
  8
1
 62
     3
 10
-475.77727227892302
 20
-163.567132763709
 30
0.0
 11
-475.77727227892302
 21
-174.95723451827701
 31
0.0
  0
LINE
  5
10F
  8
1
  6
DASHED
 62
     7
 10
-477.27727227892302
 20
-173.469186384122
 30
0.0
 11
-477.27727227892302
 21
-164.46918638412191
 31
0.0
  0
LINE
  5
110
  8
1
  6
DASHED
 62
     7
 10
-474.27727227892302
 20
-164.46918638412191
 30
0.0
 11
-474.27727227892302
 21
-173.469186384122
 31
0.0
  0
LINE
  5
111
  8
1
 62
     3
 10
-457.77727227892302
 20
-138.469186384122
 30
0.0
 11
-454.77727227892302
 21
-138.469186384122
 31
0.0
  0
LINE
  5
112
  8
1
 62
     3
 10
-530.77727227892308
 20
-138.469186384122
 30
0.0
 11
-533.77727227892308
 21
-138.469186384122
 31
0.0
  0
LINE
  5
113
  8
1
 62
     7
 10
-517.80877910051299
 20
-35.912665252837392
 30
0.0
 11
-517.80877910051299
 21
-30.912665252837389
 31
0.0
  0
LINE
  5
114
  8
1
 62
     7
 10
-494.27727227892291
 20
-82.469186384121997
 30
0.0
 11
-493.77727227892302
 21
-82.469186384121997
 31
0.0
  0
LINE
  5
115
  8
1
 62
     7
 10
-502.77727227892291
 20
-105.969186384122
 30
0.0
 11
-524.77727227892296
 21
-105.969186384122
 31
0.0
  0
LINE
  5
116
  8
1
 62
     7
 10
-502.77727227892291
 20
-170.969186384122
 30
0.0
 11
-524.77727227892296
 21
-170.969186384122
 31
0.0
  0
LINE
  5
117
  8
1
 62
     7
 10
-482.27727227892302
 20
-98.969186384122025
 30
0.0
 11
-462.77727227892302
 21
-98.969186384122025
 31
0.0
  0
LINE
  5
118
  8
1
 62
     7
 10
-462.77727227892302
 20
-104.969186384122
 30
0.0
 11
-460.27727227892302
 21
-104.969186384122
 31
0.0
  0
LINE
  5
119
  8
1
 62
     7
 10
-679.77727227892308
 20
-60.969186384122047
 30
0.0
 11
-682.27727227892296
 21
-63.469186384122047
 31
0.0
  0
LINE
  5
11A
  8
1
 62
     7
 10
-635.77727227892296
 20
-65.469186384121997
 30
0.0
 11
-640.27727227892296
 21
-60.969186384122047
 31
0.0
  0
LINE
  5
11B
  8
1
 62
     7
 10
-679.77727227892308
 20
-60.969186384122047
 30
0.0
 11
-640.27727227892296
 21
-60.969186384122047
 31
0.0
  0
LINE
  5
11C
  8
1
 62
     7
 10
-609.27727227892308
 20
-104.469186384122
 30
0.0
 11
-610.27727227892296
 21
-103.469186384122
 31
0.0
  0
LINE
  5
11D
  8
1
 62
     7
 10
-609.27727227892308
 20
-104.469186384122
 30
0.0
 11
-609.27727227892308
 21
-172.469186384122
 31
0.0
  0
LINE
  5
11E
  8
1
 62
     7
 10
-610.77727227892296
 20
-83.757879240071247
 30
0.0
 11
-612.77727227892308
 21
-67.469186384122054
 31
0.0
  0
LINE
  5
11F
  8
1
 62
     7
 10
-610.77727227892296
 20
-83.757879240071247
 30
0.0
 11
-610.77727227892296
 21
-193.1804935281728
 31
0.0
  0
LINE
  5
120
  8
1
 62
     7
 10
-619.77727227892296
 20
-67.469186384122054
 30
0.0
 11
-612.77727227892308
 21
-67.469186384122054
 31
0.0
  0
LINE
  5
121
  8
1
 62
     7
 10
-633.77727227892308
 20
-59.96918638412204
 30
0.0
 11
-619.77727227892296
 21
-59.96918638412204
 31
0.0
  0
LINE
  5
122
  8
1
 62
     7
 10
-633.77727227892308
 20
-59.96918638412204
 30
0.0
 11
-633.77727227892308
 21
-216.969186384122
 31
0.0
  0
LINE
  5
123
  8
1
 62
     7
 10
-619.77727227892296
 20
-59.96918638412204
 30
0.0
 11
-619.77727227892296
 21
-216.969186384122
 31
0.0
  0
LINE
  5
124
  8
1
 62
     7
 10
-682.27727227892296
 20
-63.469186384122047
 30
0.0
 11
-682.27727227892296
 21
-213.469186384122
 31
0.0
  0
LINE
  5
125
  8
1
 62
     7
 10
-610.77727227892296
 20
-103.469186384122
 30
0.0
 11
-610.27727227892296
 21
-103.469186384122
 31
0.0
  0
LINE
  5
126
  8
1
 62
     7
 10
-610.27727227892296
 20
-103.469186384122
 30
0.0
 11
-610.27727227892296
 21
-173.469186384122
 31
0.0
  0
LINE
  5
127
  8
1
 62
     7
 10
-612.77727227892308
 20
-67.469186384122054
 30
0.0
 11
-612.77727227892308
 21
-209.46918638412191
 31
0.0
  0
LINE
  5
128
  8
1
 62
     7
 10
-635.77727227892296
 20
-67.269186384122037
 30
0.0
 11
-633.77727227892308
 21
-67.269186384122037
 31
0.0
  0
LINE
  5
129
  8
1
 62
     7
 10
-635.77727227892296
 20
-65.469186384121997
 30
0.0
 11
-635.77727227892296
 21
-211.46918638412191
 31
0.0
  0
LINE
  5
12A
  8
1
 62
     7
 10
-640.27727227892296
 20
-60.969186384122047
 30
0.0
 11
-640.27727227892296
 21
-215.96918638412191
 31
0.0
  0
LINE
  5
12B
  8
1
 62
     7
 10
-679.77727227892308
 20
-60.969186384122047
 30
0.0
 11
-679.77727227892308
 21
-215.96918638412191
 31
0.0
  0
LINE
  5
12C
  8
1
 62
     7
 10
-679.17727227892283
 20
-60.969186384121997
 30
0.0
 11
-679.17727227892283
 21
-39.46918638412199
 31
0.0
  0
LINE
  5
12D
  8
1
 62
     7
 10
-682.17727227892283
 20
-63.369186384122031
 30
0.0
 11
-682.17727227892283
 21
-39.46918638412199
 31
0.0
  0
LINE
  5
12E
  8
1
 62
     7
 10
-667.96227227892291
 20
-35.912665252837392
 30
0.0
 11
-667.96227227892291
 21
-60.969186384121997
 31
0.0
  0
LINE
  5
12F
  8
1
 62
     7
 10
-670.59227227892302
 20
-35.912665252837392
 30
0.0
 11
-670.59227227892302
 21
-60.969186384121997
 31
0.0
  0
LINE
  5
130
  8
1
 62
     7
 10
-669.6886992917257
 20
-35.912665252837392
 30
0.0
 11
-669.6886992917257
 21
-30.912665252837389
 31
0.0
  0
LINE
  5
131
  8
1
 62
     7
 10
-670.02379846308474
 20
-35.912665252837392
 30
0.0
 11
-670.02379846308474
 21
-30.912665252837389
 31
0.0
  0
LINE
  5
132
  8
1
 62
     7
 10
-668.96922165910007
 20
-35.912665252837392
 30
0.0
 11
-668.96922165910007
 21
-30.912665252837389
 31
0.0
  0
LINE
  5
133
  8
1
 62
     7
 10
-668.55527562389102
 20
-35.912665252837392
 30
0.0
 11
-668.55527562389102
 21
-30.912665252837389
 31
0.0
  0
LINE
  5
134
  8
1
 62
     7
 10
-670.59227227892302
 20
-35.912665252837392
 30
0.0
 11
-667.96227227892291
 21
-35.912665252837392
 31
0.0
  0
LINE
  5
135
  8
1
 62
     7
 10
-669.30877910051299
 20
-35.912665252837392
 30
0.0
 11
-669.30877910051299
 21
-30.912665252837389
 31
0.0
  0
LINE
  5
136
  8
1
 62
     3
 10
-633.77727227892308
 20
-59.96918638412204
 30
0.0
 11
-619.77727227892296
 21
-216.969186384122
 31
0.0
  0
LINE
  5
137
  8
1
 62
     3
 10
-633.77727227892308
 20
-216.969186384122
 30
0.0
 11
-619.77727227892296
 21
-59.96918638412204
 31
0.0
  0
LINE
  5
138
  8
1
 62
     3
 10
-609.27727227892308
 20
-138.469186384122
 30
0.0
 11
-606.27727227892296
 21
-138.469186384122
 31
0.0
  0
LINE
  5
139
  8
1
 62
     3
 10
-682.27727227892296
 20
-138.469186384122
 30
0.0
 11
-685.27727227892296
 21
-138.469186384122
 31
0.0
  0
LINE
  5
13A
  8
1
 62
     7
 10
-904.06139652641923
 20
-94.137851580340353
 30
0.0
 11
-903.19279738334092
 21
-94.639337529414448
 31
0.0
  0
LINE
  5
13B
  8
1
 62
     7
 10
-910.06139652641934
 20
-104.5301564257535
 30
0.0
 11
-909.19279738334103
 21
-105.0316423748277
 31
0.0
  0
LINE
  5
13C
  8
1
 62
     7
 10
-910.06139652641934
 20
-172.40821634249011
 30
0.0
 11
-909.19279738334103
 21
-171.90673039341621
 31
0.0
  0
LINE
  5
13D
  8
1
 62
     7
 10
-904.06139652641923
 20
-182.80052118790351
 30
0.0
 11
-903.19279738334092
 21
-182.29903523882939
 31
0.0
  0
LINE
  5
13E
  8
1
 62
     7
 10
-845.27727227892296
 20
-216.73955114627179
 30
0.0
 11
-845.27727227892296
 21
-215.7365792481238
 31
0.0
  0
LINE
  5
13F
  8
1
 62
     7
 10
-833.27727227892308
 20
-216.73955114627191
 30
0.0
 11
-833.27727227892308
 21
-215.7365792481238
 31
0.0
  0
LINE
  5
140
  8
1
 62
     7
 10
-774.49314803142681
 20
-182.80052118790351
 30
0.0
 11
-775.36174717450513
 21
-182.2990352388295
 31
0.0
  0
LINE
  5
141
  8
1
 62
     7
 10
-768.49314803142681
 20
-172.40821634249031
 30
0.0
 11
-769.36174717450501
 21
-171.9067303934163
 31
0.0
  0
LINE
  5
142
  8
1
 62
     7
 10
-768.49314803142681
 20
-104.5301564257535
 30
0.0
 11
-769.36174717450501
 21
-105.0316423748276
 31
0.0
  0
LINE
  5
143
  8
1
 62
     7
 10
-774.49314803142681
 20
-94.137851580340353
 30
0.0
 11
-775.3617471745049
 21
-94.639337529414405
 31
0.0
  0
LINE
  5
144
  8
1
 62
     7
 10
-846.27727227892296
 20
-110.969186384122
 30
0.0
 11
-832.27727227892308
 21
-110.969186384122
 31
0.0
  0
LINE
  5
145
  8
1
 62
     7
 10
-832.27727227892308
 20
-110.969186384122
 30
0.0
 11
-832.27727227892308
 21
-114.469186384122
 31
0.0
  0
LINE
  5
146
  8
1
 62
     7
 10
-846.27727227892296
 20
-110.969186384122
 30
0.0
 11
-846.27727227892296
 21
-114.469186384122
 31
0.0
  0
LINE
  5
147
  8
1
 62
     7
 10
-845.27727227892296
 20
-39.46918638412199
 30
0.0
 11
-833.27727227892308
 21
-39.46918638412199
 31
0.0
  0
LINE
  5
148
  8
1
 62
     7
 10
-831.27727227892296
 20
-41.46918638412199
 30
0.0
 11
-831.27727227892296
 21
-76.469186384121997
 31
0.0
  0
LINE
  5
149
  8
1
 62
     7
 10
-847.27727227892296
 20
-41.46918638412199
 30
0.0
 11
-847.27727227892296
 21
-76.469186384121997
 31
0.0
  0
LINE
  5
14A
  8
1
 62
     7
 10
-821.51176807298566
 20
-62.005882372924347
 30
0.0
 11
-815.27906919014561
 21
-38.74513347388681
 31
0.0
  0
LINE
  5
14B
  8
1
 62
     7
 10
-812.31737352576329
 20
-34.3623365333344
 30
0.0
 11
-813.61146875127599
 21
-39.191965664779737
 31
0.0
  0
LINE
  5
14C
  8
1
 62
     7
 10
-811.99369258177978
 20
-34.449066580880142
 30
0.0
 11
-813.28778780729215
 21
-39.278695712325458
 31
0.0
  0
LINE
  5
14D
  8
1
 62
     7
 10
-813.01233555255419
 20
-34.176122019485511
 30
0.0
 11
-814.30643077806667
 21
-39.005751150930841
 31
0.0
  0
LINE
  5
14E
  8
1
 62
     7
 10
-813.4121767186524
 20
-34.068984901928687
 30
0.0
 11
-814.70627194416522
 21
-38.898614033374017
 31
0.0
  0
LINE
  5
14F
  8
1
 62
     7
 10
-812.73868426700517
 20
-39.42582756250642
 30
0.0
 11
-818.9599772383749
 21
-62.644009020430147
 31
0.0
  0
LINE
  5
150
  8
1
 62
     7
 10
-816.43099822670524
 20
-63.367270550163667
 30
0.0
 11
-810.19829934386496
 21
-40.10652165112603
 31
0.0
  0
LINE
  5
151
  8
1
 62
     7
 10
-809.77698860262308
 20
-35.043030621954017
 30
0.0
 11
-811.07108382813556
 21
-39.872659753399347
 31
0.0
  0
LINE
  5
152
  8
1
 62
     7
 10
-809.45330765863957
 20
-35.129760669499753
 30
0.0
 11
-810.74740288415205
 21
-39.959389800945068
 31
0.0
  0
LINE
  5
153
  8
1
 62
     7
 10
-810.47195062941375
 20
-34.856816108105107
 30
0.0
 11
-811.76604585492646
 21
-39.686445239550451
 31
0.0
  0
LINE
  5
154
  8
1
 62
     7
 10
-810.87179179551219
 20
-34.749678990548297
 30
0.0
 11
-812.16588702102479
 21
-39.579308121993627
 31
0.0
  0
LINE
  5
155
  8
1
 62
     7
 10
-815.27906919014561
 20
-38.74513347388681
 30
0.0
 11
-810.19829934386496
 21
-40.10652165112603
 31
0.0
  0
LINE
  5
156
  8
1
 62
     7
 10
-810.13042479072146
 20
-34.948327680777091
 30
0.0
 11
-811.42452001623417
 21
-39.777956812222421
 31
0.0
  0
LINE
  5
157
  8
1
 62
     7
 10
-812.70622362010317
 20
-34.258144464579239
 30
0.0
 11
-814.00031884561565
 21
-39.087773596024583
 31
0.0
  0
LINE
  5
158
  8
1
  6
DASHDOT
 62
     3
 10
-834.710650770558
 20
-47.46918638412199
 30
0.0
 11
-843.84389378728815
 21
-47.46918638412199
 31
0.0
  0
LINE
  5
159
  8
1
  6
DASHDOT
 62
     3
 10
-839.27727227892296
 20
-42.902564875756973
 30
0.0
 11
-839.27727227892296
 21
-52.035807892487007
 31
0.0
  0
LINE
  5
15A
  8
1
  6
DASHDOT
 62
     3
 10
-832.25086752507798
 20
-138.469186384122
 30
0.0
 11
-846.30367703276806
 21
-138.469186384122
 31
0.0
  0
LINE
  5
15B
  8
1
  6
DASHDOT
 62
     3
 10
-839.27727227892296
 20
-131.44278163027701
 30
0.0
 11
-839.27727227892296
 21
-145.4955911379669
 31
0.0
  0
LINE
  5
15C
  8
1
 62
     7
 10
-460.27727227892302
 20
-98.569186384122006
 30
0.0
 11
-460.27727227892302
 21
-104.969186384122
 31
0.0
  0
LINE
  5
15D
  8
1
 62
     7
 10
-482.27727227892302
 20
-103.469186384122
 30
0.0
 11
-462.77727227892302
 21
-103.469186384122
 31
0.0
  0
LINE
  5
15E
  8
1
 62
     7
 10
-460.27727227892302
 20
-178.369186384122
 30
0.0
 11
-460.27727227892302
 21
-171.96918638412191
 31
0.0
  0
ARC
  5
15F
  8
1
 62
     7
 10
-294.77727227892302
 20
-41.46918638412199
 30
0.0
 40
2.0
 50
0.0
 51
90.0
  0
ARC
  5
160
  8
1
 62
     7
 10
-306.77727227892302
 20
-41.46918638412199
 30
0.0
 40
2.0
 50
90.0
 51
180.0
  0
ARC
  5
161
  8
1
 62
     7
 10
-833.27727227892308
 20
-41.46918638412199
 30
0.0
 40
2.0
 50
0.0
 51
90.0
  0
ARC
  5
162
  8
1
 62
     7
 10
-845.27727227892296
 20
-41.46918638412199
 30
0.0
 40
2.0
 50
90.0
 51
180.0
  0
ARC
  5
163
  8
1
 62
     7
 10
-300.77727227892302
 20
-138.469186384122
 30
0.0
 40
78.499999999999957
 50
34.383570488045763
 51
85.616429511954294
  0
ARC
  5
164
  8
1
 62
     7
 10
-300.77727227892302
 20
-138.469186384122
 30
0.0
 40
78.499999999999986
 50
94.38357048804572
 51
145.61642951195421
  0
ARC
  5
165
  8
1
 62
     7
 10
-300.77727227892302
 20
-138.469186384122
 30
0.0
 40
78.5
 50
154.38357048804571
 51
205.61642951195421
  0
ARC
  5
166
  8
1
 62
     7
 10
-300.77727227892302
 20
-138.469186384122
 30
0.0
 40
78.499999999999929
 50
214.38357048804571
 51
265.61642951195432
  0
ARC
  5
167
  8
1
 62
     7
 10
-300.77727227892302
 20
-138.469186384122
 30
0.0
 40
78.499999999999986
 50
274.38357048804562
 51
325.61642951195432
  0
ARC
  5
168
  8
1
 62
     7
 10
-300.77727227892302
 20
-138.469186384122
 30
0.0
 40
78.499999999999929
 50
334.38357048804568
 51
25.61642951195434
  0
ARC
  5
169
  8
1
 62
     7
 10
-300.77727227892302
 20
-138.469186384122
 30
0.0
 40
77.499999999999915
 50
85.559754534081705
 51
94.440245465918281
  0
ARC
  5
16A
  8
1
 62
     7
 10
-300.77727227892302
 20
-138.469186384122
 30
0.0
 40
77.499999999999915
 50
145.55975453408161
 51
154.44024546591831
  0
ARC
  5
16B
  8
1
 62
     7
 10
-300.77727227892302
 20
-138.469186384122
 30
0.0
 40
77.5
 50
205.55975453408169
 51
214.44024546591831
  0
ARC
  5
16C
  8
1
 62
     7
 10
-300.77727227892302
 20
-138.469186384122
 30
0.0
 40
77.499999999999844
 50
265.55975453408161
 51
274.44024546591828
  0
ARC
  5
16D
  8
1
 62
     7
 10
-300.77727227892302
 20
-138.469186384122
 30
0.0
 40
77.499999999999901
 50
325.55975453408172
 51
334.44024546591828
  0
ARC
  5
16E
  8
1
 62
     7
 10
-300.77727227892302
 20
-138.469186384122
 30
0.0
 40
77.499999999999986
 50
25.559754534081751
 51
34.440245465918302
  0
ARC
  5
16F
  8
1
 62
     7
 10
-300.77727227892302
 20
-138.469186384122
 30
0.0
 40
25.0
 50
106.260204708312
 51
73.739795291688054
  0
ARC
  5
170
  8
1
 62
     7
 10
-839.27727227892296
 20
-138.469186384122
 30
0.0
 40
78.499999999999986
 50
95.849215099215243
 51
145.61642951195429
  0
ARC
  5
171
  8
1
 62
     7
 10
-839.27727227892296
 20
-138.469186384122
 30
0.0
 40
78.500000000000099
 50
154.38357048804571
 51
205.61642951195421
  0
ARC
  5
172
  8
1
 62
     7
 10
-839.27727227892296
 20
-138.469186384122
 30
0.0
 40
78.500000000000028
 50
214.38357048804571
 51
265.61642951195432
  0
ARC
  5
173
  8
1
 62
     7
 10
-839.27727227892296
 20
-138.469186384122
 30
0.0
 40
78.499999999999986
 50
274.38357048804562
 51
325.61642951195432
  0
ARC
  5
174
  8
1
 62
     7
 10
-839.27727227892296
 20
-138.469186384122
 30
0.0
 40
78.499999999999858
 50
334.38357048804568
 51
25.616429511954369
  0
ARC
  5
175
  8
1
 62
     7
 10
-839.27727227892296
 20
-138.469186384122
 30
0.0
 40
25.0
 50
106.260204708312
 51
73.739795291688054
  0
ARC
  5
176
  8
1
 62
     7
 10
-839.27727227892296
 20
-138.469186384122
 30
0.0
 40
78.499999999999901
 50
34.383570488045791
 51
84.150784900784728
  0
ARC
  5
177
  8
1
 62
     7
 10
-839.27727227892296
 20
-138.469186384122
 30
0.0
 40
77.500000000000028
 50
95.924957285984519
 51
84.075042714015467
  0
ARC
  5
178
  8
1
 62
     7
 10
-839.27727227892296
 20
-76.469186384121997
 30
0.0
 40
8.0
 50
180.0
 51
0.0
  0
ARC
  5
179
  8
1
 62
     7
 10
-839.27727227892296
 20
-138.469186384122
 30
0.0
 40
75.0
 50
96.123198866269405
 51
83.876801133730595
  0
CIRCLE
  5
17A
  8
1
 62
     7
 10
-519.27727227892296
 20
-97.219186384122011
 30
0.0
 40
5.25
  0
CIRCLE
  5
17B
  8
1
 62
     7
 10
-508.27727227892302
 20
-97.219186384122011
 30
0.0
 40
5.25
  0
CIRCLE
  5
17C
  8
1
 62
     7
 10
-300.77727227892302
 20
-138.469186384122
 30
0.0
 40
54.711307144050842
  0
CIRCLE
  5
17D
  8
1
 62
     7
 10
-300.77727227892302
 20
-138.469186384122
 30
0.0
 40
44.0
  0
CIRCLE
  5
17E
  8
1
 62
     7
 10
-300.77727227892302
 20
-138.469186384122
 30
0.0
 40
71.000000000000028
  0
CIRCLE
  5
17F
  8
1
 62
     7
 10
-300.77727227892302
 20
-138.469186384122
 30
0.0
 40
35.0
  0
CIRCLE
  5
180
  8
1
 62
     7
 10
-300.77727227892302
 20
-47.46918638412199
 30
0.0
 40
3.25
  0
CIRCLE
  5
181
  8
1
 62
     7
 10
-519.27727227892296
 20
-179.719186384122
 30
0.0
 40
5.25
  0
CIRCLE
  5
182
  8
1
 62
     7
 10
-508.27727227892302
 20
-179.719186384122
 30
0.0
 40
5.25
  0
CIRCLE
  5
183
  8
1
 62
     7
 10
-839.27727227892296
 20
-47.46918638412199
 30
0.0
 40
3.25
  0
CIRCLE
  5
184
  8
1
 62
     7
 10
-839.27727227892296
 20
-138.469186384122
 30
0.0
 40
32.5
  0
CIRCLE
  5
185
  8
1
 62
     7
 10
-839.27727227892296
 20
-138.469186384122
 30
0.0
 40
50.0
  0
TEXT
  5
187
  8
1
 62
     7
 10
-913.53996458661516
 20
11.333199214311049
 30
0.0
 40
9.0
  1
MWC 20
 41
0.9
  7
SIMPLEX
  0
ENDSEC
  0
EOF
