  0
SECTION
  2
HEADER
  9
$ACADVER
  1
AC1009
  9
$INSBASE
 10
0.0
 20
0.0
 30
0.0
  9
$EXTMIN
 10
-1355.205369135939
 20
-186.8694257125851
 30
0.0
  9
$EXTMAX
 10
176.05725034840481
 20
392.47598638627198
 30
0.0
  9
$LIMMIN
 10
-1355.205369135939
 20
-186.8694257125851
  9
$LIMMAX
 10
176.05725034840481
 20
392.47598638627193
  9
$ORTHOMODE
 70
     0
  9
$REGENMODE
 70
     1
  9
$FILLMODE
 70
     1
  9
$QTEXTMODE
 70
     0
  9
$MIRRTEXT
 70
     1
  9
$DRAGMODE
 70
     2
  9
$LTSCALE
 40
1.0
  9
$OSMODE
 70
    37
  9
$ATTMODE
 70
     1
  9
$TEXTSIZE
 40
3.5
  9
$TRACEWID
 40
0.5
  9
$TEXTSTYLE
  7
STANDARD
  9
$CLAYER
  8
0
  9
$CELTYPE
  6
BYLAYER
  9
$CECOLOR
 62
   256
  9
$DIMSCALE
 40
1.0
  9
$DIMASZ
 40
0.18
  9
$DIMEXO
 40
0.0625
  9
$DIMDLI
 40
0.38
  9
$DIMRND
 40
0.0
  9
$DIMDLE
 40
0.0
  9
$DIMEXE
 40
0.18
  9
$DIMTP
 40
0.0
  9
$DIMTM
 40
0.0
  9
$DIMTXT
 40
0.18
  9
$DIMCEN
 40
0.09
  9
$DIMTSZ
 40
0.0
  9
$DIMTOL
 70
     0
  9
$DIMLIM
 70
     0
  9
$DIMTIH
 70
     1
  9
$DIMTOH
 70
     1
  9
$DIMSE1
 70
     0
  9
$DIMSE2
 70
     0
  9
$DIMTAD
 70
     0
  9
$DIMZIN
 70
     0
  9
$DIMBLK
  1

  9
$DIMASO
 70
     1
  9
$DIMSHO
 70
     1
  9
$DIMPOST
  1

  9
$DIMAPOST
  1

  9
$DIMALT
 70
     0
  9
$DIMALTD
 70
     2
  9
$DIMALTF
 40
25.399999999999999
  9
$DIMLFAC
 40
1.0
  9
$DIMTOFL
 70
     0
  9
$DIMTVP
 40
0.0
  9
$DIMTIX
 70
     0
  9
$DIMSOXD
 70
     0
  9
$DIMSAH
 70
     0
  9
$DIMBLK1
  1

  9
$DIMBLK2
  1

  9
$DIMSTYLE
  2
STANDARD
  9
$DIMCLRD
 70
     0
  9
$DIMCLRE
 70
     0
  9
$DIMCLRT
 70
     0
  9
$DIMTFAC
 40
1.0
  9
$DIMGAP
 40
0.09
  9
$LUNITS
 70
     2
  9
$LUPREC
 70
     4
  9
$SKETCHINC
 40
0.1
  9
$FILLETRAD
 40
2.0
  9
$AUNITS
 70
     0
  9
$AUPREC
 70
     0
  9
$MENU
  1
ACAD
  9
$ELEVATION
 40
0.0
  9
$PELEVATION
 40
0.0
  9
$THICKNESS
 40
0.0
  9
$LIMCHECK
 70
     0
  9
$BLIPMODE
 70
     0
  9
$CHAMFERA
 40
0.0
  9
$CHAMFERB
 40
0.0
  9
$SKPOLY
 70
     0
  9
$TDCREATE
 40
2452095.0458983802
  9
$TDUPDATE
 40
2452095.047070601
  9
$TDINDWG
 40
0.0011893519
  9
$TDUSRTIMER
 40
0.0011893519
  9
$USRTIMER
 70
     1
  9
$ANGBASE
 50
0.0
  9
$ANGDIR
 70
     0
  9
$PDMODE
 70
     0
  9
$PDSIZE
 40
0.0
  9
$PLINEWID
 40
0.0
  9
$COORDS
 70
     1
  9
$SPLFRAME
 70
     0
  9
$SPLINETYPE
 70
     6
  9
$SPLINESEGS
 70
     8
  9
$ATTDIA
 70
     0
  9
$ATTREQ
 70
     1
  9
$HANDLING
 70
 10241
  9
$HANDSEED
  5
1B0
  9
$SURFTAB1
 70
     6
  9
$SURFTAB2
 70
     6
  9
$SURFTYPE
 70
     6
  9
$SURFU
 70
     6
  9
$SURFV
 70
     6
  9
$UCSNAME
  2

  9
$UCSORG
 10
0.0
 20
0.0
 30
0.0
  9
$UCSXDIR
 10
1.0
 20
0.0
 30
0.0
  9
$UCSYDIR
 10
0.0
 20
1.0
 30
0.0
  9
$PUCSNAME
  2

  9
$PUCSORG
 10
0.0
 20
0.0
 30
0.0
  9
$PUCSXDIR
 10
1.0
 20
0.0
 30
0.0
  9
$PUCSYDIR
 10
0.0
 20
1.0
 30
0.0
  9
$USERI1
 70
     0
  9
$USERI2
 70
     0
  9
$USERI3
 70
     0
  9
$USERI4
 70
     0
  9
$USERI5
 70
     0
  9
$USERR1
 40
0.0
  9
$USERR2
 40
0.0
  9
$USERR3
 40
0.0
  9
$USERR4
 40
0.0
  9
$USERR5
 40
0.0
  9
$WORLDVIEW
 70
     1
  9
$SHADEDGE
 70
     3
  9
$SHADEDIF
 70
    70
  9
$TILEMODE
 70
     1
  9
$MAXACTVP
 70
    64
  9
$PLIMCHECK
 70
     0
  9
$PEXTMIN
 10
1.0000000000000000E+020
 20
1.0000000000000000E+020
 30
1.0000000000000000E+020
  9
$PEXTMAX
 10
-1.0000000000000000E+020
 20
-1.0000000000000000E+020
 30
-1.0000000000000000E+020
  9
$PLIMMIN
 10
0.0
 20
0.0
  9
$PLIMMAX
 10
12.0
 20
9.0
  9
$UNITMODE
 70
     0
  9
$VISRETAIN
 70
     1
  9
$PLINEGEN
 70
     0
  9
$PSLTSCALE
 70
     1
  0
ENDSEC
  0
SECTION
  2
TABLES
  0
TABLE
  2
VPORT
 70
     2
  0
VPORT
  2
*ACTIVE
 70
     0
 10
0.0
 20
0.0
 11
1.0
 21
1.0
 12
-1273.7990149840321
 22
352.33114316766643
 13
0.0
 23
0.0
 14
1.0
 24
1.0
 15
0.0
 25
0.0
 16
0.0
 26
0.0
 36
1.0
 17
0.0
 27
0.0
 37
0.0
 40
9.0000002773046965
 41
2.4144144144144142
 42
50.0
 43
0.0
 44
0.0
 50
0.0
 51
0.0
 71
     0
 72
   100
 73
     1
 74
     1
 75
     0
 76
     0
 77
     0
 78
     0
  0
ENDTAB
  0
TABLE
  2
LTYPE
 70
     9
  0
LTYPE
  2
CONTINUOUS
 70
     0
  3
Solid line
 72
    65
 73
     0
 40
0.0
  0
LTYPE
  2
BORDER
 70
     0
  3
__ __ . __ __ .
 72
    65
 73
     6
 40
70.518673265726363
 49
20.148192361636099
 49
-10.074096180818049
 49
20.148192361636099
 49
-10.074096180818049
 49
0.0
 49
-10.074096180818049
  0
LTYPE
  2
CENTER
 70
     0
  3
____ _ ____ _
 72
    65
 73
     4
 40
80.592769446544395
 49
50.370480904090257
 49
-10.074096180818049
 49
10.074096180818049
 49
-10.074096180818049
  0
LTYPE
  2
DASHDOT
 70
     0
  3
__ . __ . __ .
 72
    65
 73
     4
 40
40.296384723272212
 49
20.148192361636099
 49
-10.074096180818049
 49
0.0
 49
-10.074096180818049
  0
LTYPE
  2
DASHED
 70
     0
  3
__ __ __ __ __
 72
    65
 73
     2
 40
30.222288542454141
 49
20.148192361636099
 49
-10.074096180818049
  0
LTYPE
  2
DIVIDE
 70
     0
  3
__ . . __ . . 
 72
    65
 73
     6
 40
50.370480904090257
 49
20.148192361636099
 49
-10.074096180818049
 49
0.0
 49
-10.074096180818049
 49
0.0
 49
-10.074096180818049
  0
LTYPE
  2
DOT
 70
     0
  3
..............
 72
    65
 73
     4
 40
20.148192361636099
 49
0.0
 49
-10.074096180818049
 49
0.0
 49
-10.074096180818049
  0
LTYPE
  2
HIDDEN
 70
     0
  3
_ _ _ _ _ _ _
 72
    65
 73
     2
 40
15.111144271227079
 49
10.074096180818049
 49
-5.0370480904090256
  0
LTYPE
  2
PHANTOM
 70
     0
  3
_____ _ _ _____ _ _ 
 72
    65
 73
     6
 40
100.7409618081805
 49
50.370480904090257
 49
-10.074096180818049
 49
10.074096180818049
 49
-10.074096180818049
 49
10.074096180818049
 49
-10.074096180818049
  0
ENDTAB
  0
TABLE
  2
LAYER
 70
     2
  0
LAYER
  2
0
 70
     0
 62
     7
  6
CONTINUOUS
  0
LAYER
  2
1
 70
     0
 62
     7
  6
CONTINUOUS
  0
ENDTAB
  0
TABLE
  2
STYLE
 70
     4
  0
STYLE
  2
STANDARD
 70
     0
 40
0.0
 41
1.0
 50
0.0
 71
     0
 42
3.5
  3
txt
  4

  0
STYLE
  2
SIMPLEX
 70
     0
 40
0.0
 41
1.0
 50
0.0
 71
     0
 42
3.5
  3
simplex
  4

  0
STYLE
  2
COMPLEX
 70
     0
 40
0.0
 41
1.0
 50
0.0
 71
     0
 42
3.5
  3
complex
  4

  0
STYLE
  2
ITALIC
 70
     0
 40
0.0
 41
1.0
 50
0.0
 71
     0
 42
3.5
  3
italic
  4

  0
ENDTAB
  0
TABLE
  2
VIEW
 70
     0
  0
ENDTAB
  0
TABLE
  2
UCS
 70
     0
  0
ENDTAB
  0
TABLE
  2
APPID
 70
     1
  0
APPID
  2
ACAD
 70
     0
  0
ENDTAB
  0
TABLE
  2
DIMSTYLE
 70
     1
  0
DIMSTYLE
  2
STANDARD
 70
     0
  3

  4

  5

  6

  7

 40
1.0
 41
0.18
 42
0.0625
 43
0.38
 44
0.18
 45
0.0
 46
0.0
 47
0.0
 48
0.0
140
0.18
141
0.09
142
0.0
143
25.399999999999999
144
1.0
145
0.0
146
1.0
147
0.09
 71
     0
 72
     0
 73
     1
 74
     1
 75
     0
 76
     0
 77
     0
 78
     0
170
     0
171
     2
172
     0
173
     0
174
     0
175
     0
176
     0
177
     0
178
     0
  0
ENDTAB
  0
ENDSEC
  0
SECTION
  2
BLOCKS
  0
BLOCK
  8
0
  2
$MODEL_SPACE
 70
     0
 10
0.0
 20
0.0
 30
0.0
  3
$MODEL_SPACE
  1

  0
ENDBLK
  5
20
  8
0
  0
BLOCK
 67
     1
  8
0
  2
$PAPER_SPACE
 70
     0
 10
0.0
 20
0.0
 30
0.0
  3
$PAPER_SPACE
  1

  0
ENDBLK
  5
1C
 67
     1
  8
0
  0
ENDSEC
  0
SECTION
  2
ENTITIES
  0
LINE
  5
33
  8
1
 62
     7
 10
-415.20536913593912
 20
133.82114899925571
 30
0.0
 11
-396.20536913593918
 21
133.82114899925571
 31
0.0
  0
LINE
  5
34
  8
1
  6
DASHED
 62
     7
 10
47.100600625002699
 20
-52.557735183274417
 30
0.0
 11
71.86755759892776
 21
-77.32469215720019
 31
0.0
  0
LINE
  5
35
  8
1
  6
DASHED
 62
     7
 10
-23.521633834125169
 20
-49.022201277341608
 30
0.0
 11
-48.28859080805114
 21
-73.789158251267352
 31
0.0
  0
LINE
  5
36
  8
1
  6
DASHED
 62
     7
 10
-19.986099928192282
 20
21.600033181785879
 30
0.0
 11
-44.753056902118253
 21
46.366990155711612
 31
0.0
  0
LINE
  5
37
  8
1
  6
DASHDOT
 62
     3
 10
46.120762378452817
 20
-48.042363030792558
 30
0.0
 11
76.560449504253697
 21
-78.482050156593019
 31
0.0
  0
LINE
  5
38
  8
1
  6
DASHDOT
 62
     3
 10
-19.006261681643309
 20
-48.042363030792529
 30
0.0
 11
-49.445948807444211
 21
-78.482050156592948
 31
0.0
  0
LINE
  5
39
  8
1
  6
DASHDOT
 62
     3
 10
-19.006261681643309
 20
17.084661029304019
 30
0.0
 11
-49.445948807444211
 21
47.524348155104462
 31
0.0
  0
LINE
  5
3A
  8
1
  6
DASHED
 62
     7
 10
50.636134530935813
 20
-49.022201277341779
 30
0.0
 11
75.403091504860882
 21
-73.789158251267523
 31
0.0
  0
LINE
  5
3B
  8
1
  6
DASHED
 62
     7
 10
-19.986099928192282
 20
-52.557735183274417
 30
0.0
 11
-44.753056902118253
 21
-77.324692157200161
 31
0.0
  0
LINE
  5
3C
  8
1
  6
DASHED
 62
     7
 10
-23.521633834125169
 20
18.064499275853219
 30
0.0
 11
-48.28859080805114
 21
42.831456249778967
 31
0.0
  0
LINE
  5
3D
  8
1
  6
DASHED
 62
     7
 10
50.636134530934889
 20
18.064499275853219
 30
0.0
 11
75.403091504860882
 21
42.831456249778967
 31
0.0
  0
LINE
  5
3E
  8
1
  6
DASHED
 62
     7
 10
47.100600625002699
 20
21.600033181786031
 30
0.0
 11
71.86755759892776
 21
46.366990155711783
 31
0.0
  0
LINE
  5
3F
  8
1
  6
DASHDOT
 62
     3
 10
46.120762378452817
 20
17.08466102930414
 30
0.0
 11
76.560449504253697
 21
47.524348155104583
 31
0.0
  0
LINE
  5
40
  8
1
 62
     7
 10
-0.4427496515952499
 20
41.021148999255793
 30
0.0
 11
-0.4427496515952499
 21
32.5211489992558
 31
0.0
  0
LINE
  5
41
  8
1
 62
     7
 10
27.55725034840475
 20
41.021148999255793
 30
0.0
 11
27.55725034840475
 21
32.5211489992558
 31
0.0
  0
LINE
  5
42
  8
1
 62
     7
 10
-0.4427496515952499
 20
41.021148999255793
 30
0.0
 11
27.55725034840475
 21
41.021148999255793
 31
0.0
  0
LINE
  5
43
  8
1
 62
     7
 10
-6.4427496515952498
 20
145.78568322795709
 30
0.0
 11
-6.4427496515952498
 21
134.5211489992557
 31
0.0
  0
LINE
  5
44
  8
1
 62
     7
 10
33.55725034840475
 20
145.78568322795709
 30
0.0
 11
33.55725034840475
 21
134.5211489992557
 31
0.0
  0
LINE
  5
45
  8
1
 62
     7
 10
-6.4427496515952498
 20
134.5211489992557
 30
0.0
 11
33.55725034840475
 21
134.5211489992557
 31
0.0
  0
LINE
  5
46
  8
1
  6
DASHDOT
 62
     3
 10
-134.87134132126431
 20
70.216436355176413
 30
0.0
 11
-107.90648453048129
 21
54.648269028357909
 31
0.0
  0
LINE
  5
47
  8
1
 62
     7
 10
-136.10193302311521
 20
47.832908037917719
 30
0.0
 11
-126.34656021926121
 21
42.200640923567029
 31
0.0
  0
LINE
  5
48
  8
1
 62
     7
 10
-116.10193302311519
 20
82.473924189295275
 30
0.0
 11
-106.34656021926121
 21
76.841657074944564
 31
0.0
  0
LINE
  5
49
  8
1
 62
     7
 10
-126.34656021926121
 20
42.200640923567029
 30
0.0
 11
-106.34656021926121
 21
76.841657074944564
 31
0.0
  0
LINE
  5
4A
  8
1
  6
DASHDOT
 62
     3
 10
-134.87134132126431
 20
-101.1741383566647
 30
0.0
 11
-107.90648453048129
 21
-85.605971029846273
 31
0.0
  0
LINE
  5
4B
  8
1
 62
     7
 10
-116.10193302311519
 20
-113.4316261907835
 30
0.0
 11
-106.34656021926121
 21
-107.79935907643291
 31
0.0
  0
LINE
  5
4C
  8
1
 62
     7
 10
-136.10193302311521
 20
-78.790610039406076
 30
0.0
 11
-126.34656021926121
 21
-73.158342925055365
 31
0.0
  0
LINE
  5
4D
  8
1
 62
     7
 10
-106.34656021926121
 20
-107.79935907643291
 30
0.0
 11
-126.34656021926121
 21
-73.158342925055365
 31
0.0
  0
LINE
  5
4E
  8
1
 62
     7
 10
33.55725034840475
 20
-176.74338522944549
 30
0.0
 11
33.55725034840475
 21
-165.4788510007441
 31
0.0
  0
LINE
  5
4F
  8
1
 62
     7
 10
-6.4427496515952498
 20
-176.74338522944541
 30
0.0
 11
-6.4427496515952498
 21
-165.4788510007439
 31
0.0
  0
LINE
  5
50
  8
1
 62
     7
 10
33.55725034840475
 20
-165.4788510007441
 30
0.0
 11
-6.4427496515952498
 21
-165.4788510007439
 31
0.0
  0
LINE
  5
51
  8
1
  6
DASHDOT
 62
     3
 10
161.98584201807381
 20
-101.1741383566647
 30
0.0
 11
135.02098522729079
 21
-85.605971029846302
 31
0.0
  0
LINE
  5
52
  8
1
 62
     7
 10
163.21643371992579
 20
-78.790610039406133
 30
0.0
 11
153.46106091607089
 21
-73.158342925055422
 31
0.0
  0
LINE
  5
53
  8
1
 62
     7
 10
143.21643371992491
 20
-113.4316261907837
 30
0.0
 11
133.46106091607081
 21
-107.79935907643291
 31
0.0
  0
LINE
  5
54
  8
1
 62
     7
 10
153.46106091607089
 20
-73.158342925055422
 30
0.0
 11
133.46106091607081
 21
-107.79935907643291
 31
0.0
  0
LINE
  5
55
  8
1
  6
DASHDOT
 62
     3
 10
161.98584201807381
 20
70.216436355176171
 30
0.0
 11
135.02098522729079
 21
54.648269028357689
 31
0.0
  0
LINE
  5
56
  8
1
 62
     7
 10
143.21643371992579
 20
82.473924189295047
 30
0.0
 11
133.46106091607081
 21
76.841657074944337
 31
0.0
  0
LINE
  5
57
  8
1
 62
     7
 10
163.21643371992579
 20
47.832908037917491
 30
0.0
 11
153.46106091607089
 21
42.200640923566802
 31
0.0
  0
LINE
  5
58
  8
1
 62
     7
 10
133.46106091607081
 20
76.841657074944337
 30
0.0
 11
153.46106091607089
 21
42.200640923566802
 31
0.0
  0
LINE
  5
59
  8
1
 62
     7
 10
-1.4427496515952489
 20
204.52114899925579
 30
0.0
 11
11.23725034840481
 21
204.52114899925579
 31
0.0
  0
LINE
  5
5A
  8
1
 62
     7
 10
-1.4427496515952489
 20
204.52114899925579
 30
0.0
 11
-1.4427496515952489
 21
146.32736025209991
 31
0.0
  0
LINE
  5
5B
  8
1
 62
     7
 10
1.757250348404795
 20
204.52114899925579
 30
0.0
 11
1.757250348404795
 21
146.5921519578356
 31
0.0
  0
LINE
  5
5C
  8
1
 62
     7
 10
25.35725034840469
 20
204.52114899925579
 30
0.0
 11
25.35725034840469
 21
146.5921519578356
 31
0.0
  0
LINE
  5
5D
  8
1
 62
     7
 10
28.55725034840475
 20
204.52114899925579
 30
0.0
 11
28.55725034840475
 21
146.32736025209991
 31
0.0
  0
LINE
  5
5E
  8
1
 62
     7
 10
13.55725034840475
 20
147.02114899925579
 30
0.0
 11
13.55725034840475
 21
233.00967536019999
 31
0.0
  0
LINE
  5
5F
  8
1
 62
     7
 10
11.23725034840481
 20
233.00967536019999
 30
0.0
 11
11.23725034840481
 21
147.00458692447941
 31
0.0
  0
LINE
  5
60
  8
1
 62
     7
 10
14.66655367702468
 20
233.00967536019999
 30
0.0
 11
14.66655367702468
 21
238.00967536019991
 31
0.0
  0
LINE
  5
61
  8
1
 62
     7
 10
15.115222828794909
 20
233.00967536019999
 30
0.0
 11
15.115222828794909
 21
238.00967536019991
 31
0.0
  0
LINE
  5
62
  8
1
 62
     7
 10
15.358786082614859
 20
233.00967536019999
 30
0.0
 11
15.358786082614859
 21
238.00967536019991
 31
0.0
  0
LINE
  5
63
  8
1
 62
     7
 10
14.435809541834709
 20
233.00967536019999
 30
0.0
 11
14.435809541834709
 21
238.00967536019991
 31
0.0
  0
LINE
  5
64
  8
1
 62
     7
 10
14.153788932144829
 20
233.00967536019999
 30
0.0
 11
14.153788932144829
 21
238.00967536019991
 31
0.0
  0
LINE
  5
65
  8
1
 62
     7
 10
12.30783585059476
 20
233.00967536019999
 30
0.0
 11
12.30783585059476
 21
238.00967536019991
 31
0.0
  0
LINE
  5
66
  8
1
 62
     7
 10
12.56421822303491
 20
233.00967536019999
 30
0.0
 11
12.56421822303491
 21
238.00967536019991
 31
0.0
  0
LINE
  5
67
  8
1
 62
     7
 10
12.87187706995473
 20
233.00967536019999
 30
0.0
 11
12.87187706995473
 21
238.00967536019991
 31
0.0
  0
LINE
  5
68
  8
1
 62
     7
 10
12.064272596774799
 20
233.00967536019999
 30
0.0
 11
12.064272596774799
 21
238.00967536019991
 31
0.0
  0
LINE
  5
69
  8
1
 62
     7
 10
11.74379463122477
 20
233.00967536019999
 30
0.0
 11
11.74379463122477
 21
238.00967536019991
 31
0.0
  0
LINE
  5
6A
  8
1
 62
     7
 10
11.23725034840481
 20
233.00967536019999
 30
0.0
 11
15.87725034840491
 21
233.00967536019999
 31
0.0
  0
LINE
  5
6B
  8
1
 62
     7
 10
15.87725034840491
 20
204.52114899925579
 30
0.0
 11
28.55725034840475
 21
204.52114899925579
 31
0.0
  0
LINE
  5
6C
  8
1
 62
     3
 10
-524.20536913593912
 20
-15.478851000744189
 30
0.0
 11
-521.20536913593912
 21
-15.478851000744189
 31
0.0
  0
LINE
  5
6D
  8
1
 62
     3
 10
-336.20536913593912
 20
-15.478851000744189
 30
0.0
 11
-333.20536913593912
 21
-15.478851000744189
 31
0.0
  0
LINE
  5
6E
  8
1
 62
     3
 10
-871.70536913593912
 20
-15.478851000744189
 30
0.0
 11
-868.70536913593889
 21
-15.478851000744189
 31
0.0
  0
LINE
  5
6F
  8
1
 62
     3
 10
-683.70536913593924
 20
-15.478851000744189
 30
0.0
 11
-680.70536913593889
 21
-15.478851000744189
 31
0.0
  0
LINE
  5
70
  8
1
 62
     7
 10
15.87725034840491
 20
233.00967536019999
 30
0.0
 11
15.87725034840491
 21
147.00458692447941
 31
0.0
  0
LINE
  5
71
  8
1
  6
DASHDOT
 62
     3
 10
32.939580542784817
 20
-15.478851000744189
 30
0.0
 11
-5.8250798459753241
 21
-15.478851000744189
 31
0.0
  0
LINE
  5
72
  8
1
  6
DASHDOT
 62
     3
 10
13.55725034840475
 20
3.9034791936358739
 30
0.0
 11
13.55725034840475
 21
-34.86118119512426
 31
0.0
  0
LINE
  5
73
  8
1
  6
DASHDOT
 62
     3
 10
13.557250348404979
 20
-186.8694257125851
 30
0.0
 11
13.55725034840475
 21
-155.7330910589485
 31
0.0
  0
LINE
  5
74
  8
1
  6
DASHDOT
 62
     3
 10
13.55725034840475
 20
147.02114899925579
 30
0.0
 11
13.557250348404979
 21
124.7753890574599
 31
0.0
  0
LINE
  5
75
  8
1
 62
     7
 10
-1163.2053691359381
 20
114.1321053262577
 30
0.0
 11
-1163.2053691359381
 21
126.1544784100975
 31
0.0
  0
LINE
  5
76
  8
1
 62
     7
 10
-1223.205369135939
 20
114.1321053262577
 30
0.0
 11
-1223.205369135939
 21
126.1544784100975
 31
0.0
  0
LINE
  5
77
  8
1
 62
     7
 10
-1178.205369135939
 20
204.52114899925579
 30
0.0
 11
-1178.205369135939
 21
110.62749206789449
 31
0.0
  0
LINE
  5
78
  8
1
 62
     7
 10
-1208.205369135939
 20
204.52114899925579
 30
0.0
 11
-1208.205369135939
 21
110.6785000145322
 31
0.0
  0
LINE
  5
79
  8
1
 62
     7
 10
-1208.205369135939
 20
204.52114899925579
 30
0.0
 11
-1178.205369135939
 21
204.52114899925579
 31
0.0
  0
LINE
  5
7A
  8
1
 62
     7
 10
-1215.205369135939
 20
122.83055007601421
 30
0.0
 11
-1217.205369135939
 21
121.6758495376351
 31
0.0
  0
LINE
  5
7B
  8
1
 62
     7
 10
-1217.205369135939
 20
121.6758495376351
 30
0.0
 11
-1217.205369135939
 21
119.3664484608766
 31
0.0
  0
LINE
  5
7C
  8
1
 62
     7
 10
-1217.205369135939
 20
119.3664484608766
 30
0.0
 11
-1215.205369135939
 21
118.2117479224972
 31
0.0
  0
LINE
  5
7D
  8
1
 62
     7
 10
-1215.205369135939
 20
118.2117479224972
 30
0.0
 11
-1213.205369135939
 21
119.3664484608766
 31
0.0
  0
LINE
  5
7E
  8
1
 62
     7
 10
-1213.205369135939
 20
119.3664484608766
 30
0.0
 11
-1213.205369135939
 21
121.6758495376351
 31
0.0
  0
LINE
  5
7F
  8
1
 62
     7
 10
-1213.205369135939
 20
121.6758495376351
 30
0.0
 11
-1215.205369135939
 21
122.83055007601421
 31
0.0
  0
LINE
  5
80
  8
1
 62
     7
 10
-1169.205369135939
 20
121.6758495376351
 30
0.0
 11
-1171.2053691359381
 21
122.83055007601421
 31
0.0
  0
LINE
  5
81
  8
1
 62
     7
 10
-1169.205369135939
 20
119.3664484608766
 30
0.0
 11
-1169.205369135939
 21
121.6758495376351
 31
0.0
  0
LINE
  5
82
  8
1
 62
     7
 10
-1171.2053691359381
 20
118.2117479224972
 30
0.0
 11
-1169.205369135939
 21
119.3664484608766
 31
0.0
  0
LINE
  5
83
  8
1
 62
     7
 10
-1173.2053691359381
 20
119.3664484608766
 30
0.0
 11
-1171.2053691359381
 21
118.2117479224972
 31
0.0
  0
LINE
  5
84
  8
1
 62
     7
 10
-1173.2053691359381
 20
121.6758495376351
 30
0.0
 11
-1173.2053691359381
 21
119.3664484608766
 31
0.0
  0
LINE
  5
85
  8
1
 62
     7
 10
-1171.2053691359381
 20
122.83055007601421
 30
0.0
 11
-1173.2053691359381
 21
121.6758495376351
 31
0.0
  0
LINE
  5
86
  8
1
 62
     7
 10
-1195.5253691359389
 20
233.00967536019999
 30
0.0
 11
-1195.5253691359389
 21
204.52114899925579
 31
0.0
  0
LINE
  5
87
  8
1
 62
     7
 10
-1192.0960658073191
 20
233.00967536019999
 30
0.0
 11
-1192.0960658073191
 21
238.00967536019991
 31
0.0
  0
LINE
  5
88
  8
1
 62
     7
 10
-1191.6473966555491
 20
233.00967536019999
 30
0.0
 11
-1191.6473966555491
 21
238.00967536019991
 31
0.0
  0
LINE
  5
89
  8
1
 62
     7
 10
-1191.403833401728
 20
233.00967536019999
 30
0.0
 11
-1191.403833401728
 21
238.00967536019991
 31
0.0
  0
LINE
  5
8A
  8
1
 62
     7
 10
-1192.326809942509
 20
233.00967536019999
 30
0.0
 11
-1192.326809942509
 21
238.00967536019991
 31
0.0
  0
LINE
  5
8B
  8
1
 62
     7
 10
-1192.6088305521989
 20
233.00967536019999
 30
0.0
 11
-1192.6088305521989
 21
238.00967536019991
 31
0.0
  0
LINE
  5
8C
  8
1
 62
     7
 10
-1194.454783633749
 20
233.00967536019999
 30
0.0
 11
-1194.454783633749
 21
238.00967536019991
 31
0.0
  0
LINE
  5
8D
  8
1
 62
     7
 10
-1194.1984012613091
 20
233.00967536019999
 30
0.0
 11
-1194.1984012613091
 21
238.00967536019991
 31
0.0
  0
LINE
  5
8E
  8
1
 62
     7
 10
-1193.8907424143879
 20
233.00967536019999
 30
0.0
 11
-1193.8907424143879
 21
238.00967536019991
 31
0.0
  0
LINE
  5
8F
  8
1
 62
     7
 10
-1194.6983468875681
 20
233.00967536019999
 30
0.0
 11
-1194.6983468875681
 21
238.00967536019991
 31
0.0
  0
LINE
  5
90
  8
1
 62
     7
 10
-1195.018824853119
 20
233.00967536019999
 30
0.0
 11
-1195.018824853119
 21
238.00967536019991
 31
0.0
  0
LINE
  5
91
  8
1
 62
     7
 10
-1195.5253691359389
 20
233.00967536019999
 30
0.0
 11
-1190.8853691359391
 21
233.00967536019999
 31
0.0
  0
LINE
  5
92
  8
1
 62
     7
 10
-1190.8853691359391
 20
233.00967536019999
 30
0.0
 11
-1190.8853691359391
 21
204.52114899925579
 31
0.0
  0
LINE
  5
93
  8
1
 62
     7
 10
-1193.205369135939
 20
204.52114899925579
 30
0.0
 11
-1193.205369135939
 21
233.00967536019999
 31
0.0
  0
LINE
  5
94
  8
1
  6
DASHDOT
 62
     3
 10
-1193.205369135939
 20
3.9034791936358739
 30
0.0
 11
-1193.205369135939
 21
-34.86118119512426
 31
0.0
  0
LINE
  5
95
  8
1
  6
DASHDOT
 62
     3
 10
-1173.823038941558
 20
-15.478851000744189
 30
0.0
 11
-1212.5876993303191
 21
-15.478851000744189
 31
0.0
  0
LINE
  5
96
  8
1
 62
     7
 10
-1207.205369135939
 20
41.021148999255793
 30
0.0
 11
-1207.205369135939
 21
32.5211489992558
 31
0.0
  0
LINE
  5
97
  8
1
 62
     7
 10
-1179.2053691359381
 20
41.021148999255793
 30
0.0
 11
-1179.2053691359381
 21
32.5211489992558
 31
0.0
  0
LINE
  5
98
  8
1
 62
     7
 10
-1207.205369135939
 20
41.021148999255793
 30
0.0
 11
-1179.2053691359381
 21
41.021148999255793
 31
0.0
  0
LINE
  5
99
  8
1
 62
     7
 10
-521.20536913593912
 20
49.521148999255793
 30
0.0
 11
-521.20536913593912
 21
-15.478851000744189
 31
0.0
  0
LINE
  5
9A
  8
1
 62
     7
 10
-347.20536913593912
 20
79.921148999255806
 30
0.0
 11
-343.20536913593912
 21
79.921148999255806
 31
0.0
  0
LINE
  5
9B
  8
1
 62
     7
 10
-343.20536913593912
 20
79.921148999255806
 30
0.0
 11
-343.20536913593912
 21
67.0211489992558
 31
0.0
  0
LINE
  5
9C
  8
1
 62
     7
 10
-339.20536913593912
 20
86.021148999255786
 30
0.0
 11
-342.20536913593912
 21
83.0211489992558
 31
0.0
  0
LINE
  5
9D
  8
1
 62
     7
 10
-433.20536913593918
 20
34.5211489992558
 30
0.0
 11
-379.20536913593918
 21
34.5211489992558
 31
0.0
  0
LINE
  5
9E
  8
1
 62
     7
 10
-379.20536913593918
 20
-15.47885100074426
 30
0.0
 11
-379.20536913593918
 21
35.0211489992558
 31
0.0
  0
LINE
  5
9F
  8
1
 62
     7
 10
-379.20536913593918
 20
35.0211489992558
 30
0.0
 11
-371.20536913593918
 21
35.021148999255722
 31
0.0
  0
LINE
  5
A0
  8
1
 62
     7
 10
-371.20536913593918
 20
35.021148999255722
 30
0.0
 11
-371.20536913593918
 21
-15.47885100074426
 31
0.0
  0
LINE
  5
A1
  8
1
 62
     7
 10
-337.20536913593912
 20
69.521148999255786
 30
0.0
 11
-336.20536913593912
 21
68.521148999255786
 31
0.0
  0
LINE
  5
A2
  8
1
 62
     3
 10
-391.20536913593912
 20
147.02114899925579
 30
0.0
 11
-359.20536913593912
 21
65.721148999255774
 31
0.0
  0
LINE
  5
A3
  8
1
 62
     3
 10
-391.20536913593912
 20
65.721148999255774
 30
0.0
 11
-359.20536913593912
 21
147.02114899925579
 31
0.0
  0
LINE
  5
A4
  8
1
 62
     7
 10
-391.20536913593912
 20
71.2711489992558
 30
0.0
 11
-347.20536913593912
 21
71.2711489992558
 31
0.0
  0
LINE
  5
A5
  8
1
 62
     7
 10
-347.20536913593912
 20
67.0211489992558
 30
0.0
 11
-343.20536913593912
 21
67.0211489992558
 31
0.0
  0
LINE
  5
A6
  8
1
 62
     7
 10
-337.20536913593912
 20
69.521148999255786
 30
0.0
 11
-343.20536913593912
 21
69.5211489992558
 31
0.0
  0
LINE
  5
A7
  8
1
 62
     7
 10
-391.20536913593912
 20
65.721148999255774
 30
0.0
 11
-336.20536913593912
 21
65.721148999255774
 31
0.0
  0
LINE
  5
A8
  8
1
 62
     7
 10
-359.20536913593912
 20
65.721148999255774
 30
0.0
 11
-359.20536913593912
 21
147.02114899925579
 31
0.0
  0
LINE
  5
A9
  8
1
 62
     7
 10
-344.20536913593912
 20
133.0211489992557
 30
0.0
 11
-339.20536913593912
 21
128.0211489992557
 31
0.0
  0
LINE
  5
AA
  8
1
 62
     7
 10
-347.20536913593912
 20
65.721148999255774
 30
0.0
 11
-347.20536913593912
 21
80.0211489992558
 31
0.0
  0
LINE
  5
AB
  8
1
 62
     7
 10
-344.20536913593912
 20
83.0211489992558
 30
0.0
 11
-342.20536913593912
 21
83.0211489992558
 31
0.0
  0
LINE
  5
AC
  8
1
 62
     7
 10
-339.20536913593912
 20
76.084399243284793
 30
0.0
 11
-339.20536913593912
 21
128.0211489992557
 31
0.0
  0
LINE
  5
AD
  8
1
 62
     7
 10
-359.20536913593912
 20
133.0211489992557
 30
0.0
 11
-344.20536913593912
 21
133.0211489992557
 31
0.0
  0
LINE
  5
AE
  8
1
 62
     7
 10
-359.20536913593912
 20
147.02114899925579
 30
0.0
 11
-391.20536913593912
 21
147.02114899925579
 31
0.0
  0
LINE
  5
AF
  8
1
 62
     7
 10
-391.20536913593912
 20
147.02114899925579
 30
0.0
 11
-391.20536913593912
 21
52.5211489992558
 31
0.0
  0
LINE
  5
B0
  8
1
 62
     7
 10
-415.20536913593912
 20
79.5211489992558
 30
0.0
 11
-415.20536913593912
 21
133.82114899925571
 31
0.0
  0
LINE
  5
B1
  8
1
 62
     7
 10
-521.20536913593912
 20
34.5211489992558
 30
0.0
 11
-441.20536913593918
 21
34.5211489992558
 31
0.0
  0
LINE
  5
B2
  8
1
 62
     7
 10
-433.20536913593918
 20
-15.47885100074426
 30
0.0
 11
-433.20536913593918
 21
35.021148999255722
 31
0.0
  0
LINE
  5
B3
  8
1
 62
     7
 10
-441.20536913593918
 20
-15.47885100074426
 30
0.0
 11
-441.20536913593918
 21
35.0211489992558
 31
0.0
  0
LINE
  5
B4
  8
1
 62
     7
 10
-441.20536913593918
 20
35.0211489992558
 30
0.0
 11
-433.20536913593918
 21
35.021148999255722
 31
0.0
  0
LINE
  5
B5
  8
1
 62
     7
 10
-521.20536913593912
 20
49.521148999255793
 30
0.0
 11
-509.20536913593912
 21
49.521148999255722
 31
0.0
  0
LINE
  5
B6
  8
1
 62
     7
 10
-505.20536913593912
 20
49.521148999255722
 30
0.0
 11
-438.20536913593912
 21
49.521148999255722
 31
0.0
  0
LINE
  5
B7
  8
1
 62
     7
 10
-438.20536913593912
 20
49.521148999255722
 30
0.0
 11
-438.20536913593912
 21
52.5211489992558
 31
0.0
  0
LINE
  5
B8
  8
1
 62
     7
 10
-391.20536913593912
 20
52.5211489992558
 30
0.0
 11
-439.20536913593912
 21
52.5211489992558
 31
0.0
  0
LINE
  5
B9
  8
1
 62
     7
 10
-439.20536913593912
 20
60.5211489992558
 30
0.0
 11
-437.20536913593918
 21
60.5211489992558
 31
0.0
  0
LINE
  5
BA
  8
1
 62
     7
 10
-437.20536913593918
 20
60.5211489992558
 30
0.0
 11
-437.20536913593918
 21
78.72114899925576
 31
0.0
  0
LINE
  5
BB
  8
1
 62
     7
 10
-437.20536913593918
 20
78.72114899925576
 30
0.0
 11
-413.20536913593912
 21
78.72114899925576
 31
0.0
  0
LINE
  5
BC
  8
1
 62
     7
 10
-413.20536913593912
 20
78.72114899925576
 30
0.0
 11
-413.20536913593912
 21
133.0211489992557
 31
0.0
  0
LINE
  5
BD
  8
1
 62
     7
 10
-413.20536913593912
 20
133.0211489992557
 30
0.0
 11
-391.20536913593912
 21
133.0211489992557
 31
0.0
  0
LINE
  5
BE
  8
1
 62
     7
 10
-439.20536913593912
 20
84.521148999255814
 30
0.0
 11
-505.20536913593912
 21
84.521148999255814
 31
0.0
  0
LINE
  5
BF
  8
1
 62
     7
 10
-439.20536913593912
 20
49.521148999255793
 30
0.0
 11
-439.20536913593912
 21
84.521148999255814
 31
0.0
  0
LINE
  5
C0
  8
1
 62
     7
 10
-509.20536913593912
 20
65.329628018509766
 30
0.0
 11
-509.20536913593912
 21
87.021148999255786
 31
0.0
  0
LINE
  5
C1
  8
1
 62
     7
 10
-514.20536913593912
 20
55.877577763910779
 30
0.0
 11
-514.20536913593912
 21
109.5211489992557
 31
0.0
  0
LINE
  5
C2
  8
1
 62
     7
 10
-514.20536913593912
 20
109.5211489992557
 30
0.0
 11
-495.20536913593918
 21
109.5211489992557
 31
0.0
  0
LINE
  5
C3
  8
1
 62
     7
 10
-514.20536913593912
 20
84.521148999255814
 30
0.0
 11
-509.20536913593912
 21
84.521148999255814
 31
0.0
  0
LINE
  5
C4
  8
1
 62
     7
 10
-509.20536913593912
 20
73.0211489992558
 30
0.0
 11
-505.20536913593912
 21
73.0211489992558
 31
0.0
  0
LINE
  5
C5
  8
1
 62
     7
 10
-509.20536913593912
 20
87.021148999255786
 30
0.0
 11
-505.20536913593912
 21
87.021148999255786
 31
0.0
  0
LINE
  5
C6
  8
1
 62
     7
 10
-509.20536913593912
 20
58.521148999255793
 30
0.0
 11
-509.20536913593912
 21
47.521148999255722
 31
0.0
  0
LINE
  5
C7
  8
1
 62
     7
 10
-509.20536913593912
 20
47.521148999255722
 30
0.0
 11
-505.20536913593912
 21
47.521148999255722
 31
0.0
  0
LINE
  5
C8
  8
1
 62
     7
 10
-505.20536913593912
 20
58.521148999255793
 30
0.0
 11
-509.20536913593912
 21
58.521148999255793
 31
0.0
  0
LINE
  5
C9
  8
1
 62
     7
 10
-404.20536913593918
 20
146.52114899925579
 30
0.0
 11
-396.20536913593918
 21
138.5211489992557
 31
0.0
  0
LINE
  5
CA
  8
1
 62
     3
 10
-488.70536913593912
 20
55.0211489992558
 30
0.0
 11
-488.70536913593912
 21
79.0211489992558
 31
0.0
  0
LINE
  5
CB
  8
1
 62
     3
 10
-476.70536913593912
 20
67.021148999255786
 30
0.0
 11
-500.70536913593912
 21
67.021148999255786
 31
0.0
  0
LINE
  5
CC
  8
1
 62
     7
 10
-505.20536913593912
 20
75.946148999255797
 30
0.0
 11
-494.23658735618687
 21
75.946148999255797
 31
0.0
  0
LINE
  5
CD
  8
1
 62
     7
 10
-461.23658735618687
 20
75.946148999255797
 30
0.0
 11
-483.17415091569148
 21
75.946148999255797
 31
0.0
  0
LINE
  5
CE
  8
1
 62
     7
 10
-505.20536913593912
 20
58.096148999255767
 30
0.0
 11
-494.23658735618687
 21
58.096148999255767
 31
0.0
  0
LINE
  5
CF
  8
1
 62
     7
 10
-461.23658735618687
 20
58.096148999255767
 30
0.0
 11
-483.17415091569148
 21
58.096148999255767
 31
0.0
  0
LINE
  5
D0
  8
1
 62
     3
 10
-455.70536913593912
 20
55.0211489992558
 30
0.0
 11
-455.70536913593912
 21
79.0211489992558
 31
0.0
  0
LINE
  5
D1
  8
1
 62
     3
 10
-443.70536913593912
 20
67.021148999255786
 30
0.0
 11
-467.70536913593912
 21
67.021148999255786
 31
0.0
  0
LINE
  5
D2
  8
1
 62
     7
 10
-439.20536913593912
 20
75.946148999255797
 30
0.0
 11
-450.17415091569148
 21
75.946148999255797
 31
0.0
  0
LINE
  5
D3
  8
1
 62
     7
 10
-439.20536913593912
 20
58.096148999255767
 30
0.0
 11
-450.17415091569148
 21
58.096148999255767
 31
0.0
  0
LINE
  5
D4
  8
1
 62
     7
 10
-439.20536913593912
 20
79.5211489992558
 30
0.0
 11
-415.20536913593912
 21
79.5211489992558
 31
0.0
  0
LINE
  5
D5
  8
1
 62
     7
 10
-396.20536913593918
 20
133.82114899925571
 30
0.0
 11
-396.20536913593918
 21
138.5211489992557
 31
0.0
  0
LINE
  5
D6
  8
1
 62
     7
 10
-495.20536913593918
 20
146.52114899925579
 30
0.0
 11
-404.20536913593918
 21
146.52114899925579
 31
0.0
  0
LINE
  5
D7
  8
1
 62
     7
 10
-521.20536913593912
 20
41.021148999255729
 30
0.0
 11
-336.20536913593912
 21
41.021148999255793
 31
0.0
  0
LINE
  5
D8
  8
1
 62
     7
 10
-371.20536913593918
 20
34.5211489992558
 30
0.0
 11
-336.20536913593912
 21
34.5211489992558
 31
0.0
  0
LINE
  5
D9
  8
1
 62
     7
 10
-342.20536913593912
 20
76.084399243284793
 30
0.0
 11
-342.20536913593912
 21
83.0211489992558
 31
0.0
  0
LINE
  5
DA
  8
1
 62
     7
 10
-505.20536913593912
 20
87.021148999255786
 30
0.0
 11
-505.20536913593912
 21
47.521148999255722
 31
0.0
  0
LINE
  5
DB
  8
1
 62
     7
 10
-472.20536913593912
 20
84.521148999255814
 30
0.0
 11
-472.20536913593912
 21
49.521148999255722
 31
0.0
  0
LINE
  5
DC
  8
1
 62
     7
 10
-501.7347317323613
 20
204.52114899925579
 30
0.0
 11
-495.20536913593929
 21
204.52114899925579
 31
0.0
  0
LINE
  5
DD
  8
1
 62
     7
 10
-495.20536913593929
 20
112.5211489992557
 30
0.0
 11
-495.20536913593929
 21
204.52114899925579
 31
0.0
  0
LINE
  5
DE
  8
1
 62
     7
 10
-510.20536913593929
 20
111.5211489992556
 30
0.0
 11
-510.20536913593929
 21
204.52114899925579
 31
0.0
  0
LINE
  5
DF
  8
1
 62
     7
 10
-502.84403506098118
 20
238.00967536019991
 30
0.0
 11
-502.84403506098118
 21
233.00967536019999
 31
0.0
  0
LINE
  5
E0
  8
1
 62
     7
 10
-503.29270421275118
 20
238.00967536019991
 30
0.0
 11
-503.29270421275118
 21
233.00967536019999
 31
0.0
  0
LINE
  5
E1
  8
1
 62
     7
 10
-503.53626746657108
 20
238.00967536019991
 30
0.0
 11
-503.53626746657108
 21
233.00967536019999
 31
0.0
  0
LINE
  5
E2
  8
1
 62
     7
 10
-502.61329092579132
 20
238.00967536019991
 30
0.0
 11
-502.61329092579132
 21
233.00967536019999
 31
0.0
  0
LINE
  5
E3
  8
1
 62
     7
 10
-502.3312703161011
 20
238.00967536019991
 30
0.0
 11
-502.3312703161011
 21
233.00967536019999
 31
0.0
  0
LINE
  5
E4
  8
1
 62
     7
 10
-504.05473173236118
 20
233.00967536019999
 30
0.0
 11
-501.7347317323613
 21
233.00967536019999
 31
0.0
  0
LINE
  5
E5
  8
1
 62
     7
 10
-495.37694201119308
 20
111.5211489992556
 30
0.0
 11
-510.20536913593929
 21
111.5211489992556
 31
0.0
  0
LINE
  5
E6
  8
1
 62
     7
 10
-496.7347317323613
 20
129.67114899925579
 30
0.0
 11
-495.20536913593929
 21
129.67114899925579
 31
0.0
  0
LINE
  5
E7
  8
1
 62
     7
 10
-496.75473173236128
 20
127.37114899925569
 30
0.0
 11
-495.20536913593929
 21
127.37114899925569
 31
0.0
  0
LINE
  5
E8
  8
1
 62
     7
 10
-501.7347317323613
 20
233.00967536019999
 30
0.0
 11
-501.7347317323613
 21
134.67114899925571
 31
0.0
  0
LINE
  5
E9
  8
1
 62
     7
 10
-504.05473173236118
 20
134.67114899925571
 30
0.0
 11
-504.05473173236118
 21
233.00967536019999
 31
0.0
  0
LINE
  5
EA
  8
1
 62
     7
 10
-510.20536913593929
 20
204.52114899925579
 30
0.0
 11
-504.05473173236118
 21
204.52114899925579
 31
0.0
  0
LINE
  5
EB
  8
1
 62
     7
 10
-507.0053691359393
 20
204.52114899925579
 30
0.0
 11
-507.0053691359393
 21
111.5211489992557
 31
0.0
  0
LINE
  5
EC
  8
1
 62
     7
 10
-495.20536913593929
 20
204.52114899925579
 30
0.0
 11
-495.20536913593918
 21
109.5211489992557
 31
0.0
  0
LINE
  5
ED
  8
1
 62
     7
 10
-336.20536913593912
 20
-15.478851000744189
 30
0.0
 11
-336.20536913593912
 21
68.521148999255786
 31
0.0
  0
LINE
  5
EE
  8
1
 62
     7
 10
-521.20536913593912
 20
-15.478851000744189
 30
0.0
 11
-521.20536913593912
 21
-80.478851000744186
 31
0.0
  0
LINE
  5
EF
  8
1
 62
     7
 10
-343.20536913593912
 20
-110.8788510007444
 30
0.0
 11
-347.20536913593912
 21
-110.8788510007444
 31
0.0
  0
LINE
  5
F0
  8
1
 62
     7
 10
-343.20536913593912
 20
-97.978851000744214
 30
0.0
 11
-343.20536913593912
 21
-110.8788510007444
 31
0.0
  0
LINE
  5
F1
  8
1
 62
     7
 10
-342.20536913593912
 20
-113.9788510007442
 30
0.0
 11
-339.20536913593912
 21
-116.9788510007442
 31
0.0
  0
LINE
  5
F2
  8
1
  6
CENTER
 62
     3
 10
-437.20536913593918
 20
-87.079324302617323
 30
0.0
 11
-437.20536913593918
 21
-62.798225257581286
 31
0.0
  0
LINE
  5
F3
  8
1
  6
DASHDOT
 62
     3
 10
-375.20536913593918
 20
-62.978851000744271
 30
0.0
 11
-375.20536913593918
 21
-98.978851000744285
 31
0.0
  0
LINE
  5
F4
  8
1
 62
     7
 10
-377.70536913593912
 20
-95.978851000744214
 30
0.0
 11
-377.70536913593912
 21
-65.9788510007442
 31
0.0
  0
LINE
  5
F5
  8
1
 62
     7
 10
-372.70536913593912
 20
-65.9788510007442
 30
0.0
 11
-372.70536913593912
 21
-95.978851000744214
 31
0.0
  0
LINE
  5
F6
  8
1
 62
     7
 10
-379.20536913593918
 20
-65.4788510007442
 30
0.0
 11
-433.20536913593918
 21
-65.4788510007442
 31
0.0
  0
LINE
  5
F7
  8
1
 62
     7
 10
-379.20536913593918
 20
-65.9788510007442
 30
0.0
 11
-379.20536913593918
 21
-15.47885100074426
 31
0.0
  0
LINE
  5
F8
  8
1
 62
     7
 10
-371.20536913593918
 20
-65.9788510007442
 30
0.0
 11
-379.20536913593918
 21
-65.9788510007442
 31
0.0
  0
LINE
  5
F9
  8
1
 62
     7
 10
-371.20536913593918
 20
-15.47885100074426
 30
0.0
 11
-371.20536913593918
 21
-65.9788510007442
 31
0.0
  0
LINE
  5
FA
  8
1
 62
     7
 10
-336.20536913593912
 20
-99.478851000744285
 30
0.0
 11
-337.20536913593912
 21
-100.4788510007442
 31
0.0
  0
LINE
  5
FB
  8
1
 62
     3
 10
-359.20536913593912
 20
-96.678851000744302
 30
0.0
 11
-391.20536913593912
 21
-177.9788510007441
 31
0.0
  0
LINE
  5
FC
  8
1
 62
     3
 10
-359.20536913593912
 20
-177.9788510007441
 30
0.0
 11
-391.20536913593912
 21
-96.678851000744302
 31
0.0
  0
LINE
  5
FD
  8
1
 62
     7
 10
-347.20536913593912
 20
-102.2288510007442
 30
0.0
 11
-391.20536913593912
 21
-102.2288510007442
 31
0.0
  0
LINE
  5
FE
  8
1
 62
     7
 10
-343.20536913593912
 20
-97.978851000744214
 30
0.0
 11
-347.20536913593912
 21
-97.978851000744214
 31
0.0
  0
LINE
  5
FF
  8
1
 62
     7
 10
-343.20536913593912
 20
-100.4788510007442
 30
0.0
 11
-337.20536913593912
 21
-100.4788510007442
 31
0.0
  0
LINE
  5
100
  8
1
 62
     7
 10
-336.20536913593912
 20
-96.678851000744302
 30
0.0
 11
-391.20536913593912
 21
-96.678851000744302
 31
0.0
  0
LINE
  5
101
  8
1
 62
     7
 10
-359.20536913593912
 20
-177.9788510007441
 30
0.0
 11
-359.20536913593912
 21
-96.678851000744302
 31
0.0
  0
LINE
  5
102
  8
1
 62
     7
 10
-339.20536913593912
 20
-158.9788510007441
 30
0.0
 11
-344.20536913593912
 21
-163.9788510007441
 31
0.0
  0
LINE
  5
103
  8
1
 62
     7
 10
-347.20536913593912
 20
-110.9788510007442
 30
0.0
 11
-347.20536913593912
 21
-96.678851000744302
 31
0.0
  0
LINE
  5
104
  8
1
 62
     7
 10
-342.20536913593912
 20
-113.9788510007442
 30
0.0
 11
-344.20536913593912
 21
-113.9788510007442
 31
0.0
  0
LINE
  5
105
  8
1
 62
     7
 10
-339.20536913593912
 20
-158.9788510007441
 30
0.0
 11
-339.20536913593912
 21
-107.04210124477321
 31
0.0
  0
LINE
  5
106
  8
1
 62
     7
 10
-344.20536913593912
 20
-163.9788510007441
 30
0.0
 11
-359.20536913593912
 21
-163.97885100074421
 31
0.0
  0
LINE
  5
107
  8
1
 62
     7
 10
-391.20536913593912
 20
-177.9788510007441
 30
0.0
 11
-359.20536913593912
 21
-177.9788510007441
 31
0.0
  0
LINE
  5
108
  8
1
 62
     7
 10
-391.20536913593912
 20
-83.478851000744257
 30
0.0
 11
-391.20536913593912
 21
-177.9788510007441
 31
0.0
  0
LINE
  5
109
  8
1
 62
     7
 10
-415.20536913593912
 20
-164.7788510007442
 30
0.0
 11
-415.20536913593912
 21
-110.4788510007442
 31
0.0
  0
LINE
  5
10A
  8
1
 62
     7
 10
-434.70536913593912
 20
-83.478851000744186
 30
0.0
 11
-434.70536913593912
 21
-65.9788510007442
 31
0.0
  0
LINE
  5
10B
  8
1
 62
     7
 10
-439.70536913593912
 20
-80.478851000744186
 30
0.0
 11
-439.70536913593912
 21
-65.9788510007442
 31
0.0
  0
LINE
  5
10C
  8
1
 62
     7
 10
-441.20536913593918
 20
-65.4788510007442
 30
0.0
 11
-521.20536913593912
 21
-65.4788510007442
 31
0.0
  0
LINE
  5
10D
  8
1
 62
     7
 10
-433.20536913593918
 20
-65.9788510007442
 30
0.0
 11
-433.20536913593918
 21
-15.47885100074426
 31
0.0
  0
LINE
  5
10E
  8
1
 62
     7
 10
-441.20536913593918
 20
-65.9788510007442
 30
0.0
 11
-441.20536913593918
 21
-15.47885100074426
 31
0.0
  0
LINE
  5
10F
  8
1
 62
     7
 10
-433.20536913593918
 20
-65.9788510007442
 30
0.0
 11
-441.20536913593918
 21
-65.9788510007442
 31
0.0
  0
LINE
  5
110
  8
1
 62
     7
 10
-509.20536913593912
 20
-80.478851000744271
 30
0.0
 11
-521.20536913593912
 21
-80.478851000744186
 31
0.0
  0
LINE
  5
111
  8
1
 62
     7
 10
-438.20536913593912
 20
-80.478851000744271
 30
0.0
 11
-505.20536913593912
 21
-80.478851000744271
 31
0.0
  0
LINE
  5
112
  8
1
 62
     7
 10
-438.20536913593912
 20
-83.478851000744257
 30
0.0
 11
-438.20536913593912
 21
-80.478851000744271
 31
0.0
  0
LINE
  5
113
  8
1
 62
     7
 10
-413.20536913593912
 20
-163.97885100074421
 30
0.0
 11
-413.20536913593912
 21
-109.6788510007443
 31
0.0
  0
LINE
  5
114
  8
1
 62
     7
 10
-439.20536913593912
 20
-83.478851000744186
 30
0.0
 11
-391.20536913593912
 21
-83.478851000744257
 31
0.0
  0
LINE
  5
115
  8
1
 62
     7
 10
-437.20536913593918
 20
-91.478851000744214
 30
0.0
 11
-439.20536913593912
 21
-91.478851000744214
 31
0.0
  0
LINE
  5
116
  8
1
 62
     7
 10
-437.20536913593918
 20
-109.6788510007443
 30
0.0
 11
-437.20536913593918
 21
-91.478851000744214
 31
0.0
  0
LINE
  5
117
  8
1
 62
     7
 10
-413.20536913593912
 20
-109.6788510007443
 30
0.0
 11
-437.20536913593918
 21
-109.6788510007443
 31
0.0
  0
LINE
  5
118
  8
1
 62
     7
 10
-391.20536913593912
 20
-163.97885100074421
 30
0.0
 11
-413.20536913593912
 21
-163.97885100074421
 31
0.0
  0
LINE
  5
119
  8
1
 62
     7
 10
-505.20536913593912
 20
-115.4788510007443
 30
0.0
 11
-439.20536913593912
 21
-115.4788510007442
 31
0.0
  0
LINE
  5
11A
  8
1
 62
     7
 10
-439.20536913593912
 20
-115.4788510007442
 30
0.0
 11
-439.20536913593912
 21
-80.478851000744186
 31
0.0
  0
LINE
  5
11B
  8
1
 62
     7
 10
-509.20536913593912
 20
-117.9788510007443
 30
0.0
 11
-509.20536913593912
 21
-96.287330019998336
 31
0.0
  0
LINE
  5
11C
  8
1
 62
     7
 10
-514.20536913593912
 20
-140.4788510007443
 30
0.0
 11
-514.20536913593912
 21
-86.835279765399264
 31
0.0
  0
LINE
  5
11D
  8
1
 62
     7
 10
-495.20536913593918
 20
-140.4788510007443
 30
0.0
 11
-514.20536913593912
 21
-140.4788510007443
 31
0.0
  0
LINE
  5
11E
  8
1
 62
     7
 10
-509.20536913593912
 20
-115.4788510007443
 30
0.0
 11
-514.20536913593912
 21
-115.4788510007443
 31
0.0
  0
LINE
  5
11F
  8
1
 62
     7
 10
-505.20536913593912
 20
-103.9788510007443
 30
0.0
 11
-509.20536913593912
 21
-103.9788510007443
 31
0.0
  0
LINE
  5
120
  8
1
 62
     7
 10
-505.20536913593912
 20
-117.9788510007443
 30
0.0
 11
-509.20536913593912
 21
-117.9788510007443
 31
0.0
  0
LINE
  5
121
  8
1
 62
     7
 10
-509.20536913593912
 20
-78.478851000744271
 30
0.0
 11
-509.20536913593912
 21
-89.478851000744285
 31
0.0
  0
LINE
  5
122
  8
1
 62
     7
 10
-505.20536913593912
 20
-78.478851000744271
 30
0.0
 11
-509.20536913593912
 21
-78.478851000744271
 31
0.0
  0
LINE
  5
123
  8
1
 62
     7
 10
-509.20536913593912
 20
-89.478851000744285
 30
0.0
 11
-505.20536913593912
 21
-89.478851000744285
 31
0.0
  0
LINE
  5
124
  8
1
 62
     7
 10
-396.20536913593918
 20
-169.4788510007443
 30
0.0
 11
-404.20536913593918
 21
-177.4788510007443
 31
0.0
  0
LINE
  5
125
  8
1
 62
     3
 10
-488.70536913593912
 20
-109.9788510007442
 30
0.0
 11
-488.70536913593912
 21
-85.978851000744257
 31
0.0
  0
LINE
  5
126
  8
1
 62
     3
 10
-500.70536913593912
 20
-97.978851000744285
 30
0.0
 11
-476.70536913593912
 21
-97.978851000744285
 31
0.0
  0
LINE
  5
127
  8
1
 62
     7
 10
-494.23658735618687
 20
-106.9038510007443
 30
0.0
 11
-505.20536913593912
 21
-106.9038510007443
 31
0.0
  0
LINE
  5
128
  8
1
 62
     7
 10
-483.17415091569148
 20
-106.9038510007443
 30
0.0
 11
-461.23658735618687
 21
-106.9038510007443
 31
0.0
  0
LINE
  5
129
  8
1
 62
     7
 10
-494.23658735618687
 20
-89.053851000744316
 30
0.0
 11
-505.20536913593912
 21
-89.053851000744316
 31
0.0
  0
LINE
  5
12A
  8
1
 62
     7
 10
-483.17415091569148
 20
-89.053851000744316
 30
0.0
 11
-461.23658735618687
 21
-89.053851000744316
 31
0.0
  0
LINE
  5
12B
  8
1
 62
     3
 10
-455.70536913593912
 20
-109.9788510007442
 30
0.0
 11
-455.70536913593912
 21
-85.978851000744257
 31
0.0
  0
LINE
  5
12C
  8
1
 62
     3
 10
-467.70536913593912
 20
-97.978851000744285
 30
0.0
 11
-443.70536913593912
 21
-97.978851000744285
 31
0.0
  0
LINE
  5
12D
  8
1
 62
     7
 10
-450.17415091569148
 20
-106.9038510007443
 30
0.0
 11
-439.20536913593912
 21
-106.9038510007443
 31
0.0
  0
LINE
  5
12E
  8
1
 62
     7
 10
-450.17415091569148
 20
-89.053851000744316
 30
0.0
 11
-439.20536913593912
 21
-89.053851000744316
 31
0.0
  0
LINE
  5
12F
  8
1
 62
     7
 10
-415.20536913593912
 20
-110.4788510007442
 30
0.0
 11
-439.20536913593912
 21
-110.4788510007442
 31
0.0
  0
LINE
  5
130
  8
1
 62
     7
 10
-396.20536913593918
 20
-169.4788510007443
 30
0.0
 11
-396.20536913593918
 21
-164.77885100074431
 31
0.0
  0
LINE
  5
131
  8
1
 62
     7
 10
-396.20536913593918
 20
-164.77885100074431
 30
0.0
 11
-415.20536913593912
 21
-164.7788510007442
 31
0.0
  0
LINE
  5
132
  8
1
 62
     7
 10
-404.20536913593918
 20
-177.4788510007443
 30
0.0
 11
-495.20536913593918
 21
-177.4788510007443
 31
0.0
  0
LINE
  5
133
  8
1
 62
     7
 10
-336.20536913593912
 20
-65.478851000744271
 30
0.0
 11
-371.20536913593918
 21
-65.4788510007442
 31
0.0
  0
LINE
  5
134
  8
1
 62
     7
 10
-342.20536913593912
 20
-113.9788510007442
 30
0.0
 11
-342.20536913593912
 21
-107.04210124477321
 31
0.0
  0
LINE
  5
135
  8
1
 62
     7
 10
-505.20536913593912
 20
-78.478851000744271
 30
0.0
 11
-505.20536913593912
 21
-117.9788510007443
 31
0.0
  0
LINE
  5
136
  8
1
 62
     7
 10
-472.20536913593912
 20
-80.478851000744271
 30
0.0
 11
-472.20536913593912
 21
-115.4788510007442
 31
0.0
  0
LINE
  5
137
  8
1
 62
     7
 10
-495.20536913593918
 20
-140.4788510007443
 30
0.0
 11
-495.20536913593918
 21
-177.4788510007443
 31
0.0
  0
LINE
  5
138
  8
1
 62
     7
 10
-336.20536913593912
 20
-99.478851000744285
 30
0.0
 11
-336.20536913593912
 21
-15.478851000744189
 31
0.0
  0
LINE
  5
139
  8
1
 62
     7
 10
-684.70536913593901
 20
-15.47885100074426
 30
0.0
 11
-684.70536913593901
 21
-100.4788510007442
 31
0.0
  0
LINE
  5
13A
  8
1
 62
     7
 10
-686.70536913593901
 20
-100.4788510007442
 30
0.0
 11
-684.70536913593901
 21
-100.4788510007442
 31
0.0
  0
LINE
  5
13B
  8
1
 62
     7
 10
-684.70536913593901
 20
-100.4788510007442
 30
0.0
 11
-683.70536913593901
 21
-99.478851000744285
 31
0.0
  0
LINE
  5
13C
  8
1
 62
     7
 10
-683.70536913593901
 20
-99.478851000744285
 30
0.0
 11
-683.70536913593924
 21
-15.478851000744189
 31
0.0
  0
LINE
  5
13D
  8
1
 62
     7
 10
-691.70536913593901
 20
-15.47885100074426
 30
0.0
 11
-691.70536913593901
 21
-163.9788510007441
 31
0.0
  0
LINE
  5
13E
  8
1
 62
     7
 10
-686.70536913593901
 20
-158.9788510007441
 30
0.0
 11
-686.70536913593901
 21
-15.47885100074426
 31
0.0
  0
LINE
  5
13F
  8
1
 62
     7
 10
-691.70536913593901
 20
-163.9788510007441
 30
0.0
 11
-686.70536913593901
 21
-158.9788510007441
 31
0.0
  0
LINE
  5
140
  8
1
 62
     7
 10
-706.70536913593901
 20
-163.97885100074421
 30
0.0
 11
-691.70536913593901
 21
-163.9788510007441
 31
0.0
  0
LINE
  5
141
  8
1
 62
     3
 10
-738.70536913593901
 20
-15.47885100074426
 30
0.0
 11
-706.70536913593901
 21
-177.9788510007441
 31
0.0
  0
LINE
  5
142
  8
1
 62
     3
 10
-738.70536913593901
 20
-177.9788510007441
 30
0.0
 11
-706.70536913593901
 21
-15.47885100074426
 31
0.0
  0
LINE
  5
143
  8
1
 62
     7
 10
-738.70536913593901
 20
-177.9788510007441
 30
0.0
 11
-706.70536913593901
 21
-177.9788510007441
 31
0.0
  0
LINE
  5
144
  8
1
 62
     7
 10
-706.70536913593901
 20
-177.9788510007441
 30
0.0
 11
-706.70536913593901
 21
-15.47885100074426
 31
0.0
  0
LINE
  5
145
  8
1
 62
     7
 10
-738.70536913593901
 20
-177.9788510007441
 30
0.0
 11
-738.70536913593901
 21
-15.47885100074426
 31
0.0
  0
LINE
  5
146
  8
1
 62
     7
 10
-743.70536913593889
 20
-163.97885100074421
 30
0.0
 11
-738.70536913593901
 21
-163.97885100074421
 31
0.0
  0
LINE
  5
147
  8
1
 62
     7
 10
-743.70536913593889
 20
-169.4788510007441
 30
0.0
 11
-743.70536913593889
 21
-15.47885100074426
 31
0.0
  0
LINE
  5
148
  8
1
 62
     7
 10
-751.70536913593889
 20
-15.47885100074426
 30
0.0
 11
-751.70536913593889
 21
-177.4788510007441
 31
0.0
  0
LINE
  5
149
  8
1
 62
     7
 10
-751.70536913593889
 20
-177.4788510007441
 30
0.0
 11
-743.70536913593889
 21
-169.4788510007441
 31
0.0
  0
LINE
  5
14A
  8
1
 62
     7
 10
-842.70536913593901
 20
-177.4788510007443
 30
0.0
 11
-751.70536913593889
 21
-177.4788510007441
 31
0.0
  0
LINE
  5
14B
  8
1
 62
     7
 10
-861.70536913593889
 20
-140.4788510007443
 30
0.0
 11
-842.70536913593901
 21
-140.4788510007443
 31
0.0
  0
LINE
  5
14C
  8
1
 62
     7
 10
-842.70536913593901
 20
-177.4788510007443
 30
0.0
 11
-842.70536913593901
 21
-15.47885100074426
 31
0.0
  0
LINE
  5
14D
  8
1
 62
     7
 10
-861.70536913593889
 20
-140.4788510007443
 30
0.0
 11
-861.70536913593889
 21
-15.47885100074426
 31
0.0
  0
LINE
  5
14E
  8
1
 62
     7
 10
-861.70536913593889
 20
-80.478851000744143
 30
0.0
 11
-867.60536913593899
 21
-80.478851000744143
 31
0.0
  0
LINE
  5
14F
  8
1
 62
     7
 10
-868.70536913593889
 20
-79.378851000744234
 30
0.0
 11
-867.60536913593899
 21
-80.478851000744143
 31
0.0
  0
LINE
  5
150
  8
1
 62
     7
 10
-867.60536913593899
 20
-80.478851000744143
 30
0.0
 11
-867.60536913593899
 21
-15.47885100074426
 31
0.0
  0
LINE
  5
151
  8
1
 62
     7
 10
-868.70536913593889
 20
-79.378851000744234
 30
0.0
 11
-868.70536913593889
 21
-15.478851000744189
 31
0.0
  0
LINE
  5
152
  8
1
 62
     7
 10
-684.70536913593901
 20
69.521148999255786
 30
0.0
 11
-684.70536913593901
 21
-15.47885100074426
 31
0.0
  0
LINE
  5
153
  8
1
 62
     7
 10
-684.70536913593901
 20
69.521148999255786
 30
0.0
 11
-686.70536913593901
 21
69.5211489992558
 31
0.0
  0
LINE
  5
154
  8
1
 62
     7
 10
-683.70536913593901
 20
68.521148999255786
 30
0.0
 11
-684.70536913593901
 21
69.521148999255786
 31
0.0
  0
LINE
  5
155
  8
1
 62
     7
 10
-683.70536913593924
 20
-15.478851000744189
 30
0.0
 11
-683.70536913593901
 21
68.521148999255786
 31
0.0
  0
LINE
  5
156
  8
1
 62
     7
 10
-691.70536913593901
 20
133.0211489992557
 30
0.0
 11
-691.70536913593901
 21
-15.47885100074426
 31
0.0
  0
LINE
  5
157
  8
1
 62
     7
 10
-686.70536913593901
 20
-15.47885100074426
 30
0.0
 11
-686.70536913593901
 21
128.0211489992557
 31
0.0
  0
LINE
  5
158
  8
1
 62
     7
 10
-686.70536913593901
 20
128.0211489992557
 30
0.0
 11
-691.70536913593901
 21
133.0211489992557
 31
0.0
  0
LINE
  5
159
  8
1
 62
     7
 10
-691.70536913593901
 20
133.0211489992557
 30
0.0
 11
-706.70536913593901
 21
133.0211489992555
 31
0.0
  0
LINE
  5
15A
  8
1
 62
     3
 10
-706.70536913593901
 20
147.0211489992555
 30
0.0
 11
-738.70536913593901
 21
-15.47885100074426
 31
0.0
  0
LINE
  5
15B
  8
1
 62
     3
 10
-706.70536913593901
 20
-15.47885100074426
 30
0.0
 11
-738.70536913593901
 21
147.02114899925539
 31
0.0
  0
LINE
  5
15C
  8
1
 62
     7
 10
-706.70536913593901
 20
147.0211489992555
 30
0.0
 11
-738.70536913593901
 21
147.02114899925539
 31
0.0
  0
LINE
  5
15D
  8
1
 62
     7
 10
-706.70536913593901
 20
-15.47885100074426
 30
0.0
 11
-706.70536913593901
 21
147.0211489992555
 31
0.0
  0
LINE
  5
15E
  8
1
 62
     7
 10
-738.70536913593901
 20
-15.47885100074426
 30
0.0
 11
-738.70536913593901
 21
147.02114899925539
 31
0.0
  0
LINE
  5
15F
  8
1
 62
     7
 10
-738.70536913593901
 20
133.0211489992557
 30
0.0
 11
-743.70536913593889
 21
133.0211489992555
 31
0.0
  0
LINE
  5
160
  8
1
 62
     7
 10
-743.70536913593889
 20
-15.47885100074426
 30
0.0
 11
-743.70536913593889
 21
138.5211489992557
 31
0.0
  0
LINE
  5
161
  8
1
 62
     7
 10
-751.70536913593889
 20
146.52114899925579
 30
0.0
 11
-751.70536913593889
 21
-15.47885100074426
 31
0.0
  0
LINE
  5
162
  8
1
 62
     7
 10
-743.70536913593889
 20
138.5211489992557
 30
0.0
 11
-751.70536913593889
 21
146.52114899925579
 31
0.0
  0
LINE
  5
163
  8
1
 62
     7
 10
-751.70536913593889
 20
146.52114899925579
 30
0.0
 11
-842.70536913593901
 21
146.5211489992555
 31
0.0
  0
LINE
  5
164
  8
1
 62
     7
 10
-845.90536913593905
 20
109.5211489992557
 30
0.0
 11
-861.70536913593889
 21
109.5211489992557
 31
0.0
  0
LINE
  5
165
  8
1
 62
     7
 10
-842.70536913593901
 20
-15.47885100074426
 30
0.0
 11
-842.70536913593901
 21
146.5211489992555
 31
0.0
  0
LINE
  5
166
  8
1
 62
     7
 10
-861.70536913593889
 20
-15.47885100074426
 30
0.0
 11
-861.70536913593889
 21
109.5211489992557
 31
0.0
  0
LINE
  5
167
  8
1
 62
     7
 10
-867.60536913593899
 20
49.521148999255388
 30
0.0
 11
-861.70536913593889
 21
49.521148999255388
 31
0.0
  0
LINE
  5
168
  8
1
 62
     7
 10
-867.60536913593899
 20
49.521148999255388
 30
0.0
 11
-868.70536913593889
 21
48.421148999255472
 31
0.0
  0
LINE
  5
169
  8
1
 62
     7
 10
-867.60536913593899
 20
-15.47885100074426
 30
0.0
 11
-867.60536913593899
 21
49.521148999255388
 31
0.0
  0
LINE
  5
16A
  8
1
 62
     7
 10
-868.70536913593889
 20
-15.478851000744189
 30
0.0
 11
-868.70536913593889
 21
48.421148999255472
 31
0.0
  0
LINE
  5
16B
  8
1
 62
     7
 10
-842.70536913593901
 20
133.27114899925559
 30
0.0
 11
-842.70536913593901
 21
204.52114899925579
 31
0.0
  0
LINE
  5
16C
  8
1
 62
     7
 10
-857.70536913593901
 20
204.52114899925559
 30
0.0
 11
-842.70536913593901
 21
204.52114899925579
 31
0.0
  0
LINE
  5
16D
  8
1
 62
     7
 10
-851.55473173236101
 20
204.52114899925579
 30
0.0
 11
-851.55473173236101
 21
233.00967536019999
 31
0.0
  0
LINE
  5
16E
  8
1
 62
     7
 10
-850.34403506098101
 20
238.00967536019991
 30
0.0
 11
-850.34403506098101
 21
233.00967536019999
 31
0.0
  0
LINE
  5
16F
  8
1
 62
     7
 10
-850.792704212751
 20
238.00967536019991
 30
0.0
 11
-850.792704212751
 21
233.00967536019999
 31
0.0
  0
LINE
  5
170
  8
1
 62
     7
 10
-851.03626746657096
 20
238.00967536019991
 30
0.0
 11
-851.03626746657096
 21
233.00967536019999
 31
0.0
  0
LINE
  5
171
  8
1
 62
     7
 10
-850.11329092579092
 20
238.00967536019991
 30
0.0
 11
-850.11329092579092
 21
233.00967536019999
 31
0.0
  0
LINE
  5
172
  8
1
 62
     7
 10
-849.83127031610081
 20
238.00967536019991
 30
0.0
 11
-849.83127031610081
 21
233.00967536019999
 31
0.0
  0
LINE
  5
173
  8
1
 62
     7
 10
-851.55473173236101
 20
233.00967536019999
 30
0.0
 11
-849.23473173236107
 21
233.00967536019979
 31
0.0
  0
LINE
  5
174
  8
1
 62
     7
 10
-849.23473173236107
 20
233.00967536019979
 30
0.0
 11
-849.23473173236107
 21
204.52114899925579
 31
0.0
  0
LINE
  5
175
  8
1
 62
     7
 10
-857.70536913593901
 20
111.5211489992557
 30
0.0
 11
-857.70536913593901
 21
204.52114899925559
 31
0.0
  0
LINE
  5
176
  8
1
 62
     7
 10
-842.70536913593901
 20
132.5211489992557
 30
0.0
 11
-845.90536913593905
 21
132.5211489992557
 31
0.0
  0
LINE
  5
177
  8
1
 62
     7
 10
-845.90536913593905
 20
111.5211489992557
 30
0.0
 11
-857.70536913593901
 21
111.5211489992557
 31
0.0
  0
LINE
  5
178
  8
1
 62
     7
 10
-842.70536913593901
 20
107.926983545277
 30
0.0
 11
-845.90536913593905
 21
107.926983545277
 31
0.0
  0
LINE
  5
179
  8
1
 62
     7
 10
-847.20536913593901
 20
121.8211489992558
 30
0.0
 11
-845.90536913593905
 21
120.5211489992557
 31
0.0
  0
LINE
  5
17A
  8
1
 62
     7
 10
-847.20536913593901
 20
120.5211489992557
 30
0.0
 11
-845.90536913593905
 21
119.2211489992557
 31
0.0
  0
LINE
  5
17B
  8
1
 62
     7
 10
-847.20536913593901
 20
125.12114899925569
 30
0.0
 11
-845.90536913593905
 21
125.12114899925569
 31
0.0
  0
LINE
  5
17C
  8
1
 62
     7
 10
-845.90536913593905
 20
115.92114899925571
 30
0.0
 11
-847.20536913593901
 21
115.92114899925571
 31
0.0
  0
LINE
  5
17D
  8
1
 62
     7
 10
-851.90536913593917
 20
124.7711489992557
 30
0.0
 11
-847.20536913593901
 21
124.7711489992557
 31
0.0
  0
LINE
  5
17E
  8
1
 62
     7
 10
-852.20536913593901
 20
124.251533756985
 30
0.0
 11
-851.90536913593917
 21
124.7711489992557
 31
0.0
  0
LINE
  5
17F
  8
1
 62
     7
 10
-852.20536913593901
 20
116.7907642415264
 30
0.0
 11
-852.20536913593901
 21
124.251533756985
 31
0.0
  0
LINE
  5
180
  8
1
 62
     7
 10
-851.90536913593917
 20
116.2711489992557
 30
0.0
 11
-852.20536913593901
 21
116.7907642415264
 31
0.0
  0
LINE
  5
181
  8
1
 62
     7
 10
-847.20536913593901
 20
116.2711489992557
 30
0.0
 11
-851.90536913593917
 21
116.2711489992557
 31
0.0
  0
LINE
  5
182
  8
1
 62
     7
 10
-851.90536913593917
 20
116.2711489992557
 30
0.0
 11
-851.90536913593917
 21
124.7711489992557
 31
0.0
  0
LINE
  5
183
  8
1
 62
     7
 10
-845.90536913593905
 20
107.926983545277
 30
0.0
 11
-845.90536913593905
 21
132.5211489992557
 31
0.0
  0
LINE
  5
184
  8
1
 62
     7
 10
-847.20536913593901
 20
115.92114899925571
 30
0.0
 11
-847.20536913593901
 21
125.12114899925569
 31
0.0
  0
ARC
  5
185
  8
1
 62
     7
 10
-1167.205369135939
 20
126.1544784100975
 30
0.0
 40
4.0
 50
0.0
 51
79.597878991051687
  0
ARC
  5
186
  8
1
 62
     7
 10
-1219.205369135939
 20
126.1544784100975
 30
0.0
 40
3.9999999999998108
 50
100.4021210089482
 51
180.0
  0
ARC
  5
187
  8
1
 62
     7
 10
-1168.205369135939
 20
114.1321053262577
 30
0.0
 40
5.0000000000001101
 50
259.08258268418308
 51
0.0
  0
ARC
  5
188
  8
1
 62
     7
 10
-1218.205369135939
 20
114.1321053262577
 30
0.0
 40
5.0
 50
180.0
 51
280.91741731581732
  0
ARC
  5
189
  8
1
 62
     7
 10
13.55725034840475
 20
-15.478851000744189
 30
0.0
 40
50.0
 50
106.260204708312
 51
73.739795291688054
  0
ARC
  5
18A
  8
1
 62
     7
 10
-1174.652880847256
 20
137.760950575002
 30
0.0
 40
6.3850039609233322
 50
236.1941838747465
 51
268.38575406783917
  0
ARC
  5
18B
  8
1
 62
     7
 10
-1211.757857424622
 20
137.760950575002
 30
0.0
 40
6.3850039609235303
 50
271.61424593216083
 51
303.80581612525248
  0
ARC
  5
18C
  8
1
 62
     7
 10
-1193.205369135939
 20
-15.478851000744161
 30
0.0
 40
147.99999999999969
 50
79.597878991048233
 51
82.819244218541684
  0
ARC
  5
18D
  8
1
 62
     7
 10
-1193.205369135939
 20
-15.478851000744161
 30
0.0
 40
126.9999999999997
 50
79.082582684186221
 51
100.91741731581369
  0
ARC
  5
18E
  8
1
 62
     7
 10
-1193.205369135939
 20
-15.478851000744161
 30
0.0
 40
147.99999999999989
 50
97.180755781458302
 51
100.4021210089518
  0
ARC
  5
18F
  8
1
 62
     7
 10
-1193.205369135939
 20
-15.478851000744161
 30
0.0
 40
149.99999999999989
 50
95.739170477266768
 51
84.260829522733218
  0
ARC
  5
190
  8
1
 62
     7
 10
-1193.205369135939
 20
-15.478851000744161
 30
0.0
 40
152.0
 50
95.663406509323934
 51
84.319795940274929
  0
ARC
  5
191
  8
1
 62
     7
 10
-1193.205369135939
 20
-15.478851000744161
 30
0.0
 40
158.99999999999989
 50
95.413312273971144
 51
84.586687726028856
  0
ARC
  5
192
  8
1
 62
     7
 10
-1193.205369135939
 20
-15.478851000744161
 30
0.0
 40
162.0
 50
95.312774705271337
 51
84.687225294728606
  0
ARC
  5
193
  8
1
 62
     7
 10
-1193.205369135939
 20
-15.478851000744161
 30
0.0
 40
49.999999999999957
 50
106.260204708312
 51
73.739795291688026
  0
ARC
  5
194
  8
1
 62
     7
 10
-496.7347317323613
 20
134.67114899925571
 30
0.0
 40
5.0
 50
180.0
 51
270.0
  0
ARC
  5
195
  8
1
 62
     7
 10
-496.75473173236128
 20
134.67114899925571
 30
0.0
 40
7.3000000000000123
 50
180.0
 51
270.0
  0
CIRCLE
  5
196
  8
1
 62
     7
 10
-1193.205369135939
 20
-15.478851000744161
 30
0.0
 40
100.0
  0
CIRCLE
  5
197
  8
1
 62
     7
 10
13.55725034840475
 20
-15.478851000744189
 30
0.0
 40
143.5
  0
CIRCLE
  5
198
  8
1
 62
     7
 10
13.55725034840475
 20
-15.478851000744189
 30
0.0
 40
148.50000000000011
  0
CIRCLE
  5
199
  8
1
 62
     7
 10
13.55725034840475
 20
-15.478851000744189
 30
0.0
 40
162.5
  0
CIRCLE
  5
19A
  8
1
 62
     7
 10
13.55725034840475
 20
-15.478851000744189
 30
0.0
 40
85.0
  0
CIRCLE
  5
19B
  8
1
 62
     7
 10
13.55725034840475
 20
-15.478851000744189
 30
0.0
 40
101.5000000000001
  0
CIRCLE
  5
19C
  8
1
 62
     7
 10
-1215.205369135939
 20
120.5211489992557
 30
0.0
 40
4.25
  0
CIRCLE
  5
19D
  8
1
 62
     7
 10
-1171.2053691359381
 20
120.5211489992557
 30
0.0
 40
4.25
  0
CIRCLE
  5
19E
  8
1
 62
     7
 10
-1193.205369135939
 20
-15.478851000744161
 30
0.0
 40
65.0
  0
CIRCLE
  5
19F
  8
1
 62
     7
 10
-1193.205369135939
 20
-15.478851000744161
 30
0.0
 40
122.0
  0
CIRCLE
  5
1A0
  8
1
 62
     7
 10
-1193.205369135939
 20
-15.478851000744161
 30
0.0
 40
125.0
  0
CIRCLE
  5
1A1
  8
1
 62
     7
 10
-488.70536913593912
 20
67.021148999255786
 30
0.0
 40
10.5
  0
CIRCLE
  5
1A2
  8
1
 62
     7
 10
-455.70536913593912
 20
67.021148999255786
 30
0.0
 40
10.5
  0
CIRCLE
  5
1A3
  8
1
 62
     7
 10
-488.70536913593912
 20
-97.978851000744285
 30
0.0
 40
10.5
  0
CIRCLE
  5
1A4
  8
1
 62
     7
 10
-455.70536913593912
 20
-97.978851000744214
 30
0.0
 40
10.5
  0
ARC
  5
1A5
  8
1
 62
     7
 10
-344.20536913593912
 20
80.0211489992558
 30
0.0
 40
3.0
 50
90.0
 51
180.0
  0
ARC
  5
1A6
  8
1
 62
     7
 10
-344.20536913593912
 20
-110.9788510007442
 30
0.0
 40
3.0
 50
180.0
 51
270.0
  0
TEXT
  5
1A8
  8
1
 62
     7
 10
-1316.1180063619499
 20
374.47598638627193
 30
0.0
 40
18.0
  1
MWC 250
 41
0.9
  7
SIMPLEX
  0
ENDSEC
  0
EOF
