  0
SECTION
  2
HEADER
  9
$ACADVER
  1
AC1009
  9
$INSBASE
 10
0.0
 20
0.0
 30
0.0
  9
$EXTMIN
 10
-1855.232662721892
 20
-166.17590047098781
 30
0.0
  9
$EXTMAX
 10
-210.23266272189281
 20
397.9366406494961
 30
0.0
  9
$LIMMIN
 10
-1855.232662721892
 20
-166.17590047098781
  9
$LIMMAX
 10
-210.23266272189281
 20
397.93664064949598
  9
$ORTHOMODE
 70
     0
  9
$REGENMODE
 70
     1
  9
$FILLMODE
 70
     1
  9
$QTEXTMODE
 70
     0
  9
$MIRRTEXT
 70
     1
  9
$DRAGMODE
 70
     2
  9
$LTSCALE
 40
1.0
  9
$OSMODE
 70
    37
  9
$ATTMODE
 70
     1
  9
$TEXTSIZE
 40
3.5
  9
$TRACEWID
 40
0.5
  9
$TEXTSTYLE
  7
STANDARD
  9
$CLAYER
  8
0
  9
$CELTYPE
  6
BYLAYER
  9
$CECOLOR
 62
   256
  9
$DIMSCALE
 40
1.0
  9
$DIMASZ
 40
0.18
  9
$DIMEXO
 40
0.0625
  9
$DIMDLI
 40
0.38
  9
$DIMRND
 40
0.0
  9
$DIMDLE
 40
0.0
  9
$DIMEXE
 40
0.18
  9
$DIMTP
 40
0.0
  9
$DIMTM
 40
0.0
  9
$DIMTXT
 40
0.18
  9
$DIMCEN
 40
0.09
  9
$DIMTSZ
 40
0.0
  9
$DIMTOL
 70
     0
  9
$DIMLIM
 70
     0
  9
$DIMTIH
 70
     1
  9
$DIMTOH
 70
     1
  9
$DIMSE1
 70
     0
  9
$DIMSE2
 70
     0
  9
$DIMTAD
 70
     0
  9
$DIMZIN
 70
     0
  9
$DIMBLK
  1

  9
$DIMASO
 70
     1
  9
$DIMSHO
 70
     1
  9
$DIMPOST
  1

  9
$DIMAPOST
  1

  9
$DIMALT
 70
     0
  9
$DIMALTD
 70
     2
  9
$DIMALTF
 40
25.399999999999999
  9
$DIMLFAC
 40
1.0
  9
$DIMTOFL
 70
     0
  9
$DIMTVP
 40
0.0
  9
$DIMTIX
 70
     0
  9
$DIMSOXD
 70
     0
  9
$DIMSAH
 70
     0
  9
$DIMBLK1
  1

  9
$DIMBLK2
  1

  9
$DIMSTYLE
  2
STANDARD
  9
$DIMCLRD
 70
     0
  9
$DIMCLRE
 70
     0
  9
$DIMCLRT
 70
     0
  9
$DIMTFAC
 40
1.0
  9
$DIMGAP
 40
0.09
  9
$LUNITS
 70
     2
  9
$LUPREC
 70
     4
  9
$SKETCHINC
 40
0.1
  9
$FILLETRAD
 40
2.0
  9
$AUNITS
 70
     0
  9
$AUPREC
 70
     0
  9
$MENU
  1
ACAD
  9
$ELEVATION
 40
0.0
  9
$PELEVATION
 40
0.0
  9
$THICKNESS
 40
0.0
  9
$LIMCHECK
 70
     0
  9
$BLIPMODE
 70
     0
  9
$CHAMFERA
 40
0.0
  9
$CHAMFERB
 40
0.0
  9
$SKPOLY
 70
     0
  9
$TDCREATE
 40
2452095.0483241891
  9
$TDUPDATE
 40
2452095.048839815
  9
$TDINDWG
 40
0.0005346065
  9
$TDUSRTIMER
 40
0.0005346065
  9
$USRTIMER
 70
     1
  9
$ANGBASE
 50
0.0
  9
$ANGDIR
 70
     0
  9
$PDMODE
 70
     0
  9
$PDSIZE
 40
0.0
  9
$PLINEWID
 40
0.0
  9
$COORDS
 70
     1
  9
$SPLFRAME
 70
     0
  9
$SPLINETYPE
 70
     6
  9
$SPLINESEGS
 70
     8
  9
$ATTDIA
 70
     0
  9
$ATTREQ
 70
     1
  9
$HANDLING
 70
 10241
  9
$HANDSEED
  5
1E7
  9
$SURFTAB1
 70
     6
  9
$SURFTAB2
 70
     6
  9
$SURFTYPE
 70
     6
  9
$SURFU
 70
     6
  9
$SURFV
 70
     6
  9
$UCSNAME
  2

  9
$UCSORG
 10
0.0
 20
0.0
 30
0.0
  9
$UCSXDIR
 10
1.0
 20
0.0
 30
0.0
  9
$UCSYDIR
 10
0.0
 20
1.0
 30
0.0
  9
$PUCSNAME
  2

  9
$PUCSORG
 10
0.0
 20
0.0
 30
0.0
  9
$PUCSXDIR
 10
1.0
 20
0.0
 30
0.0
  9
$PUCSYDIR
 10
0.0
 20
1.0
 30
0.0
  9
$USERI1
 70
     0
  9
$USERI2
 70
     0
  9
$USERI3
 70
     0
  9
$USERI4
 70
     0
  9
$USERI5
 70
     0
  9
$USERR1
 40
0.0
  9
$USERR2
 40
0.0
  9
$USERR3
 40
0.0
  9
$USERR4
 40
0.0
  9
$USERR5
 40
0.0
  9
$WORLDVIEW
 70
     1
  9
$SHADEDGE
 70
     3
  9
$SHADEDIF
 70
    70
  9
$TILEMODE
 70
     1
  9
$MAXACTVP
 70
    64
  9
$PLIMCHECK
 70
     0
  9
$PEXTMIN
 10
1.0000000000000000E+020
 20
1.0000000000000000E+020
 30
1.0000000000000000E+020
  9
$PEXTMAX
 10
-1.0000000000000000E+020
 20
-1.0000000000000000E+020
 30
-1.0000000000000000E+020
  9
$PLIMMIN
 10
0.0
 20
0.0
  9
$PLIMMAX
 10
12.0
 20
9.0
  9
$UNITMODE
 70
     0
  9
$VISRETAIN
 70
     1
  9
$PLINEGEN
 70
     0
  9
$PSLTSCALE
 70
     1
  0
ENDSEC
  0
SECTION
  2
TABLES
  0
TABLE
  2
VPORT
 70
     2
  0
VPORT
  2
*ACTIVE
 70
     0
 10
0.0
 20
0.0
 11
1.0
 21
1.0
 12
-1844.6105846382461
 22
349.23715105746118
 13
0.0
 23
0.0
 14
1.0
 24
1.0
 15
0.0
 25
0.0
 16
0.0
 26
0.0
 36
1.0
 17
0.0
 27
0.0
 37
0.0
 40
9.0000003983714123
 41
2.4144144144144142
 42
50.0
 43
0.0
 44
0.0
 50
0.0
 51
0.0
 71
     0
 72
   100
 73
     1
 74
     1
 75
     0
 76
     0
 77
     0
 78
     0
  0
ENDTAB
  0
TABLE
  2
LTYPE
 70
     9
  0
LTYPE
  2
CONTINUOUS
 70
     0
  3
Solid line
 72
    65
 73
     0
 40
0.0
  0
LTYPE
  2
BORDER
 70
     0
  3
__ __ . __ __ .
 72
    65
 73
     6
 40
75.756578947368439
 49
21.64473684210526
 49
-10.82236842105263
 49
21.64473684210526
 49
-10.82236842105263
 49
0.0
 49
-10.82236842105263
  0
LTYPE
  2
CENTER
 70
     0
  3
____ _ ____ _
 72
    65
 73
     4
 40
86.578947368421055
 49
54.11184210526315
 49
-10.82236842105263
 49
10.82236842105263
 49
-10.82236842105263
  0
LTYPE
  2
DASHDOT
 70
     0
  3
__ . __ . __ .
 72
    65
 73
     4
 40
43.289473684210527
 49
21.64473684210526
 49
-10.82236842105263
 49
0.0
 49
-10.82236842105263
  0
LTYPE
  2
DASHED
 70
     0
  3
__ __ __ __ __
 72
    65
 73
     2
 40
32.46710526315789
 49
21.64473684210526
 49
-10.82236842105263
  0
LTYPE
  2
DIVIDE
 70
     0
  3
__ . . __ . . 
 72
    65
 73
     6
 40
54.11184210526315
 49
21.64473684210526
 49
-10.82236842105263
 49
0.0
 49
-10.82236842105263
 49
0.0
 49
-10.82236842105263
  0
LTYPE
  2
DOT
 70
     0
  3
..............
 72
    65
 73
     4
 40
21.64473684210526
 49
0.0
 49
-10.82236842105263
 49
0.0
 49
-10.82236842105263
  0
LTYPE
  2
HIDDEN
 70
     0
  3
_ _ _ _ _ _ _
 72
    65
 73
     2
 40
16.233552631578942
 49
10.82236842105263
 49
-5.411184210526315
  0
LTYPE
  2
PHANTOM
 70
     0
  3
_____ _ _ _____ _ _ 
 72
    65
 73
     6
 40
108.2236842105263
 49
54.11184210526315
 49
-10.82236842105263
 49
10.82236842105263
 49
-10.82236842105263
 49
10.82236842105263
 49
-10.82236842105263
  0
ENDTAB
  0
TABLE
  2
LAYER
 70
     2
  0
LAYER
  2
0
 70
     0
 62
     7
  6
CONTINUOUS
  0
LAYER
  2
1
 70
     0
 62
     7
  6
CONTINUOUS
  0
ENDTAB
  0
TABLE
  2
STYLE
 70
     4
  0
STYLE
  2
STANDARD
 70
     0
 40
0.0
 41
1.0
 50
0.0
 71
     0
 42
3.5
  3
txt
  4

  0
STYLE
  2
SIMPLEX
 70
     0
 40
0.0
 41
1.0
 50
0.0
 71
     0
 42
3.5
  3
simplex
  4

  0
STYLE
  2
COMPLEX
 70
     0
 40
0.0
 41
1.0
 50
0.0
 71
     0
 42
3.5
  3
complex
  4

  0
STYLE
  2
ITALIC
 70
     0
 40
0.0
 41
1.0
 50
0.0
 71
     0
 42
3.5
  3
italic
  4

  0
ENDTAB
  0
TABLE
  2
VIEW
 70
     0
  0
ENDTAB
  0
TABLE
  2
UCS
 70
     0
  0
ENDTAB
  0
TABLE
  2
APPID
 70
     1
  0
APPID
  2
ACAD
 70
     0
  0
ENDTAB
  0
TABLE
  2
DIMSTYLE
 70
     1
  0
DIMSTYLE
  2
STANDARD
 70
     0
  3

  4

  5

  6

  7

 40
1.0
 41
0.18
 42
0.0625
 43
0.38
 44
0.18
 45
0.0
 46
0.0
 47
0.0
 48
0.0
140
0.18
141
0.09
142
0.0
143
25.399999999999999
144
1.0
145
0.0
146
1.0
147
0.09
 71
     0
 72
     0
 73
     1
 74
     1
 75
     0
 76
     0
 77
     0
 78
     0
170
     0
171
     2
172
     0
173
     0
174
     0
175
     0
176
     0
177
     0
178
     0
  0
ENDTAB
  0
ENDSEC
  0
SECTION
  2
BLOCKS
  0
BLOCK
  8
0
  2
$MODEL_SPACE
 70
     0
 10
0.0
 20
0.0
 30
0.0
  3
$MODEL_SPACE
  1

  0
ENDBLK
  5
20
  8
0
  0
BLOCK
 67
     1
  8
0
  2
$PAPER_SPACE
 70
     0
 10
0.0
 20
0.0
 30
0.0
  3
$PAPER_SPACE
  1

  0
ENDBLK
  5
1C
 67
     1
  8
0
  0
ENDSEC
  0
SECTION
  2
ENTITIES
  0
LINE
  5
33
  8
1
 62
     7
 10
-824.23266272189289
 20
175.669112853754
 30
0.0
 11
-806.23266272189255
 21
175.669112853754
 31
0.0
  0
LINE
  5
34
  8
1
 62
     7
 10
-1308.4326627218929
 20
149.27494739977541
 30
0.0
 11
-1305.2326627218929
 21
149.27494739977541
 31
0.0
  0
LINE
  5
35
  8
1
 62
     7
 10
-1309.7326627218929
 20
157.26911285375411
 30
0.0
 11
-1309.7326627218929
 21
166.46911285375401
 31
0.0
  0
LINE
  5
36
  8
1
 62
     7
 10
-1308.4326627218929
 20
149.27494739977541
 30
0.0
 11
-1308.4326627218929
 21
173.86911285375399
 31
0.0
  0
LINE
  5
37
  8
1
 62
     7
 10
-1314.4326627218929
 20
157.6191128537541
 30
0.0
 11
-1314.4326627218929
 21
166.1191128537541
 31
0.0
  0
LINE
  5
38
  8
1
 62
     7
 10
-1309.7326627218929
 20
157.6191128537541
 30
0.0
 11
-1314.4326627218929
 21
157.6191128537541
 31
0.0
  0
LINE
  5
39
  8
1
 62
     7
 10
-1314.4326627218929
 20
157.6191128537541
 30
0.0
 11
-1314.732662721892
 21
158.13872809602461
 31
0.0
  0
LINE
  5
3A
  8
1
 62
     7
 10
-1314.732662721892
 20
158.13872809602461
 30
0.0
 11
-1314.732662721892
 21
165.59949761148329
 31
0.0
  0
LINE
  5
3B
  8
1
 62
     7
 10
-1314.732662721892
 20
165.59949761148329
 30
0.0
 11
-1314.4326627218929
 21
166.1191128537541
 31
0.0
  0
LINE
  5
3C
  8
1
 62
     7
 10
-1314.4326627218929
 20
166.1191128537541
 30
0.0
 11
-1309.7326627218929
 21
166.1191128537541
 31
0.0
  0
LINE
  5
3D
  8
1
 62
     7
 10
-1308.4326627218929
 20
157.26911285375411
 30
0.0
 11
-1309.7326627218929
 21
157.26911285375411
 31
0.0
  0
LINE
  5
3E
  8
1
 62
     7
 10
-1309.7326627218929
 20
166.46911285375401
 30
0.0
 11
-1308.4326627218929
 21
166.46911285375401
 31
0.0
  0
LINE
  5
3F
  8
1
 62
     7
 10
-1309.7326627218929
 20
161.8691128537541
 30
0.0
 11
-1308.4326627218929
 21
160.56911285375401
 31
0.0
  0
LINE
  5
40
  8
1
 62
     7
 10
-1309.7326627218929
 20
163.16911285375409
 30
0.0
 11
-1308.4326627218929
 21
161.8691128537541
 31
0.0
  0
LINE
  5
41
  8
1
 62
     7
 10
-1308.4326627218929
 20
152.8691128537541
 30
0.0
 11
-1320.232662721892
 21
152.8691128537541
 31
0.0
  0
LINE
  5
42
  8
1
 62
     7
 10
-1305.2326627218929
 20
173.86911285375399
 30
0.0
 11
-1308.4326627218929
 21
173.86911285375399
 31
0.0
  0
LINE
  5
43
  8
1
 62
     7
 10
-1320.232662721892
 20
152.8691128537541
 30
0.0
 11
-1320.232662721892
 21
245.86911285375399
 31
0.0
  0
LINE
  5
44
  8
1
 62
     7
 10
-1320.232662721892
 20
245.86911285375399
 30
0.0
 11
-1305.2326627218929
 21
245.86911285375399
 31
0.0
  0
LINE
  5
45
  8
1
 62
     7
 10
-1314.4026627218921
 20
245.8691128537541
 30
0.0
 11
-1314.4026627218921
 21
270.75327205876403
 31
0.0
  0
LINE
  5
46
  8
1
 62
     7
 10
-1317.0326627218931
 20
245.8691128537541
 30
0.0
 11
-1317.0326627218931
 21
270.75327205876403
 31
0.0
  0
LINE
  5
47
  8
1
 62
     7
 10
-1316.070399631576
 20
275.75327205876403
 30
0.0
 11
-1316.070399631576
 21
270.75327205876403
 31
0.0
  0
LINE
  5
48
  8
1
 62
     7
 10
-1316.475528718742
 20
275.75327205876403
 30
0.0
 11
-1316.475528718742
 21
270.75327205876403
 31
0.0
  0
LINE
  5
49
  8
1
 62
     7
 10
-1315.332485937095
 20
275.75327205876403
 30
0.0
 11
-1315.332485937095
 21
270.75327205876403
 31
0.0
  0
LINE
  5
4A
  8
1
 62
     7
 10
-1314.95629464187
 20
275.75327205876403
 30
0.0
 11
-1314.95629464187
 21
270.75327205876403
 31
0.0
  0
LINE
  5
4B
  8
1
 62
     7
 10
-1317.0326627218931
 20
270.75327205876403
 30
0.0
 11
-1314.4026627218921
 21
270.75327205876403
 31
0.0
  0
LINE
  5
4C
  8
1
 62
     7
 10
-1315.717662721893
 20
275.75327205876403
 30
0.0
 11
-1315.717662721893
 21
270.75327205876403
 31
0.0
  0
LINE
  5
4D
  8
1
 62
     7
 10
-1328.232662721892
 20
90.869112853754373
 30
0.0
 11
-1317.2326627218929
 21
90.869112853754373
 31
0.0
  0
LINE
  5
4E
  8
1
 62
     7
 10
-1328.232662721892
 20
90.869112853754373
 30
0.0
 11
-1330.232662721892
 21
88.869112853754373
 31
0.0
  0
LINE
  5
4F
  8
1
 62
     7
 10
-1317.2326627218929
 20
150.86911285375439
 30
0.0
 11
-1308.4326627218929
 21
150.8691128537541
 31
0.0
  0
LINE
  5
50
  8
1
 62
     7
 10
-1191.232662721892
 20
180.86911285375399
 30
0.0
 11
-1201.232662721892
 21
190.86911285375439
 31
0.0
  0
LINE
  5
51
  8
1
 62
     7
 10
-1201.232662721892
 20
190.86911285375439
 30
0.0
 11
-1305.2326627218929
 21
190.86911285375439
 31
0.0
  0
LINE
  5
52
  8
1
 62
     7
 10
-1191.232662721892
 20
174.86911285375399
 30
0.0
 11
-1181.1326627218921
 21
174.86911285375399
 31
0.0
  0
LINE
  5
53
  8
1
 62
     7
 10
-1145.0326627218931
 20
190.86911285375399
 30
0.0
 11
-1181.1326627218921
 21
190.86911285375439
 31
0.0
  0
LINE
  5
54
  8
1
 62
     3
 10
-1145.0326627218931
 20
15.86911285375413
 30
0.0
 11
-1181.1326627218921
 21
190.86911285375439
 31
0.0
  0
LINE
  5
55
  8
1
 62
     3
 10
-1145.0326627218931
 20
190.86911285375399
 30
0.0
 11
-1181.1326627218921
 21
15.86911285375413
 31
0.0
  0
LINE
  5
56
  8
1
 62
     7
 10
-1123.0326627218931
 20
164.86911285375399
 30
0.0
 11
-1133.0326627218931
 21
174.86911285375439
 31
0.0
  0
LINE
  5
57
  8
1
 62
     7
 10
-1133.0326627218931
 20
174.86911285375439
 30
0.0
 11
-1145.0326627218931
 21
174.86911285375439
 31
0.0
  0
LINE
  5
58
  8
1
 62
     7
 10
-1120.232662721892
 20
102.8691128537541
 30
0.0
 11
-1123.0326627218931
 21
105.6691128537541
 31
0.0
  0
LINE
  5
59
  8
1
 62
     7
 10
-920.23266272189255
 20
-119.1308871462458
 30
0.0
 11
-920.23266272189255
 21
-159.1308871462459
 31
0.0
  0
LINE
  5
5A
  8
1
 62
     7
 10
-945.23266272189255
 20
-57.130887146245868
 30
0.0
 11
-945.23266272189255
 21
15.8691128537541
 31
0.0
  0
LINE
  5
5B
  8
1
 62
     7
 10
-735.23266272189278
 20
-71.130887146245868
 30
0.0
 11
-735.23266272189267
 21
15.8691128537541
 31
0.0
  0
LINE
  5
5C
  8
1
 62
     7
 10
-745.03266272189273
 20
-71.630887146245911
 30
0.0
 11
-749.03266272189273
 21
-71.630887146245911
 31
0.0
  0
LINE
  5
5D
  8
1
 62
     7
 10
-796.13266272189287
 20
-63.130887146245868
 30
0.0
 11
-796.13266272189287
 21
-72.330887146245914
 31
0.0
  0
LINE
  5
5E
  8
1
 62
     7
 10
-920.23266272189255
 20
-56.630887146245868
 30
0.0
 11
-920.23266272189255
 21
-102.1308871462458
 31
0.0
  0
LINE
  5
5F
  8
1
 62
     7
 10
-885.23266272189267
 20
-59.13088714624589
 30
0.0
 11
-885.23266272189267
 21
-96.630887146245897
 31
0.0
  0
LINE
  5
60
  8
1
 62
     7
 10
-932.23266272189255
 20
-119.1308871462458
 30
0.0
 11
-932.23266272189255
 21
-71.630887146245868
 31
0.0
  0
LINE
  5
61
  8
1
 62
     7
 10
-920.23266272189255
 20
-119.1308871462458
 30
0.0
 11
-932.23266272189255
 21
-119.1308871462458
 31
0.0
  0
LINE
  5
62
  8
1
 62
     7
 10
-735.23266272189278
 20
-39.130887146245868
 30
0.0
 11
-768.23266272189289
 21
-39.130887146245868
 31
0.0
  0
LINE
  5
63
  8
1
 62
     7
 10
-858.23266272189267
 20
-39.13088714624589
 30
0.0
 11
-945.23266272189255
 21
-39.13088714624589
 31
0.0
  0
LINE
  5
64
  8
1
 62
     7
 10
-838.23266272189301
 20
-39.63088714624589
 30
0.0
 11
-838.23266272189278
 21
15.86911285375413
 31
0.0
  0
LINE
  5
65
  8
1
 62
     7
 10
-858.23266272189267
 20
-39.63088714624589
 30
0.0
 11
-858.23266272189289
 21
15.86911285375413
 31
0.0
  0
LINE
  5
66
  8
1
 62
     7
 10
-858.23266272189267
 20
-39.63088714624589
 30
0.0
 11
-838.23266272189301
 21
-39.63088714624589
 31
0.0
  0
LINE
  5
67
  8
1
 62
     7
 10
-848.23266272189255
 20
-70.130887146245897
 30
0.0
 11
-850.23266272189267
 21
-70.130887146245897
 31
0.0
  0
LINE
  5
68
  8
1
 62
     7
 10
-848.23266272189289
 20
-87.130887146245868
 30
0.0
 11
-848.23266272189255
 21
-70.130887146245897
 31
0.0
  0
LINE
  5
69
  8
1
 62
     7
 10
-822.23266272189289
 20
-87.130887146245868
 30
0.0
 11
-848.23266272189289
 21
-87.130887146245868
 31
0.0
  0
LINE
  5
6A
  8
1
 62
     7
 10
-822.23266272189289
 20
-142.93088714624571
 30
0.0
 11
-822.23266272189289
 21
-87.130887146245868
 31
0.0
  0
LINE
  5
6B
  8
1
 62
     7
 10
-796.13266272189287
 20
-142.93088714624571
 30
0.0
 11
-822.23266272189289
 21
-142.93088714624571
 31
0.0
  0
LINE
  5
6C
  8
1
 62
     7
 10
-925.23266272189267
 20
-99.130887146245882
 30
0.0
 11
-932.23266272189255
 21
-99.130887146245882
 31
0.0
  0
LINE
  5
6D
  8
1
 62
     7
 10
-925.23266272189267
 20
-88.130887146245897
 30
0.0
 11
-920.23266272189255
 21
-88.130887146245897
 31
0.0
  0
LINE
  5
6E
  8
1
 62
     7
 10
-925.23266272189267
 20
-102.1308871462458
 30
0.0
 11
-925.23266272189267
 21
-73.891274478355825
 31
0.0
  0
LINE
  5
6F
  8
1
 62
     7
 10
-925.23266272189267
 20
-102.1308871462458
 30
0.0
 11
-920.23266272189255
 21
-102.1308871462458
 31
0.0
  0
LINE
  5
70
  8
1
 62
     7
 10
-924.23266272189267
 20
-56.630887146245868
 30
0.0
 11
-924.23266272189267
 21
-68.230887146245792
 31
0.0
  0
LINE
  5
71
  8
1
 62
     7
 10
-920.23266272189255
 20
-56.630887146245868
 30
0.0
 11
-924.23266272189267
 21
-56.630887146245868
 31
0.0
  0
LINE
  5
72
  8
1
 62
     7
 10
-924.23266272189267
 20
-68.230887146245792
 30
0.0
 11
-920.23266272189255
 21
-68.230887146245792
 31
0.0
  0
LINE
  5
73
  8
1
 62
     3
 10
-902.73266272189255
 20
-90.693387146245882
 30
0.0
 11
-902.73266272189255
 21
-65.068387146245868
 31
0.0
  0
LINE
  5
74
  8
1
 62
     3
 10
-915.54516272189255
 20
-77.880887146245868
 30
0.0
 11
-889.92016272189278
 21
-77.880887146245868
 31
0.0
  0
LINE
  5
75
  8
1
 62
     7
 10
-908.65896795787251
 20
-87.443387146245868
 30
0.0
 11
-920.23266272189255
 21
-87.443387146245868
 31
0.0
  0
LINE
  5
76
  8
1
 62
     7
 10
-908.65896795787251
 20
-68.318387146245868
 30
0.0
 11
-920.23266272189255
 21
-68.318387146245868
 31
0.0
  0
LINE
  5
77
  8
1
 62
     7
 10
-885.23266272189278
 20
-62.630887146245861
 30
0.0
 11
-885.23266272189278
 21
-93.130887146245897
 31
0.0
  0
LINE
  5
78
  8
1
 62
     3
 10
-867.73266272189289
 20
-90.693387146245882
 30
0.0
 11
-867.73266272189289
 21
-65.068387146245868
 31
0.0
  0
LINE
  5
79
  8
1
 62
     3
 10
-880.54516272189278
 20
-77.880887146245868
 30
0.0
 11
-854.92016272189289
 21
-77.880887146245868
 31
0.0
  0
LINE
  5
7A
  8
1
 62
     7
 10
-873.65896795787262
 20
-87.443387146245868
 30
0.0
 11
-896.80635748591328
 21
-87.443387146245868
 31
0.0
  0
LINE
  5
7B
  8
1
 62
     7
 10
-861.80635748591328
 20
-87.443387146245868
 30
0.0
 11
-850.23266272189289
 21
-87.443387146245868
 31
0.0
  0
LINE
  5
7C
  8
1
 62
     7
 10
-873.65896795787262
 20
-68.318387146245868
 30
0.0
 11
-896.80635748591328
 21
-68.318387146245868
 31
0.0
  0
LINE
  5
7D
  8
1
 62
     7
 10
-861.80635748591328
 20
-68.318387146245868
 30
0.0
 11
-850.23266272189289
 21
-68.318387146245868
 31
0.0
  0
LINE
  5
7E
  8
1
 62
     7
 10
-920.23266272189255
 20
-59.130887146245868
 30
0.0
 11
-845.23266272189278
 21
-59.130887146245868
 31
0.0
  0
LINE
  5
7F
  8
1
 62
     7
 10
-850.23266272189289
 20
-96.630887146245882
 30
0.0
 11
-920.23266272189255
 21
-96.630887146245882
 31
0.0
  0
LINE
  5
80
  8
1
 62
     7
 10
-850.23266272189289
 20
-59.130887146245868
 30
0.0
 11
-850.23266272189289
 21
-96.630887146245882
 31
0.0
  0
LINE
  5
81
  8
1
 62
     7
 10
-816.23266272189289
 20
-159.1308871462459
 30
0.0
 11
-806.23266272189289
 21
-149.13088714624581
 31
0.0
  0
LINE
  5
82
  8
1
 62
     7
 10
-816.23266272189289
 20
-159.1308871462459
 30
0.0
 11
-920.23266272189255
 21
-159.1308871462459
 31
0.0
  0
LINE
  5
83
  8
1
 62
     7
 10
-806.23266272189289
 20
-143.93088714624579
 30
0.0
 11
-824.23266272189289
 21
-143.93088714624579
 31
0.0
  0
LINE
  5
84
  8
1
 62
     7
 10
-824.23266272189289
 20
-88.430887146245809
 30
0.0
 11
-850.23266272189289
 21
-88.430887146245809
 31
0.0
  0
LINE
  5
85
  8
1
 62
     7
 10
-824.23266272189289
 20
-143.93088714624579
 30
0.0
 11
-824.23266272189289
 21
-88.430887146245809
 31
0.0
  0
LINE
  5
86
  8
1
 62
     7
 10
-806.23266272189289
 20
-149.13088714624581
 30
0.0
 11
-806.23266272189289
 21
-143.93088714624579
 31
0.0
  0
LINE
  5
87
  8
1
 62
     7
 10
-796.23266272189289
 20
-63.130887146245868
 30
0.0
 11
-850.23266272189267
 21
-63.130887146245897
 31
0.0
  0
LINE
  5
88
  8
1
 62
     7
 10
-845.23266272189255
 20
-63.130887146245897
 30
0.0
 11
-845.23266272189278
 21
-59.130887146245868
 31
0.0
  0
LINE
  5
89
  8
1
 62
     7
 10
-924.23266272189267
 20
-59.130887146245868
 30
0.0
 11
-943.23266272189267
 21
-59.130887146245868
 31
0.0
  0
LINE
  5
8A
  8
1
 62
     7
 10
-760.03266272189285
 20
-159.1308871462459
 30
0.0
 11
-760.03266272189285
 21
-72.330887146245914
 31
0.0
  0
LINE
  5
8B
  8
1
 62
     7
 10
-760.03266272189285
 20
-159.1308871462459
 30
0.0
 11
-796.13266272189287
 21
-159.1308871462459
 31
0.0
  0
LINE
  5
8C
  8
1
 62
     7
 10
-796.13266272189287
 20
-159.1308871462459
 30
0.0
 11
-796.13266272189287
 21
-72.330887146245914
 31
0.0
  0
LINE
  5
8D
  8
1
 62
     7
 10
-760.03266272189285
 20
-143.13088714624581
 30
0.0
 11
-748.03266272189285
 21
-143.13088714624581
 31
0.0
  0
LINE
  5
8E
  8
1
 62
     7
 10
-738.03266272189273
 20
-94.130887146245897
 30
0.0
 11
-744.03266272189273
 21
-88.130887146245897
 31
0.0
  0
LINE
  5
8F
  8
1
 62
     7
 10
-744.03266272189273
 20
-88.130887146245897
 30
0.0
 11
-746.03266272189273
 21
-88.130887146245897
 31
0.0
  0
LINE
  5
90
  8
1
 62
     7
 10
-749.03266272189273
 20
-85.130887146245925
 30
0.0
 11
-749.03266272189273
 21
-71.630887146245911
 31
0.0
  0
LINE
  5
91
  8
1
 62
     7
 10
-749.03266272189285
 20
-72.330887146245914
 30
0.0
 11
-796.13266272189287
 21
-72.330887146245914
 31
0.0
  0
LINE
  5
92
  8
1
 62
     7
 10
-749.03266272189285
 20
-77.930887146245794
 30
0.0
 11
-796.13266272189287
 21
-77.930887146245794
 31
0.0
  0
LINE
  5
93
  8
1
 62
     7
 10
-738.03266272189285
 20
-133.1308871462459
 30
0.0
 11
-748.03266272189285
 21
-143.13088714624581
 31
0.0
  0
LINE
  5
94
  8
1
 62
     7
 10
-738.23266272189255
 20
-74.130887146245911
 30
0.0
 11
-745.03266272189273
 21
-74.130887146245911
 31
0.0
  0
LINE
  5
95
  8
1
 62
     7
 10
-768.23266272189289
 20
-39.630887146245868
 30
0.0
 11
-788.23266272189289
 21
-39.630887146245868
 31
0.0
  0
LINE
  5
96
  8
1
 62
     7
 10
-788.23266272189289
 20
-39.630887146245868
 30
0.0
 11
-788.23266272189289
 21
15.86911285375413
 31
0.0
  0
LINE
  5
97
  8
1
 62
     7
 10
-768.23266272189289
 20
-39.630887146245868
 30
0.0
 11
-768.23266272189289
 21
15.86911285375413
 31
0.0
  0
LINE
  5
98
  8
1
 62
     7
 10
-788.23266272189289
 20
-39.130887146245868
 30
0.0
 11
-838.23266272189301
 21
-39.13088714624589
 31
0.0
  0
LINE
  5
99
  8
1
 62
     3
 10
-760.03266272189285
 20
-72.330887146245914
 30
0.0
 11
-796.13266272189287
 21
-159.1308871462459
 31
0.0
  0
LINE
  5
9A
  8
1
 62
     3
 10
-760.03266272189285
 20
-159.1308871462459
 30
0.0
 11
-796.13266272189287
 21
-72.330887146245914
 31
0.0
  0
LINE
  5
9B
  8
1
 62
     7
 10
-745.03266272189319
 20
-82.030887146245959
 30
0.0
 11
-749.03266272189285
 21
-82.030887146245959
 31
0.0
  0
LINE
  5
9C
  8
1
 62
     7
 10
-745.03266272189319
 20
-82.030887146245959
 30
0.0
 11
-745.03266272189273
 21
-71.630887146245911
 31
0.0
  0
LINE
  5
9D
  8
1
 62
     7
 10
-744.03266272189273
 20
-88.130887146245897
 30
0.0
 11
-744.03266272189285
 21
-80.211353109385769
 31
0.0
  0
LINE
  5
9E
  8
1
 62
     7
 10
-738.03266272189285
 20
-133.1308871462459
 30
0.0
 11
-738.03266272189285
 21
-80.211353109385769
 31
0.0
  0
LINE
  5
9F
  8
1
 62
     7
 10
-945.23266272189255
 20
-57.130887146245868
 30
0.0
 11
-943.23266272189267
 21
-59.130887146245868
 31
0.0
  0
LINE
  5
A0
  8
1
 62
     7
 10
-735.23266272189278
 20
-71.130887146245868
 30
0.0
 11
-738.23266272189255
 21
-74.130887146245911
 31
0.0
  0
LINE
  5
A1
  8
1
 62
     7
 10
-775.73266272189255
 20
-39.63088714624589
 30
0.0
 11
-775.73266272189289
 21
-71.930887146245809
 31
0.0
  0
LINE
  5
A2
  8
1
 62
     7
 10
-780.73266272189289
 20
-71.930887146245809
 30
0.0
 11
-780.73266272189267
 21
-39.63088714624589
 31
0.0
  0
LINE
  5
A3
  8
1
  6
DASHDOT
 62
     3
 10
-778.23266272189289
 20
-36.630887146245868
 30
0.0
 11
-778.23266272189289
 21
-74.930887146245809
 31
0.0
  0
LINE
  5
A4
  8
1
 62
     7
 10
-845.73266272189267
 20
-39.63088714624589
 30
0.0
 11
-845.73266272189289
 21
-59.130887146245868
 31
0.0
  0
LINE
  5
A5
  8
1
 62
     7
 10
-850.73266272189255
 20
-59.13088714624589
 30
0.0
 11
-850.73266272189255
 21
-39.63088714624589
 31
0.0
  0
LINE
  5
A6
  8
1
  6
DASHDOT
 62
     3
 10
-848.23266272189289
 20
-36.630887146245868
 30
0.0
 11
-848.23266272189289
 21
-62.130887146245868
 31
0.0
  0
LINE
  5
A7
  8
1
 62
     7
 10
-945.23266272189255
 20
15.8691128537541
 30
0.0
 11
-945.23266272189255
 21
88.869112853754103
 31
0.0
  0
LINE
  5
A8
  8
1
 62
     7
 10
-735.23266272189267
 20
15.8691128537541
 30
0.0
 11
-735.23266272189278
 21
102.8691128537541
 31
0.0
  0
LINE
  5
A9
  8
1
 62
     7
 10
-749.03266272189273
 20
103.369112853754
 30
0.0
 11
-745.03266272189273
 21
103.369112853754
 31
0.0
  0
LINE
  5
AA
  8
1
 62
     7
 10
-796.13266272189287
 20
104.06911285375411
 30
0.0
 11
-796.13266272189287
 21
94.869112853754103
 31
0.0
  0
LINE
  5
AB
  8
1
 62
     7
 10
-920.23266272189255
 20
133.8691128537541
 30
0.0
 11
-920.23266272189255
 21
88.369112853754118
 31
0.0
  0
LINE
  5
AC
  8
1
 62
     7
 10
-885.23266272189267
 20
128.36911285375399
 30
0.0
 11
-885.23266272189267
 21
90.869112853754103
 31
0.0
  0
LINE
  5
AD
  8
1
 62
     7
 10
-1330.232662721892
 20
-57.130887146245868
 30
0.0
 11
-1330.232662721892
 21
88.869112853754373
 31
0.0
  0
LINE
  5
AE
  8
1
 62
     7
 10
-1317.2326627218929
 20
-59.130887146245868
 30
0.0
 11
-1328.232662721892
 21
-59.130887146245868
 31
0.0
  0
LINE
  5
AF
  8
1
 62
     7
 10
-1317.2326627218929
 20
150.86911285375439
 30
0.0
 11
-1317.2326627218929
 21
-119.1308871462458
 31
0.0
  0
LINE
  5
B0
  8
1
 62
     7
 10
-1330.232662721892
 20
-57.130887146245868
 30
0.0
 11
-1328.232662721892
 21
-59.130887146245868
 31
0.0
  0
LINE
  5
B1
  8
1
 62
     7
 10
-1328.232662721892
 20
90.869112853754373
 30
0.0
 11
-1328.232662721892
 21
-59.130887146245868
 31
0.0
  0
LINE
  5
B2
  8
1
 62
     7
 10
-1305.2326627218929
 20
-159.1308871462459
 30
0.0
 11
-1305.2326627218929
 21
245.86911285375399
 31
0.0
  0
LINE
  5
B3
  8
1
 62
     7
 10
-1305.2326627218929
 20
-119.1308871462458
 30
0.0
 11
-1317.2326627218929
 21
-119.1308871462458
 31
0.0
  0
LINE
  5
B4
  8
1
 62
     7
 10
-1201.232662721892
 20
-159.1308871462459
 30
0.0
 11
-1191.232662721892
 21
-149.13088714624581
 31
0.0
  0
LINE
  5
B5
  8
1
 62
     7
 10
-1305.2326627218929
 20
-159.1308871462459
 30
0.0
 11
-1201.232662721892
 21
-159.1308871462459
 31
0.0
  0
LINE
  5
B6
  8
1
 62
     7
 10
-1201.232662721892
 20
-159.1308871462459
 30
0.0
 11
-1201.232662721892
 21
190.86911285375439
 31
0.0
  0
LINE
  5
B7
  8
1
 62
     7
 10
-1191.232662721892
 20
180.86911285375399
 30
0.0
 11
-1191.232662721892
 21
-149.13088714624581
 31
0.0
  0
LINE
  5
B8
  8
1
 62
     7
 10
-1181.1326627218921
 20
-143.13088714624581
 30
0.0
 11
-1191.232662721892
 21
-143.13088714624581
 31
0.0
  0
LINE
  5
B9
  8
1
 62
     7
 10
-1181.1326627218921
 20
190.86911285375439
 30
0.0
 11
-1181.1326627218921
 21
-159.1308871462459
 31
0.0
  0
LINE
  5
BA
  8
1
 62
     7
 10
-1145.0326627218931
 20
-159.1308871462459
 30
0.0
 11
-1145.0326627218931
 21
190.86911285375399
 31
0.0
  0
LINE
  5
BB
  8
1
 62
     7
 10
-1181.1326627218921
 20
-159.1308871462459
 30
0.0
 11
-1145.0326627218931
 21
-159.1308871462459
 31
0.0
  0
LINE
  5
BC
  8
1
 62
     3
 10
-1181.1326627218921
 20
-159.1308871462459
 30
0.0
 11
-1145.0326627218931
 21
15.86911285375413
 31
0.0
  0
LINE
  5
BD
  8
1
 62
     3
 10
-1181.1326627218921
 20
15.86911285375413
 30
0.0
 11
-1145.0326627218931
 21
-159.1308871462459
 31
0.0
  0
LINE
  5
BE
  8
1
 62
     7
 10
-1123.0326627218931
 20
-133.1308871462459
 30
0.0
 11
-1123.0326627218931
 21
164.86911285375399
 31
0.0
  0
LINE
  5
BF
  8
1
 62
     7
 10
-1133.0326627218931
 20
-143.1308871462459
 30
0.0
 11
-1123.0326627218931
 21
-133.1308871462459
 31
0.0
  0
LINE
  5
C0
  8
1
 62
     7
 10
-1133.0326627218931
 20
174.86911285375439
 30
0.0
 11
-1133.0326627218931
 21
-143.1308871462459
 31
0.0
  0
LINE
  5
C1
  8
1
 62
     7
 10
-1145.0326627218931
 20
-143.13088714624581
 30
0.0
 11
-1133.0326627218931
 21
-143.1308871462459
 31
0.0
  0
LINE
  5
C2
  8
1
 62
     7
 10
-1120.232662721892
 20
-71.130887146245868
 30
0.0
 11
-1120.232662721892
 21
102.8691128537541
 31
0.0
  0
LINE
  5
C3
  8
1
 62
     7
 10
-1123.0326627218931
 20
-73.930887146245809
 30
0.0
 11
-1120.232662721892
 21
-71.130887146245868
 31
0.0
  0
LINE
  5
C4
  8
1
 62
     7
 10
-920.23266272189255
 20
150.8691128537541
 30
0.0
 11
-920.23266272189255
 21
245.8691128537541
 31
0.0
  0
LINE
  5
C5
  8
1
 62
     7
 10
-932.23266272189255
 20
103.369112853754
 30
0.0
 11
-932.23266272189255
 21
150.8691128537541
 31
0.0
  0
LINE
  5
C6
  8
1
 62
     7
 10
-932.23266272189255
 20
150.8691128537541
 30
0.0
 11
-920.23266272189255
 21
150.8691128537541
 31
0.0
  0
LINE
  5
C7
  8
1
  6
DASHED
 62
     7
 10
-932.03266272189273
 20
152.8691128537541
 30
0.0
 11
-932.03266272189273
 21
245.8691128537541
 31
0.0
  0
LINE
  5
C8
  8
1
 62
     7
 10
-935.23266272189267
 20
152.8691128537541
 30
0.0
 11
-935.23266272189267
 21
245.8691128537541
 31
0.0
  0
LINE
  5
C9
  8
1
 62
     7
 10
-935.23266272189267
 20
152.8691128537541
 30
0.0
 11
-920.23266272189255
 21
152.8691128537541
 31
0.0
  0
LINE
  5
CA
  8
1
 62
     7
 10
-935.23266272189267
 20
245.8691128537541
 30
0.0
 11
-920.23266272189255
 21
245.8691128537541
 31
0.0
  0
LINE
  5
CB
  8
1
 62
     7
 10
-768.23266272189267
 20
70.869112853754089
 30
0.0
 11
-735.23266272189267
 21
70.869112853754089
 31
0.0
  0
LINE
  5
CC
  8
1
 62
     7
 10
-945.23266272189255
 20
79.869112853754089
 30
0.0
 11
-735.23266272189267
 21
79.869112853754089
 31
0.0
  0
LINE
  5
CD
  8
1
 62
     7
 10
-945.23266272189255
 20
70.869112853754089
 30
0.0
 11
-858.23266272189267
 21
70.869112853754089
 31
0.0
  0
LINE
  5
CE
  8
1
 62
     7
 10
-838.23266272189278
 20
15.86911285375413
 30
0.0
 11
-838.23266272189301
 21
71.369112853754089
 31
0.0
  0
LINE
  5
CF
  8
1
 62
     7
 10
-858.23266272189289
 20
15.86911285375413
 30
0.0
 11
-858.23266272189267
 21
71.369112853754089
 31
0.0
  0
LINE
  5
D0
  8
1
 62
     7
 10
-838.23266272189301
 20
71.369112853754089
 30
0.0
 11
-858.23266272189267
 21
71.369112853754089
 31
0.0
  0
LINE
  5
D1
  8
1
 62
     7
 10
-850.23266272189267
 20
101.8691128537541
 30
0.0
 11
-848.23266272189255
 21
101.8691128537541
 31
0.0
  0
LINE
  5
D2
  8
1
 62
     7
 10
-848.23266272189255
 20
101.8691128537541
 30
0.0
 11
-848.23266272189289
 21
118.869112853754
 31
0.0
  0
LINE
  5
D3
  8
1
 62
     7
 10
-848.23266272189289
 20
118.869112853754
 30
0.0
 11
-822.23266272189289
 21
118.869112853754
 31
0.0
  0
LINE
  5
D4
  8
1
 62
     7
 10
-822.23266272189289
 20
118.869112853754
 30
0.0
 11
-822.23266272189289
 21
174.669112853754
 31
0.0
  0
LINE
  5
D5
  8
1
 62
     7
 10
-822.23266272189289
 20
174.669112853754
 30
0.0
 11
-796.13266272189287
 21
174.669112853754
 31
0.0
  0
LINE
  5
D6
  8
1
 62
     7
 10
-932.23266272189255
 20
130.8691128537541
 30
0.0
 11
-925.23266272189267
 21
130.8691128537541
 31
0.0
  0
LINE
  5
D7
  8
1
 62
     7
 10
-920.23266272189255
 20
119.869112853754
 30
0.0
 11
-925.23266272189267
 21
119.869112853754
 31
0.0
  0
LINE
  5
D8
  8
1
 62
     7
 10
-925.23266272189267
 20
105.6295001858641
 30
0.0
 11
-925.23266272189267
 21
133.8691128537541
 31
0.0
  0
LINE
  5
D9
  8
1
 62
     7
 10
-920.23266272189255
 20
133.8691128537541
 30
0.0
 11
-925.23266272189267
 21
133.8691128537541
 31
0.0
  0
LINE
  5
DA
  8
1
 62
     7
 10
-924.23266272189267
 20
99.969112853754041
 30
0.0
 11
-924.23266272189267
 21
88.369112853754118
 31
0.0
  0
LINE
  5
DB
  8
1
 62
     7
 10
-924.23266272189267
 20
88.369112853754118
 30
0.0
 11
-920.23266272189255
 21
88.369112853754118
 31
0.0
  0
LINE
  5
DC
  8
1
 62
     7
 10
-920.23266272189255
 20
99.969112853754041
 30
0.0
 11
-924.23266272189267
 21
99.969112853754041
 31
0.0
  0
LINE
  5
DD
  8
1
 62
     3
 10
-902.73266272189255
 20
96.806612853754118
 30
0.0
 11
-902.73266272189255
 21
122.4316128537541
 31
0.0
  0
LINE
  5
DE
  8
1
 62
     3
 10
-889.92016272189278
 20
109.619112853754
 30
0.0
 11
-915.54516272189255
 21
109.619112853754
 31
0.0
  0
LINE
  5
DF
  8
1
 62
     7
 10
-920.23266272189255
 20
119.1816128537541
 30
0.0
 11
-908.65896795787251
 21
119.1816128537541
 31
0.0
  0
LINE
  5
E0
  8
1
 62
     7
 10
-920.23266272189255
 20
100.0566128537541
 30
0.0
 11
-908.65896795787251
 21
100.0566128537541
 31
0.0
  0
LINE
  5
E1
  8
1
 62
     7
 10
-885.23266272189278
 20
124.8691128537541
 30
0.0
 11
-885.23266272189278
 21
94.369112853754118
 31
0.0
  0
LINE
  5
E2
  8
1
 62
     3
 10
-867.73266272189289
 20
96.806612853754118
 30
0.0
 11
-867.73266272189289
 21
122.4316128537541
 31
0.0
  0
LINE
  5
E3
  8
1
 62
     3
 10
-854.92016272189289
 20
109.619112853754
 30
0.0
 11
-880.54516272189278
 21
109.619112853754
 31
0.0
  0
LINE
  5
E4
  8
1
 62
     7
 10
-896.80635748591328
 20
119.1816128537541
 30
0.0
 11
-873.65896795787262
 21
119.1816128537541
 31
0.0
  0
LINE
  5
E5
  8
1
 62
     7
 10
-850.23266272189289
 20
119.1816128537541
 30
0.0
 11
-861.80635748591328
 21
119.1816128537541
 31
0.0
  0
LINE
  5
E6
  8
1
 62
     7
 10
-896.80635748591328
 20
100.0566128537541
 30
0.0
 11
-873.65896795787262
 21
100.0566128537541
 31
0.0
  0
LINE
  5
E7
  8
1
 62
     7
 10
-850.23266272189289
 20
100.0566128537541
 30
0.0
 11
-861.80635748591328
 21
100.0566128537541
 31
0.0
  0
LINE
  5
E8
  8
1
 62
     7
 10
-845.23266272189278
 20
90.869112853754118
 30
0.0
 11
-920.23266272189255
 21
90.869112853754118
 31
0.0
  0
LINE
  5
E9
  8
1
 62
     7
 10
-920.23266272189255
 20
128.36911285375399
 30
0.0
 11
-850.23266272189289
 21
128.36911285375399
 31
0.0
  0
LINE
  5
EA
  8
1
 62
     7
 10
-850.23266272189289
 20
128.36911285375399
 30
0.0
 11
-850.23266272189289
 21
90.869112853754118
 31
0.0
  0
LINE
  5
EB
  8
1
 62
     7
 10
-806.23266272189289
 20
180.86911285375399
 30
0.0
 11
-816.23266272189267
 21
190.86911285375399
 31
0.0
  0
LINE
  5
EC
  8
1
 62
     7
 10
-920.23266272189255
 20
190.86911285375399
 30
0.0
 11
-816.23266272189267
 21
190.86911285375399
 31
0.0
  0
LINE
  5
ED
  8
1
 62
     7
 10
-850.23266272189289
 20
120.1691128537541
 30
0.0
 11
-824.23266272189289
 21
120.1691128537541
 31
0.0
  0
LINE
  5
EE
  8
1
 62
     7
 10
-824.23266272189289
 20
120.1691128537541
 30
0.0
 11
-824.23266272189289
 21
175.669112853754
 31
0.0
  0
LINE
  5
EF
  8
1
 62
     7
 10
-806.23266272189255
 20
175.669112853754
 30
0.0
 11
-806.23266272189289
 21
180.86911285375399
 31
0.0
  0
LINE
  5
F0
  8
1
 62
     7
 10
-850.23266272189289
 20
94.869112853754103
 30
0.0
 11
-796.23266272189289
 21
94.869112853754103
 31
0.0
  0
LINE
  5
F1
  8
1
 62
     7
 10
-845.23266272189278
 20
90.869112853754118
 30
0.0
 11
-845.23266272189278
 21
94.869112853754103
 31
0.0
  0
LINE
  5
F2
  8
1
 62
     7
 10
-943.23266272189267
 20
90.869112853754118
 30
0.0
 11
-924.23266272189267
 21
90.869112853754118
 31
0.0
  0
LINE
  5
F3
  8
1
 62
     7
 10
-760.03266272189285
 20
104.06911285375411
 30
0.0
 11
-760.03266272189273
 21
190.86911285375399
 31
0.0
  0
LINE
  5
F4
  8
1
 62
     7
 10
-796.13266272189287
 20
190.86911285375399
 30
0.0
 11
-760.03266272189273
 21
190.86911285375399
 31
0.0
  0
LINE
  5
F5
  8
1
 62
     7
 10
-796.13266272189287
 20
104.06911285375411
 30
0.0
 11
-796.13266272189287
 21
190.86911285375399
 31
0.0
  0
LINE
  5
F6
  8
1
 62
     7
 10
-748.03266272189273
 20
174.8691128537541
 30
0.0
 11
-760.03266272189273
 21
174.86911285375399
 31
0.0
  0
LINE
  5
F7
  8
1
 62
     7
 10
-744.03266272189273
 20
119.869112853754
 30
0.0
 11
-738.03266272189273
 21
125.8691128537541
 31
0.0
  0
LINE
  5
F8
  8
1
 62
     7
 10
-746.03266272189273
 20
119.869112853754
 30
0.0
 11
-744.03266272189273
 21
119.869112853754
 31
0.0
  0
LINE
  5
F9
  8
1
 62
     7
 10
-749.03266272189273
 20
103.369112853754
 30
0.0
 11
-749.03266272189273
 21
116.869112853754
 31
0.0
  0
LINE
  5
FA
  8
1
 62
     7
 10
-796.13266272189287
 20
104.06911285375411
 30
0.0
 11
-749.03266272189285
 21
104.06911285375411
 31
0.0
  0
LINE
  5
FB
  8
1
 62
     7
 10
-796.13266272189287
 20
109.6691128537541
 30
0.0
 11
-749.03266272189285
 21
109.6691128537541
 31
0.0
  0
LINE
  5
FC
  8
1
 62
     7
 10
-748.03266272189273
 20
174.8691128537541
 30
0.0
 11
-738.03266272189285
 21
164.86911285375399
 31
0.0
  0
LINE
  5
FD
  8
1
 62
     7
 10
-745.03266272189273
 20
105.8691128537541
 30
0.0
 11
-738.23266272189255
 21
105.8691128537541
 31
0.0
  0
LINE
  5
FE
  8
1
 62
     7
 10
-788.23266272189255
 20
71.369112853754089
 30
0.0
 11
-768.23266272189267
 21
71.369112853754089
 31
0.0
  0
LINE
  5
FF
  8
1
 62
     7
 10
-788.23266272189289
 20
15.86911285375413
 30
0.0
 11
-788.23266272189255
 21
71.369112853754089
 31
0.0
  0
LINE
  5
100
  8
1
 62
     7
 10
-768.23266272189289
 20
15.86911285375413
 30
0.0
 11
-768.23266272189267
 21
71.369112853754089
 31
0.0
  0
LINE
  5
101
  8
1
 62
     7
 10
-838.23266272189301
 20
70.869112853754089
 30
0.0
 11
-788.23266272189255
 21
70.869112853754089
 31
0.0
  0
LINE
  5
102
  8
1
 62
     3
 10
-796.13266272189287
 20
190.86911285375399
 30
0.0
 11
-760.03266272189285
 21
104.06911285375411
 31
0.0
  0
LINE
  5
103
  8
1
 62
     3
 10
-796.13266272189287
 20
104.06911285375411
 30
0.0
 11
-760.03266272189273
 21
190.86911285375399
 31
0.0
  0
LINE
  5
104
  8
1
 62
     7
 10
-749.03266272189285
 20
113.76911285375409
 30
0.0
 11
-745.03266272189319
 21
113.76911285375409
 31
0.0
  0
LINE
  5
105
  8
1
 62
     7
 10
-745.03266272189273
 20
103.369112853754
 30
0.0
 11
-745.03266272189319
 21
113.76911285375409
 31
0.0
  0
LINE
  5
106
  8
1
 62
     7
 10
-744.03266272189285
 20
111.949578816894
 30
0.0
 11
-744.03266272189273
 21
119.869112853754
 31
0.0
  0
LINE
  5
107
  8
1
 62
     7
 10
-738.03266272189285
 20
111.949578816894
 30
0.0
 11
-738.03266272189285
 21
164.86911285375399
 31
0.0
  0
LINE
  5
108
  8
1
 62
     7
 10
-943.23266272189267
 20
90.869112853754118
 30
0.0
 11
-945.23266272189255
 21
88.869112853754103
 31
0.0
  0
LINE
  5
109
  8
1
 62
     7
 10
-738.23266272189255
 20
105.8691128537541
 30
0.0
 11
-735.23266272189278
 21
102.8691128537541
 31
0.0
  0
LINE
  5
10A
  8
1
 62
     7
 10
-926.58180491085602
 20
255.86911285375399
 30
0.0
 11
-926.58180491085602
 21
245.8691128537541
 31
0.0
  0
LINE
  5
10B
  8
1
 62
     7
 10
-929.18180491085559
 20
245.8691128537541
 30
0.0
 11
-929.18180491085559
 21
255.86911285375399
 31
0.0
  0
LINE
  5
10C
  8
1
  6
DASHDOT
 62
     3
 10
-227.57705655038939
 20
106.89161951612471
 30
0.0
 11
-253.28003975716629
 21
92.051995242715563
 31
0.0
  0
LINE
  5
10D
  8
1
  6
DASHDOT
 62
     3
 10
-227.57705655038981
 20
-75.153393808617196
 30
0.0
 11
-253.28003975716661
 21
-60.313769535208131
 31
0.0
  0
LINE
  5
10E
  8
1
  6
DASHDOT
 62
     3
 10
-385.23266272189318
 20
-166.17590047098781
 30
0.0
 11
-385.23266272189318
 21
-136.4966519241697
 31
0.0
  0
LINE
  5
10F
  8
1
  6
DASHDOT
 62
     3
 10
-542.888268893396
 20
-75.153393808616684
 30
0.0
 11
-517.18528568661895
 21
-60.31376953520757
 31
0.0
  0
LINE
  5
110
  8
1
 62
     3
 10
-945.23266272189255
 20
15.8691128537541
 30
0.0
 11
-953.23266272189255
 21
15.8691128537541
 31
0.0
  0
LINE
  5
111
  8
1
 62
     3
 10
-735.23266272189267
 20
15.8691128537541
 30
0.0
 11
-727.23266272189267
 21
15.8691128537541
 31
0.0
  0
LINE
  5
112
  8
1
 62
     3
 10
-1338.2326627218929
 20
15.8691128537541
 30
0.0
 11
-1330.232662721892
 21
15.8691128537541
 31
0.0
  0
LINE
  5
113
  8
1
 62
     3
 10
-1120.232662721892
 20
15.8691128537541
 30
0.0
 11
-1112.232662721892
 21
15.8691128537541
 31
0.0
  0
LINE
  5
114
  8
1
 62
     7
 10
-1575.6609379975239
 20
-95.773679682479994
 30
0.0
 11
-1570.0841626392721
 21
-94.279387228866696
 31
0.0
  0
LINE
  5
115
  8
1
 62
     7
 10
-1579.7434209021631
 20
-91.691196777841284
 30
0.0
 11
-1575.6609379975239
 21
-95.773679682479994
 31
0.0
  0
LINE
  5
116
  8
1
 62
     7
 10
-1578.24912844855
 20
-86.114421419589277
 30
0.0
 11
-1579.7434209021631
 21
-91.691196777841284
 31
0.0
  0
LINE
  5
117
  8
1
 62
     7
 10
-1572.672353090298
 20
-84.620128965975965
 30
0.0
 11
-1578.24912844855
 21
-86.114421419589277
 31
0.0
  0
LINE
  5
118
  8
1
 62
     7
 10
-1568.5898701856579
 20
-88.702611870614675
 30
0.0
 11
-1572.672353090298
 21
-84.620128965975965
 31
0.0
  0
LINE
  5
119
  8
1
 62
     7
 10
-1570.0841626392721
 20
-94.279387228866696
 30
0.0
 11
-1568.5898701856579
 21
-88.702611870614675
 31
0.0
  0
LINE
  5
11A
  8
1
 62
     7
 10
-1791.875455258127
 20
-88.702611870614575
 30
0.0
 11
-1790.3811628045139
 21
-94.279387228866625
 31
0.0
  0
LINE
  5
11B
  8
1
 62
     7
 10
-1787.7929723534869
 20
-84.620128965975965
 30
0.0
 11
-1791.875455258127
 21
-88.702611870614575
 31
0.0
  0
LINE
  5
11C
  8
1
 62
     7
 10
-1782.2161969952349
 20
-86.114421419589476
 30
0.0
 11
-1787.7929723534869
 21
-84.620128965975965
 31
0.0
  0
LINE
  5
11D
  8
1
 62
     7
 10
-1780.7219045416221
 20
-91.691196777841569
 30
0.0
 11
-1782.2161969952349
 21
-86.114421419589476
 31
0.0
  0
LINE
  5
11E
  8
1
 62
     7
 10
-1784.8043874462619
 20
-95.77367968248015
 30
0.0
 11
-1780.7219045416221
 21
-91.691196777841569
 31
0.0
  0
LINE
  5
11F
  8
1
 62
     7
 10
-1790.3811628045139
 20
-94.279387228866625
 30
0.0
 11
-1784.8043874462619
 21
-95.77367968248015
 31
0.0
  0
LINE
  5
120
  8
1
 62
     7
 10
-1784.8043874462619
 20
127.5119053899882
 30
0.0
 11
-1790.3811628045139
 21
126.0176129363749
 31
0.0
  0
LINE
  5
121
  8
1
 62
     7
 10
-1780.7219045416221
 20
123.42942248534951
 30
0.0
 11
-1784.8043874462619
 21
127.5119053899882
 31
0.0
  0
LINE
  5
122
  8
1
 62
     7
 10
-1782.2161969952369
 20
117.8526471270975
 30
0.0
 11
-1780.7219045416221
 21
123.42942248534951
 31
0.0
  0
LINE
  5
123
  8
1
 62
     7
 10
-1787.7929723534889
 20
116.3583546734842
 30
0.0
 11
-1782.2161969952369
 21
117.8526471270975
 31
0.0
  0
LINE
  5
124
  8
1
 62
     7
 10
-1791.875455258127
 20
120.4408375781228
 30
0.0
 11
-1787.7929723534889
 21
116.3583546734842
 31
0.0
  0
LINE
  5
125
  8
1
 62
     7
 10
-1790.3811628045139
 20
126.0176129363749
 30
0.0
 11
-1791.875455258127
 21
120.4408375781228
 31
0.0
  0
LINE
  5
126
  8
1
 62
     7
 10
-1568.5898701856579
 20
120.4408375781227
 30
0.0
 11
-1570.0841626392721
 21
126.0176129363748
 31
0.0
  0
LINE
  5
127
  8
1
 62
     7
 10
-1572.672353090298
 20
116.358354673484
 30
0.0
 11
-1568.5898701856579
 21
120.4408375781227
 31
0.0
  0
LINE
  5
128
  8
1
 62
     7
 10
-1578.24912844855
 20
117.8526471270977
 30
0.0
 11
-1572.672353090298
 21
116.358354673484
 31
0.0
  0
LINE
  5
129
  8
1
 62
     7
 10
-1579.7434209021631
 20
123.4294224853497
 30
0.0
 11
-1578.24912844855
 21
117.8526471270977
 31
0.0
  0
LINE
  5
12A
  8
1
 62
     7
 10
-1575.6609379975239
 20
127.5119053899882
 30
0.0
 11
-1579.7434209021631
 21
123.4294224853497
 31
0.0
  0
LINE
  5
12B
  8
1
 62
     7
 10
-1570.0841626392721
 20
126.0176129363748
 30
0.0
 11
-1575.6609379975239
 21
127.5119053899882
 31
0.0
  0
LINE
  5
12C
  8
1
 62
     7
 10
-1677.6026627218921
 20
245.8691128537541
 30
0.0
 11
-1677.6026627218921
 21
270.75327205876403
 31
0.0
  0
LINE
  5
12D
  8
1
 62
     7
 10
-1680.232662721892
 20
245.8691128537541
 30
0.0
 11
-1680.232662721892
 21
270.75327205876403
 31
0.0
  0
LINE
  5
12E
  8
1
 62
     7
 10
-1682.862662721893
 20
245.8691128537541
 30
0.0
 11
-1682.862662721893
 21
270.75327205876403
 31
0.0
  0
LINE
  5
12F
  8
1
 62
     7
 10
-1658.2326627218929
 20
164.17851393051251
 30
0.0
 11
-1660.2326627218929
 21
163.02381339213341
 31
0.0
  0
LINE
  5
130
  8
1
 62
     7
 10
-1660.2326627218929
 20
163.02381339213341
 30
0.0
 11
-1660.2326627218929
 21
160.71441231537469
 31
0.0
  0
LINE
  5
131
  8
1
 62
     7
 10
-1660.2326627218929
 20
160.71441231537469
 30
0.0
 11
-1658.2326627218929
 21
159.5597117769955
 31
0.0
  0
LINE
  5
132
  8
1
 62
     7
 10
-1658.2326627218929
 20
159.5597117769955
 30
0.0
 11
-1656.2326627218929
 21
160.71441231537469
 31
0.0
  0
LINE
  5
133
  8
1
 62
     7
 10
-1656.2326627218929
 20
160.71441231537469
 30
0.0
 11
-1656.2326627218929
 21
163.02381339213341
 31
0.0
  0
LINE
  5
134
  8
1
 62
     7
 10
-1656.2326627218929
 20
163.02381339213341
 30
0.0
 11
-1658.2326627218929
 21
164.17851393051251
 31
0.0
  0
LINE
  5
135
  8
1
 62
     7
 10
-1700.232662721892
 20
163.02381339213341
 30
0.0
 11
-1702.2326627218929
 21
164.17851393051251
 31
0.0
  0
LINE
  5
136
  8
1
 62
     7
 10
-1700.232662721892
 20
160.71441231537469
 30
0.0
 11
-1700.232662721892
 21
163.02381339213341
 31
0.0
  0
LINE
  5
137
  8
1
 62
     7
 10
-1702.2326627218929
 20
159.5597117769955
 30
0.0
 11
-1700.232662721892
 21
160.71441231537469
 31
0.0
  0
LINE
  5
138
  8
1
 62
     7
 10
-1704.2326627218929
 20
160.71441231537469
 30
0.0
 11
-1702.2326627218929
 21
159.5597117769955
 31
0.0
  0
LINE
  5
139
  8
1
 62
     7
 10
-1704.2326627218929
 20
163.02381339213341
 30
0.0
 11
-1704.2326627218929
 21
160.71441231537469
 31
0.0
  0
LINE
  5
13A
  8
1
 62
     7
 10
-1702.2326627218929
 20
164.17851393051251
 30
0.0
 11
-1704.2326627218929
 21
163.02381339213341
 31
0.0
  0
LINE
  5
13B
  8
1
 62
     7
 10
-1695.2326627218929
 20
245.8691128537541
 30
0.0
 11
-1665.232662721892
 21
245.8691128537541
 31
0.0
  0
LINE
  5
13C
  8
1
 62
     7
 10
-1695.2326627218929
 20
245.8691128537541
 30
0.0
 11
-1695.2326627218929
 21
176.67693758443579
 31
0.0
  0
LINE
  5
13D
  8
1
 62
     7
 10
-1665.232662721892
 20
245.8691128537541
 30
0.0
 11
-1665.232662721892
 21
176.67693758443579
 31
0.0
  0
LINE
  5
13E
  8
1
 62
     7
 10
-1710.232662721892
 20
155.480069180756
 30
0.0
 11
-1710.232662721892
 21
167.50244226459591
 31
0.0
  0
LINE
  5
13F
  8
1
 62
     7
 10
-1650.232662721892
 20
155.480069180756
 30
0.0
 11
-1650.232662721892
 21
167.50244226459591
 31
0.0
  0
LINE
  5
140
  8
1
 62
     7
 10
-1695.2326627218929
 20
176.67693758443579
 30
0.0
 11
-1695.2326627218929
 21
152.02646386903049
 31
0.0
  0
LINE
  5
141
  8
1
 62
     7
 10
-1665.232662721892
 20
176.67693758443579
 30
0.0
 11
-1665.232662721892
 21
151.9754559223928
 31
0.0
  0
LINE
  5
142
  8
1
  6
DASHDOT
 62
     3
 10
-1680.232662721892
 20
42.876151693844093
 30
0.0
 11
-1680.232662721892
 21
-11.13792598633589
 31
0.0
  0
LINE
  5
143
  8
1
  6
DASHDOT
 62
     3
 10
-1653.2256238818029
 20
15.8691128537541
 30
0.0
 11
-1707.2397015619831
 21
15.8691128537541
 31
0.0
  0
LINE
  5
144
  8
1
 62
     7
 10
-1694.232662721892
 20
79.869112853754089
 30
0.0
 11
-1694.232662721892
 21
69.05745744164291
 31
0.0
  0
LINE
  5
145
  8
1
 62
     7
 10
-1666.232662721892
 20
79.869112853754089
 30
0.0
 11
-1666.232662721892
 21
69.05745744164291
 31
0.0
  0
LINE
  5
146
  8
1
 62
     7
 10
-1694.232662721892
 20
79.869112853754089
 30
0.0
 11
-1666.232662721892
 21
79.869112853754089
 31
0.0
  0
LINE
  5
147
  8
1
 62
     7
 10
-1678.5649258122089
 20
270.75327205876403
 30
0.0
 11
-1678.5649258122089
 21
275.75327205876403
 31
0.0
  0
LINE
  5
148
  8
1
 62
     7
 10
-1678.159796725043
 20
270.75327205876403
 30
0.0
 11
-1678.159796725043
 21
275.75327205876403
 31
0.0
  0
LINE
  5
149
  8
1
 62
     7
 10
-1679.302839506691
 20
270.75327205876403
 30
0.0
 11
-1679.302839506691
 21
275.75327205876403
 31
0.0
  0
LINE
  5
14A
  8
1
 62
     7
 10
-1679.6790308019149
 20
270.75327205876403
 30
0.0
 11
-1679.6790308019149
 21
275.75327205876403
 31
0.0
  0
LINE
  5
14B
  8
1
 62
     7
 10
-1680.232662721892
 20
270.75327205876403
 30
0.0
 11
-1677.6026627218921
 21
270.75327205876403
 31
0.0
  0
LINE
  5
14C
  8
1
 62
     7
 10
-1678.9176627218931
 20
270.75327205876403
 30
0.0
 11
-1678.9176627218931
 21
275.75327205876403
 31
0.0
  0
LINE
  5
14D
  8
1
 62
     7
 10
-1681.900399631576
 20
275.75327205876403
 30
0.0
 11
-1681.900399631576
 21
270.75327205876403
 31
0.0
  0
LINE
  5
14E
  8
1
 62
     7
 10
-1682.3055287187419
 20
275.75327205876403
 30
0.0
 11
-1682.3055287187419
 21
270.75327205876403
 31
0.0
  0
LINE
  5
14F
  8
1
 62
     7
 10
-1681.162485937095
 20
275.75327205876403
 30
0.0
 11
-1681.162485937095
 21
270.75327205876403
 31
0.0
  0
LINE
  5
150
  8
1
 62
     7
 10
-1680.7862946418691
 20
275.75327205876403
 30
0.0
 11
-1680.7862946418691
 21
270.75327205876403
 31
0.0
  0
LINE
  5
151
  8
1
 62
     7
 10
-1682.862662721893
 20
270.75327205876403
 30
0.0
 11
-1680.232662721892
 21
270.75327205876403
 31
0.0
  0
LINE
  5
152
  8
1
 62
     7
 10
-1681.5476627218929
 20
275.75327205876403
 30
0.0
 11
-1681.5476627218929
 21
270.75327205876403
 31
0.0
  0
LINE
  5
153
  8
1
  6
DASHDOT
 62
     3
 10
-385.23266272189278
 20
42.876151693844093
 30
0.0
 11
-385.23266272189278
 21
-11.13792598633589
 31
0.0
  0
LINE
  5
154
  8
1
  6
DASHDOT
 62
     3
 10
-358.22562388180279
 20
15.8691128537541
 30
0.0
 11
-412.23970156198283
 21
15.8691128537541
 31
0.0
  0
LINE
  5
155
  8
1
 62
     3
 10
-350.24642880617978
 20
50.855346769466721
 30
0.0
 11
-319.32221109776748
 21
81.779564477879106
 31
0.0
  0
LINE
  5
156
  8
1
 62
     3
 10
-350.24642880617978
 20
-19.117121061958489
 30
0.0
 11
-319.32221109776782
 21
-50.04133877037119
 31
0.0
  0
LINE
  5
157
  8
1
 62
     3
 10
-420.21889663760521
 20
-19.117121061958869
 30
0.0
 11
-451.14311434601791
 21
-50.041338770370878
 31
0.0
  0
LINE
  5
158
  8
1
  6
DASHED
 62
     7
 10
-344.61422009912621
 20
52.952021570588151
 30
0.0
 11
-319.84984251892871
 21
77.716399150784795
 31
0.0
  0
LINE
  5
159
  8
1
  6
DASHED
 62
     7
 10
-348.14975400505881
 20
-24.749329769012409
 30
0.0
 11
-323.3853764248621
 21
-49.513707349209881
 31
0.0
  0
LINE
  5
15A
  8
1
  6
DASHED
 62
     7
 10
-425.85110534465912
 20
-21.213795863079891
 30
0.0
 11
-450.61548292485679
 21
-45.978173443276539
 31
0.0
  0
LINE
  5
15B
  8
1
  6
DASHED
 62
     7
 10
-348.14975400505881
 20
56.487555476520633
 30
0.0
 11
-323.38537642486182
 21
81.251933056717917
 31
0.0
  0
LINE
  5
15C
  8
1
  6
DASHED
 62
     7
 10
-344.61422009912559
 20
-21.21379586307976
 30
0.0
 11
-319.84984251892888
 21
-45.978173443276887
 31
0.0
  0
LINE
  5
15D
  8
1
  6
DASHED
 62
     7
 10
-422.31557143872669
 20
-24.749329769012451
 30
0.0
 11
-447.0799490189238
 21
-49.513707349209653
 31
0.0
  0
LINE
  5
15E
  8
1
 62
     7
 10
-405.23266272189278
 20
189.72249936089119
 30
0.0
 11
-405.23266272189278
 21
175.86911285375399
 31
0.0
  0
LINE
  5
15F
  8
1
 62
     7
 10
-365.23266272189272
 20
189.72249936089119
 30
0.0
 11
-365.23266272189272
 21
175.86911285375399
 31
0.0
  0
LINE
  5
160
  8
1
 62
     7
 10
-405.23266272189278
 20
175.86911285375399
 30
0.0
 11
-365.23266272189272
 21
175.86911285375399
 31
0.0
  0
LINE
  5
161
  8
1
 62
     7
 10
-545.79411197102786
 20
85.475298031633983
 30
0.0
 11
-533.79672732740289
 21
78.548604778065453
 31
0.0
  0
LINE
  5
162
  8
1
 62
     7
 10
-525.79411197102786
 20
120.1163141830114
 30
0.0
 11
-513.79672732740278
 21
113.189620929443
 31
0.0
  0
LINE
  5
163
  8
1
 62
     7
 10
-533.79672732740289
 20
78.548604778065453
 30
0.0
 11
-513.79672732740278
 21
113.189620929443
 31
0.0
  0
LINE
  5
164
  8
1
  6
DASHDOT
 62
     3
 10
-542.88826889339589
 20
106.8916195161252
 30
0.0
 11
-517.18528568661884
 21
92.05199524271616
 31
0.0
  0
LINE
  5
165
  8
1
 62
     7
 10
-525.79411197102786
 20
-88.378088475503105
 30
0.0
 11
-513.79672732740278
 21
-81.451395221934575
 31
0.0
  0
LINE
  5
166
  8
1
 62
     7
 10
-545.79411197102786
 20
-53.737072324125563
 30
0.0
 11
-533.79672732740289
 21
-46.810379070557033
 31
0.0
  0
LINE
  5
167
  8
1
 62
     7
 10
-513.79672732740278
 20
-81.451395221934575
 30
0.0
 11
-533.79672732740289
 21
-46.810379070557033
 31
0.0
  0
LINE
  5
168
  8
1
 62
     7
 10
-365.23266272189272
 20
-157.98427365338279
 30
0.0
 11
-365.23266272189272
 21
-144.13088714624581
 31
0.0
  0
LINE
  5
169
  8
1
 62
     7
 10
-405.23266272189278
 20
-157.98427365338279
 30
0.0
 11
-405.23266272189278
 21
-144.13088714624581
 31
0.0
  0
LINE
  5
16A
  8
1
 62
     7
 10
-365.23266272189272
 20
-144.13088714624581
 30
0.0
 11
-405.23266272189278
 21
-144.13088714624581
 31
0.0
  0
LINE
  5
16B
  8
1
 62
     7
 10
-224.6712134727569
 20
-53.737072324125663
 30
0.0
 11
-236.6685981163829
 21
-46.81037907055709
 31
0.0
  0
LINE
  5
16C
  8
1
 62
     7
 10
-244.6712134727569
 20
-88.378088475503176
 30
0.0
 11
-256.66859811638278
 21
-81.451395221934618
 31
0.0
  0
LINE
  5
16D
  8
1
 62
     7
 10
-236.6685981163829
 20
-46.81037907055709
 30
0.0
 11
-256.66859811638278
 21
-81.451395221934618
 31
0.0
  0
LINE
  5
16E
  8
1
 62
     7
 10
-244.6712134727569
 20
120.1163141830114
 30
0.0
 11
-256.66859811638278
 21
113.1896209294428
 31
0.0
  0
LINE
  5
16F
  8
1
 62
     7
 10
-224.6712134727569
 20
85.47529803163394
 30
0.0
 11
-236.6685981163829
 21
78.548604778065382
 31
0.0
  0
LINE
  5
170
  8
1
 62
     7
 10
-256.66859811638278
 20
113.1896209294428
 30
0.0
 11
-236.6685981163829
 21
78.548604778065382
 31
0.0
  0
LINE
  5
171
  8
1
 62
     7
 10
-399.23266272189272
 20
79.869112853754089
 30
0.0
 11
-399.23266272189272
 21
69.05745744164291
 31
0.0
  0
LINE
  5
172
  8
1
 62
     7
 10
-371.23266272189272
 20
79.869112853754089
 30
0.0
 11
-371.23266272189272
 21
69.05745744164291
 31
0.0
  0
LINE
  5
173
  8
1
 62
     7
 10
-399.23266272189272
 20
79.869112853754089
 30
0.0
 11
-371.23266272189272
 21
79.869112853754089
 31
0.0
  0
LINE
  5
174
  8
1
 62
     7
 10
-400.23266272189272
 20
245.8691128537541
 30
0.0
 11
-387.86266272189278
 21
245.8691128537541
 31
0.0
  0
LINE
  5
175
  8
1
 62
     7
 10
-370.23266272189272
 20
245.8691128537541
 30
0.0
 11
-370.23266272189272
 21
190.22507059538111
 31
0.0
  0
LINE
  5
176
  8
1
 62
     7
 10
-373.43266272189271
 20
245.8691128537541
 30
0.0
 11
-373.43266272189271
 21
190.4708310583583
 31
0.0
  0
LINE
  5
177
  8
1
 62
     7
 10
-397.03266272189302
 20
245.8691128537541
 30
0.0
 11
-397.03266272189302
 21
190.4708310583583
 31
0.0
  0
LINE
  5
178
  8
1
 62
     7
 10
-400.23266272189272
 20
245.8691128537541
 30
0.0
 11
-400.23266272189272
 21
190.22507059538111
 31
0.0
  0
LINE
  5
179
  8
1
 62
     7
 10
-385.23266272189278
 20
190.86911285375399
 30
0.0
 11
-385.23266272189278
 21
270.75327205876403
 31
0.0
  0
LINE
  5
17A
  8
1
 62
     7
 10
-382.60266272189278
 20
190.81075977108381
 30
0.0
 11
-382.60266272189278
 21
270.75327205876403
 31
0.0
  0
LINE
  5
17B
  8
1
 62
     7
 10
-383.56492581220982
 20
270.75327205876403
 30
0.0
 11
-383.56492581220982
 21
275.75327205876403
 31
0.0
  0
LINE
  5
17C
  8
1
 62
     7
 10
-383.15979672504398
 20
270.75327205876403
 30
0.0
 11
-383.15979672504398
 21
275.75327205876403
 31
0.0
  0
LINE
  5
17D
  8
1
 62
     7
 10
-384.30283950669087
 20
270.75327205876403
 30
0.0
 11
-384.30283950669087
 21
275.75327205876403
 31
0.0
  0
LINE
  5
17E
  8
1
 62
     7
 10
-384.67903080191581
 20
270.75327205876403
 30
0.0
 11
-384.67903080191581
 21
275.75327205876403
 31
0.0
  0
LINE
  5
17F
  8
1
 62
     7
 10
-385.23266272189278
 20
270.75327205876403
 30
0.0
 11
-382.60266272189278
 21
270.75327205876403
 31
0.0
  0
LINE
  5
180
  8
1
 62
     7
 10
-383.91766272189301
 20
270.75327205876403
 30
0.0
 11
-383.91766272189301
 21
275.75327205876403
 31
0.0
  0
LINE
  5
181
  8
1
 62
     7
 10
-387.86266272189278
 20
190.84948281026479
 30
0.0
 11
-387.86266272189278
 21
270.75327205876403
 31
0.0
  0
LINE
  5
182
  8
1
 62
     7
 10
-386.90039963157579
 20
275.75327205876403
 30
0.0
 11
-386.90039963157579
 21
270.75327205876403
 31
0.0
  0
LINE
  5
183
  8
1
 62
     7
 10
-387.30552871874181
 20
275.75327205876403
 30
0.0
 11
-387.30552871874181
 21
270.75327205876403
 31
0.0
  0
LINE
  5
184
  8
1
 62
     7
 10
-386.1624859370948
 20
275.75327205876403
 30
0.0
 11
-386.1624859370948
 21
270.75327205876403
 31
0.0
  0
LINE
  5
185
  8
1
 62
     7
 10
-385.78629464186992
 20
275.75327205876403
 30
0.0
 11
-385.78629464186992
 21
270.75327205876403
 31
0.0
  0
LINE
  5
186
  8
1
 62
     7
 10
-387.86266272189278
 20
270.75327205876403
 30
0.0
 11
-385.23266272189278
 21
270.75327205876403
 31
0.0
  0
LINE
  5
187
  8
1
 62
     7
 10
-386.54766272189278
 20
275.75327205876403
 30
0.0
 11
-386.54766272189278
 21
270.75327205876403
 31
0.0
  0
LINE
  5
188
  8
1
 62
     7
 10
-382.60266272189278
 20
245.8691128537541
 30
0.0
 11
-370.23266272189272
 21
245.8691128537541
 31
0.0
  0
LINE
  5
189
  8
1
 62
     3
 10
-420.21889663760578
 20
50.855346769466678
 30
0.0
 11
-451.1431143460178
 21
81.779564477879376
 31
0.0
  0
LINE
  5
18A
  8
1
  6
DASHED
 62
     7
 10
-425.8511053446598
 20
52.952021570587931
 30
0.0
 11
-450.61548292485662
 21
77.716399150785065
 31
0.0
  0
LINE
  5
18B
  8
1
  6
DASHED
 62
     7
 10
-422.31557143872669
 20
56.487555476520583
 30
0.0
 11
-447.07994901892351
 21
81.251933056718045
 31
0.0
  0
LINE
  5
18C
  8
1
  6
DASHDOT
 62
     3
 10
-385.23266272189278
 20
190.86911285375399
 30
0.0
 11
-385.23266272189232
 21
168.23487763167779
 31
0.0
  0
ARC
  5
18D
  8
1
 62
     7
 10
-1680.232662721892
 20
15.8691128537541
 30
0.0
 40
175.0
 50
94.917100335528801
 51
85.082899664471199
  0
ARC
  5
18E
  8
1
 62
     7
 10
-1680.232662721892
 20
15.8691128537541
 30
0.0
 40
172.0
 50
95.003080467093582
 51
84.996919532906389
  0
ARC
  5
18F
  8
1
 62
     7
 10
-1680.232662721892
 20
15.8691128537541
 30
0.0
 40
165.0
 50
95.215908570454118
 51
84.784091429545867
  0
ARC
  5
190
  8
1
 62
     7
 10
-1680.232662721892
 20
15.8691128537541
 30
0.0
 40
163.0
 50
95.280088124693847
 51
84.719911875306167
  0
ARC
  5
191
  8
1
 62
     7
 10
-1680.232662721892
 20
25.869112853754121
 30
0.0
 40
147.99999999999989
 50
97.180755781458302
 51
100.40212100895189
  0
ARC
  5
192
  8
1
 62
     7
 10
-1680.232662721892
 20
25.869112853754121
 30
0.0
 40
127.0
 50
90.0
 51
100.91741731581369
  0
ARC
  5
193
  8
1
 62
     7
 10
-1680.232662721892
 20
25.869112853754121
 30
0.0
 40
147.99999999999969
 50
79.597878991048233
 51
82.819244218541684
  0
ARC
  5
194
  8
1
 62
     7
 10
-1680.232662721892
 20
25.869112853754121
 30
0.0
 40
126.9999999999997
 50
79.08258268418632
 51
90.0
  0
ARC
  5
195
  8
1
 62
     7
 10
-1698.7851510105761
 20
179.1089144295004
 30
0.0
 40
6.3850039609235019
 50
271.61424593216083
 51
303.80581612525521
  0
ARC
  5
196
  8
1
 62
     7
 10
-1661.6801744332099
 20
179.1089144295004
 30
0.0
 40
6.3850039609233322
 50
236.1941838747465
 51
268.38575406783917
  0
ARC
  5
197
  8
1
 62
     7
 10
-1680.232662721892
 20
15.8691128537541
 30
0.0
 40
55.0
 50
104.74665287524461
 51
75.253347124755322
  0
ARC
  5
198
  8
1
 62
     7
 10
-385.23266272189278
 20
15.8691128537541
 30
0.0
 40
55.0
 50
104.74665287524461
 51
75.253347124755322
  0
ARC
  5
199
  8
1
 62
     7
 10
-385.23266272189278
 20
15.8691128537541
 30
0.0
 40
90.0
 50
90.0
 51
263.62062979155712
  0
ARC
  5
19A
  8
1
 62
     7
 10
-385.23266272189278
 20
15.8691128537541
 30
0.0
 40
89.999999999999986
 50
263.62062979155712
 51
90.0
  0
ARC
  5
19B
  8
1
 62
     7
 10
-1705.232662721892
 20
155.480069180756
 30
0.0
 40
5.0
 50
180.0
 51
280.9174173158172
  0
ARC
  5
19C
  8
1
 62
     7
 10
-1655.232662721892
 20
155.480069180756
 30
0.0
 40
5.0000000000001519
 50
259.08258268418052
 51
0.0
  0
ARC
  5
19D
  8
1
 62
     7
 10
-1706.2326627218929
 20
167.50244226459591
 30
0.0
 40
3.9999999999998228
 50
100.4021210089515
 51
180.0
  0
ARC
  5
19E
  8
1
 62
     7
 10
-1654.2326627218929
 20
167.50244226459591
 30
0.0
 40
4.0
 50
0.0
 51
79.597878991051601
  0
CIRCLE
  5
19F
  8
1
 62
     7
 10
-902.73266272189255
 20
-77.880887146245868
 30
0.0
 40
11.25
  0
CIRCLE
  5
1A0
  8
1
 62
     7
 10
-867.73266272189289
 20
-77.880887146245868
 30
0.0
 40
11.25
  0
CIRCLE
  5
1A1
  8
1
 62
     7
 10
-902.73266272189255
 20
109.619112853754
 30
0.0
 40
11.25
  0
CIRCLE
  5
1A2
  8
1
 62
     7
 10
-867.73266272189289
 20
109.619112853754
 30
0.0
 40
11.25
  0
CIRCLE
  5
1A3
  8
1
 62
     7
 10
-1574.166645543911
 20
-90.196904324227958
 30
0.0
 40
9.0
  0
CIRCLE
  5
1A4
  8
1
 62
     7
 10
-1574.166645543911
 20
-90.196904324227958
 30
0.0
 40
10.749999999999989
  0
CIRCLE
  5
1A5
  8
1
 62
     7
 10
-1786.298679899875
 20
-90.196904324228043
 30
0.0
 40
9.0
  0
CIRCLE
  5
1A6
  8
1
 62
     7
 10
-1786.298679899875
 20
-90.196904324228043
 30
0.0
 40
10.749999999999989
  0
CIRCLE
  5
1A7
  8
1
 62
     7
 10
-1786.298679899875
 20
121.93513003173619
 30
0.0
 40
9.0
  0
CIRCLE
  5
1A8
  8
1
 62
     7
 10
-1786.298679899875
 20
121.93513003173619
 30
0.0
 40
10.749999999999989
  0
CIRCLE
  5
1A9
  8
1
 62
     7
 10
-1574.166645543911
 20
121.93513003173619
 30
0.0
 40
9.0
  0
CIRCLE
  5
1AA
  8
1
 62
     7
 10
-1574.166645543911
 20
121.93513003173619
 30
0.0
 40
10.749999999999989
  0
CIRCLE
  5
1AB
  8
1
 62
     7
 10
-1658.2326627218929
 20
161.8691128537541
 30
0.0
 40
4.25
  0
CIRCLE
  5
1AC
  8
1
 62
     7
 10
-1702.2326627218929
 20
161.8691128537541
 30
0.0
 40
4.25
  0
CIRCLE
  5
1AD
  8
1
 62
     7
 10
-1680.232662721892
 20
15.8691128537541
 30
0.0
 40
135.0
  0
CIRCLE
  5
1AE
  8
1
 62
     7
 10
-1680.232662721892
 20
15.8691128537541
 30
0.0
 40
75.0
  0
CIRCLE
  5
1AF
  8
1
 62
     7
 10
-1680.232662721892
 20
15.8691128537541
 30
0.0
 40
115.0
  0
CIRCLE
  5
1B0
  8
1
 62
     7
 10
-385.23266272189278
 20
15.8691128537541
 30
0.0
 40
175.0
  0
CIRCLE
  5
1B1
  8
1
 62
     7
 10
-385.23266272189278
 20
15.8691128537541
 30
0.0
 40
159.0
  0
CIRCLE
  5
1B2
  8
1
 62
     7
 10
-385.23266272189278
 20
15.8691128537541
 30
0.0
 40
149.0
  0
CIRCLE
  5
1B3
  8
1
 62
     7
 10
-385.23266272189278
 20
15.8691128537541
 30
0.0
 40
104.0
  0
CIRCLE
  5
1B4
  8
1
 62
     7
 10
-385.23266272189278
 20
15.8691128537541
 30
0.0
 40
110.0
  0
POLYLINE
  5
1B5
  8
1
 62
     3
 66
     1
 10
0.0
 20
0.0
 30
0.0
  0
VERTEX
  5
1D4
  8
1
 62
     3
 10
-926.58180491085602
 20
255.86911285375399
 30
0.0
 42
-0.0243643431543546
  0
VERTEX
  5
1D5
  8
1
 62
     3
 10
-926.77975639858596
 20
255.4344087658061
 30
0.0
 42
-0.0428551181139654
  0
VERTEX
  5
1D6
  8
1
 62
     3
 10
-926.96054110787281
 20
255.15169642593679
 30
0.0
 42
-0.0819846907904091
  0
VERTEX
  5
1D7
  8
1
 62
     3
 10
-927.1266329021953
 20
255.0011342690388
 30
0.0
 42
-0.141992651661824
  0
VERTEX
  5
1D8
  8
1
 62
     3
 10
-927.2805056450303
 20
254.96288073000389
 30
0.0
 42
-0.1329198716575797
  0
VERTEX
  5
1D9
  8
1
 62
     3
 10
-927.42463319985632
 20
255.01709424372461
 30
0.0
 42
-0.0704401393850375
  0
VERTEX
  5
1DA
  8
1
 62
     3
 10
-927.5614894301508
 20
255.1439332450928
 30
0.0
 42
-0.0328537359397309
  0
VERTEX
  5
1DB
  8
1
 62
     3
 10
-927.69354819939269
 20
255.32355616900091
 30
0.0
 42
-0.0132228422067182
  0
VERTEX
  5
1DC
  8
1
 62
     3
 10
-927.82328337105889
 20
255.53612145034111
 30
0.0
 42
-0.0003699574201449
  0
VERTEX
  5
1DD
  8
1
 62
     3
 10
-927.95316880862833
 20
255.76178752400551
 30
0.0
 42
0.0115161932104205
  0
VERTEX
  5
1DE
  8
1
 62
     3
 10
-928.08567837557803
 20
255.9807128248863
 30
0.0
 42
0.0271352918338126
  0
VERTEX
  5
1DF
  8
1
 62
     3
 10
-928.2232859353868
 20
256.17305578787563
 30
0.0
 42
0.0535245530539983
  0
VERTEX
  5
1E0
  8
1
 62
     3
 10
-928.36846535153222
 20
256.31897484786589
 30
0.0
 42
0.1000838603543576
  0
VERTEX
  5
1E1
  8
1
 62
     3
 10
-928.52369048749222
 20
256.39862843974919
 30
0.0
 42
0.1433865231829471
  0
VERTEX
  5
1E2
  8
1
 62
     3
 10
-928.69143520674504
 20
256.39217499841772
 30
0.0
 42
0.1138438227862138
  0
VERTEX
  5
1E3
  8
1
 62
     3
 10
-928.87417337276838
 20
256.27977295876337
 30
0.0
 42
0.0644534246657262
  0
VERTEX
  5
1E4
  8
1
 62
     3
 10
-929.07437884904004
 20
256.04158075567898
 30
0.0
  0
VERTEX
  5
1E5
  8
1
 62
     3
 10
-929.18180491085559
 20
255.86911285375399
 30
0.0
  0
SEQEND
  5
1E6
  8
1
 62
     3
  0
ARC
  5
1C9
  8
1
 62
     7
 10
-746.03266272189273
 20
-85.130887146245925
 30
0.0
 40
3.0
 50
180.0
 51
270.0
  0
ARC
  5
1CA
  8
1
 62
     7
 10
-746.03266272189273
 20
116.869112853754
 30
0.0
 40
3.0
 50
90.0
 51
180.0
  0
TEXT
  5
1CB
  8
1
 62
     7
 10
-1846.60798880992
 20
377.93664064949593
 30
0.0
 40
20.0
  1
MWC 320
 41
0.9
  7
SIMPLEX
  0
ENDSEC
  0
EOF
