  0
SECTION
  2
HEADER
  9
$ACADVER
  1
AC1009
  9
$INSBASE
 10
0.0
 20
0.0
 30
0.0
  9
$EXTMIN
 10
-1053.6625744998601
 20
-55.244315153119253
 30
0.0
  9
$EXTMAX
 10
-156.31589728085089
 20
307.77442615308792
 30
0.0
  9
$LIMMIN
 10
-1053.6625744998601
 20
-55.244315153119253
  9
$LIMMAX
 10
-156.31589728085089
 20
307.77442615308792
  9
$ORTHOMODE
 70
     0
  9
$REGENMODE
 70
     1
  9
$FILLMODE
 70
     1
  9
$QTEXTMODE
 70
     0
  9
$MIRRTEXT
 70
     1
  9
$DRAGMODE
 70
     2
  9
$LTSCALE
 40
1.0
  9
$OSMODE
 70
    37
  9
$ATTMODE
 70
     1
  9
$TEXTSIZE
 40
3.5
  9
$TRACEWID
 40
0.5
  9
$TEXTSTYLE
  7
STANDARD
  9
$CLAYER
  8
0
  9
$CELTYPE
  6
BYLAYER
  9
$CECOLOR
 62
   256
  9
$DIMSCALE
 40
1.0
  9
$DIMASZ
 40
0.18
  9
$DIMEXO
 40
0.0625
  9
$DIMDLI
 40
0.38
  9
$DIMRND
 40
0.0
  9
$DIMDLE
 40
0.0
  9
$DIMEXE
 40
0.18
  9
$DIMTP
 40
0.0
  9
$DIMTM
 40
0.0
  9
$DIMTXT
 40
0.18
  9
$DIMCEN
 40
0.09
  9
$DIMTSZ
 40
0.0
  9
$DIMTOL
 70
     0
  9
$DIMLIM
 70
     0
  9
$DIMTIH
 70
     1
  9
$DIMTOH
 70
     1
  9
$DIMSE1
 70
     0
  9
$DIMSE2
 70
     0
  9
$DIMTAD
 70
     0
  9
$DIMZIN
 70
     0
  9
$DIMBLK
  1

  9
$DIMASO
 70
     1
  9
$DIMSHO
 70
     1
  9
$DIMPOST
  1

  9
$DIMAPOST
  1

  9
$DIMALT
 70
     0
  9
$DIMALTD
 70
     2
  9
$DIMALTF
 40
25.399999999999999
  9
$DIMLFAC
 40
1.0
  9
$DIMTOFL
 70
     0
  9
$DIMTVP
 40
0.0
  9
$DIMTIX
 70
     0
  9
$DIMSOXD
 70
     0
  9
$DIMSAH
 70
     0
  9
$DIMBLK1
  1

  9
$DIMBLK2
  1

  9
$DIMSTYLE
  2
STANDARD
  9
$DIMCLRD
 70
     0
  9
$DIMCLRE
 70
     0
  9
$DIMCLRT
 70
     0
  9
$DIMTFAC
 40
1.0
  9
$DIMGAP
 40
0.09
  9
$LUNITS
 70
     2
  9
$LUPREC
 70
     4
  9
$SKETCHINC
 40
0.1
  9
$FILLETRAD
 40
2.0
  9
$AUNITS
 70
     0
  9
$AUPREC
 70
     0
  9
$MENU
  1
ACAD
  9
$ELEVATION
 40
0.0
  9
$PELEVATION
 40
0.0
  9
$THICKNESS
 40
0.0
  9
$LIMCHECK
 70
     0
  9
$BLIPMODE
 70
     0
  9
$CHAMFERA
 40
0.0
  9
$CHAMFERB
 40
0.0
  9
$SKPOLY
 70
     0
  9
$TDCREATE
 40
2452095.040263426
  9
$TDUPDATE
 40
2452095.0409092591
  9
$TDINDWG
 40
0.0006579861
  9
$TDUSRTIMER
 40
0.0006579861
  9
$USRTIMER
 70
     1
  9
$ANGBASE
 50
0.0
  9
$ANGDIR
 70
     0
  9
$PDMODE
 70
     0
  9
$PDSIZE
 40
0.0
  9
$PLINEWID
 40
0.0
  9
$COORDS
 70
     1
  9
$SPLFRAME
 70
     0
  9
$SPLINETYPE
 70
     6
  9
$SPLINESEGS
 70
     8
  9
$ATTDIA
 70
     0
  9
$ATTREQ
 70
     1
  9
$HANDLING
 70
 10241
  9
$HANDSEED
  5
211
  9
$SURFTAB1
 70
     6
  9
$SURFTAB2
 70
     6
  9
$SURFTYPE
 70
     6
  9
$SURFU
 70
     6
  9
$SURFV
 70
     6
  9
$UCSNAME
  2

  9
$UCSORG
 10
0.0
 20
0.0
 30
0.0
  9
$UCSXDIR
 10
1.0
 20
0.0
 30
0.0
  9
$UCSYDIR
 10
0.0
 20
1.0
 30
0.0
  9
$PUCSNAME
  2

  9
$PUCSORG
 10
0.0
 20
0.0
 30
0.0
  9
$PUCSXDIR
 10
1.0
 20
0.0
 30
0.0
  9
$PUCSYDIR
 10
0.0
 20
1.0
 30
0.0
  9
$USERI1
 70
     0
  9
$USERI2
 70
     0
  9
$USERI3
 70
     0
  9
$USERI4
 70
     0
  9
$USERI5
 70
     0
  9
$USERR1
 40
0.0
  9
$USERR2
 40
0.0
  9
$USERR3
 40
0.0
  9
$USERR4
 40
0.0
  9
$USERR5
 40
0.0
  9
$WORLDVIEW
 70
     1
  9
$SHADEDGE
 70
     3
  9
$SHADEDIF
 70
    70
  9
$TILEMODE
 70
     1
  9
$MAXACTVP
 70
    64
  9
$PLIMCHECK
 70
     0
  9
$PEXTMIN
 10
1.0000000000000000E+020
 20
1.0000000000000000E+020
 30
1.0000000000000000E+020
  9
$PEXTMAX
 10
-1.0000000000000000E+020
 20
-1.0000000000000000E+020
 30
-1.0000000000000000E+020
  9
$PLIMMIN
 10
0.0
 20
0.0
  9
$PLIMMAX
 10
12.0
 20
9.0
  9
$UNITMODE
 70
     0
  9
$VISRETAIN
 70
     1
  9
$PLINEGEN
 70
     0
  9
$PSLTSCALE
 70
     1
  0
ENDSEC
  0
SECTION
  2
TABLES
  0
TABLE
  2
VPORT
 70
     2
  0
VPORT
  2
*ACTIVE
 70
     0
 10
0.0
 20
0.0
 11
1.0
 21
1.0
 12
-1008.816701091061
 22
287.3098599275674
 13
0.0
 23
0.0
 14
1.0
 24
1.0
 15
0.0
 25
0.0
 16
0.0
 26
0.0
 36
1.0
 17
0.0
 27
0.0
 37
0.0
 40
9.0000001806563432
 41
2.4144144144144142
 42
50.0
 43
0.0
 44
0.0
 50
0.0
 51
0.0
 71
     0
 72
   100
 73
     1
 74
     1
 75
     0
 76
     0
 77
     0
 78
     0
  0
ENDTAB
  0
TABLE
  2
LTYPE
 70
     9
  0
LTYPE
  2
CONTINUOUS
 70
     0
  3
Solid line
 72
    65
 73
     0
 40
0.0
  0
LTYPE
  2
BORDER
 70
     0
  3
__ __ . __ __ .
 72
    65
 73
     6
 40
41.32517592455963
 49
11.807193121302751
 49
-5.9035965606513763
 49
11.807193121302751
 49
-5.9035965606513763
 49
0.0
 49
-5.9035965606513763
  0
LTYPE
  2
CENTER
 70
     0
  3
____ _ ____ _
 72
    65
 73
     4
 40
47.22877248521101
 49
29.517982803256881
 49
-5.9035965606513763
 49
5.9035965606513763
 49
-5.9035965606513763
  0
LTYPE
  2
DASHDOT
 70
     0
  3
__ . __ . __ .
 72
    65
 73
     4
 40
23.614386242605502
 49
11.807193121302751
 49
-5.9035965606513763
 49
0.0
 49
-5.9035965606513763
  0
LTYPE
  2
DASHED
 70
     0
  3
__ __ __ __ __
 72
    65
 73
     2
 40
17.710789681954122
 49
11.807193121302751
 49
-5.9035965606513763
  0
LTYPE
  2
DIVIDE
 70
     0
  3
__ . . __ . . 
 72
    65
 73
     6
 40
29.517982803256881
 49
11.807193121302751
 49
-5.9035965606513763
 49
0.0
 49
-5.9035965606513763
 49
0.0
 49
-5.9035965606513763
  0
LTYPE
  2
DOT
 70
     0
  3
..............
 72
    65
 73
     4
 40
11.807193121302751
 49
0.0
 49
-5.9035965606513763
 49
0.0
 49
-5.9035965606513763
  0
LTYPE
  2
HIDDEN
 70
     0
  3
_ _ _ _ _ _ _
 72
    65
 73
     2
 40
8.8553948409770644
 49
5.9035965606513763
 49
-2.9517982803256881
  0
LTYPE
  2
PHANTOM
 70
     0
  3
_____ _ _ _____ _ _ 
 72
    65
 73
     6
 40
59.035965606513763
 49
29.517982803256881
 49
-5.9035965606513763
 49
5.9035965606513763
 49
-5.9035965606513763
 49
5.9035965606513763
 49
-5.9035965606513763
  0
ENDTAB
  0
TABLE
  2
LAYER
 70
     2
  0
LAYER
  2
0
 70
     0
 62
     7
  6
CONTINUOUS
  0
LAYER
  2
1
 70
     0
 62
     7
  6
CONTINUOUS
  0
ENDTAB
  0
TABLE
  2
STYLE
 70
     4
  0
STYLE
  2
STANDARD
 70
     0
 40
0.0
 41
1.0
 50
0.0
 71
     0
 42
3.5
  3
txt
  4

  0
STYLE
  2
SIMPLEX
 70
     0
 40
0.0
 41
1.0
 50
0.0
 71
     0
 42
3.5
  3
simplex
  4

  0
STYLE
  2
COMPLEX
 70
     0
 40
0.0
 41
1.0
 50
0.0
 71
     0
 42
3.5
  3
complex
  4

  0
STYLE
  2
ITALIC
 70
     0
 40
0.0
 41
1.0
 50
0.0
 71
     0
 42
3.5
  3
italic
  4

  0
ENDTAB
  0
TABLE
  2
VIEW
 70
     0
  0
ENDTAB
  0
TABLE
  2
UCS
 70
     0
  0
ENDTAB
  0
TABLE
  2
APPID
 70
     1
  0
APPID
  2
ACAD
 70
     0
  0
ENDTAB
  0
TABLE
  2
DIMSTYLE
 70
     1
  0
DIMSTYLE
  2
STANDARD
 70
     0
  3

  4

  5

  6

  7

 40
1.0
 41
0.18
 42
0.0625
 43
0.38
 44
0.18
 45
0.0
 46
0.0
 47
0.0
 48
0.0
140
0.18
141
0.09
142
0.0
143
25.399999999999999
144
1.0
145
0.0
146
1.0
147
0.09
 71
     0
 72
     0
 73
     1
 74
     1
 75
     0
 76
     0
 77
     0
 78
     0
170
     0
171
     2
172
     0
173
     0
174
     0
175
     0
176
     0
177
     0
178
     0
  0
ENDTAB
  0
ENDSEC
  0
SECTION
  2
BLOCKS
  0
BLOCK
  8
0
  2
$MODEL_SPACE
 70
     0
 10
0.0
 20
0.0
 30
0.0
  3
$MODEL_SPACE
  1

  0
ENDBLK
  5
20
  8
0
  0
BLOCK
 67
     1
  8
0
  2
$PAPER_SPACE
 70
     0
 10
0.0
 20
0.0
 30
0.0
  3
$PAPER_SPACE
  1

  0
ENDBLK
  5
1C
 67
     1
  8
0
  0
ENDSEC
  0
SECTION
  2
ENTITIES
  0
LINE
  5
33
  8
1
 62
     7
 10
-946.31589728085066
 20
78.467625899280577
 30
0.0
 11
-964.31589728085066
 21
78.467625899280577
 31
0.0
  0
LINE
  5
34
  8
1
 62
     7
 10
-946.31589728085066
 20
78.467625899280577
 30
0.0
 11
-946.31589728085066
 21
74.085801941788944
 31
0.0
  0
LINE
  5
35
  8
1
 62
     7
 10
-964.31589728085066
 20
78.467625899280577
 30
0.0
 11
-964.31589728085066
 21
74.085801941788944
 31
0.0
  0
LINE
  5
36
  8
1
 62
     7
 10
-952.68589728085055
 20
190.46762589928051
 30
0.0
 11
-952.68589728085055
 21
215.08031632467299
 31
0.0
  0
LINE
  5
37
  8
1
 62
     7
 10
-955.31589728085066
 20
190.46762589928051
 30
0.0
 11
-955.31589728085066
 21
215.08031632467299
 31
0.0
  0
LINE
  5
38
  8
1
 62
     7
 10
-957.94589728085055
 20
190.46762589928051
 30
0.0
 11
-957.94589728085055
 21
215.08031632467299
 31
0.0
  0
LINE
  5
39
  8
1
 62
     7
 10
-956.6308972808506
 20
215.08031632467299
 30
0.0
 11
-956.6308972808506
 21
220.08031632467291
 31
0.0
  0
LINE
  5
3A
  8
1
 62
     7
 10
-957.36501623594495
 20
215.08031632467299
 30
0.0
 11
-957.36501623594495
 21
220.08031632467291
 31
0.0
  0
LINE
  5
3B
  8
1
 62
     7
 10
-955.82706547751206
 20
215.08031632467299
 30
0.0
 11
-955.82706547751206
 21
220.08031632467291
 31
0.0
  0
LINE
  5
3C
  8
1
 62
     7
 10
-956.21155316711975
 20
215.08031632467299
 30
0.0
 11
-956.21155316711975
 21
220.08031632467291
 31
0.0
  0
LINE
  5
3D
  8
1
 62
     7
 10
-957.03820169977814
 20
215.08031632467299
 30
0.0
 11
-957.03820169977814
 21
220.08031632467291
 31
0.0
  0
LINE
  5
3E
  8
1
 62
     7
 10
-957.94589728085055
 20
215.08031632467299
 30
0.0
 11
-952.68589728085055
 21
215.08031632467299
 31
0.0
  0
LINE
  5
3F
  8
1
 62
     7
 10
-954.00089728085095
 20
215.08031632467299
 30
0.0
 11
-954.00089728085095
 21
220.08031632467291
 31
0.0
  0
LINE
  5
40
  8
1
 62
     7
 10
-954.73501623594484
 20
215.08031632467299
 30
0.0
 11
-954.73501623594484
 21
220.08031632467291
 31
0.0
  0
LINE
  5
41
  8
1
 62
     7
 10
-953.19706547751173
 20
215.08031632467299
 30
0.0
 11
-953.19706547751173
 21
220.08031632467291
 31
0.0
  0
LINE
  5
42
  8
1
 62
     7
 10
-953.58155316711998
 20
215.08031632467299
 30
0.0
 11
-953.58155316711998
 21
220.08031632467291
 31
0.0
  0
LINE
  5
43
  8
1
 62
     7
 10
-954.40820169977803
 20
215.08031632467299
 30
0.0
 11
-954.40820169977803
 21
220.08031632467291
 31
0.0
  0
LINE
  5
44
  8
1
 62
     7
 10
-262.81589728085078
 20
78.467625899280577
 30
0.0
 11
-262.81589728085078
 21
74.085801941788944
 31
0.0
  0
LINE
  5
45
  8
1
 62
     7
 10
-244.81589728085089
 20
78.467625899280577
 30
0.0
 11
-244.81589728085089
 21
74.085801941788944
 31
0.0
  0
LINE
  5
46
  8
1
 62
     7
 10
-262.81589728085078
 20
78.467625899280577
 30
0.0
 11
-244.81589728085089
 21
78.467625899280577
 31
0.0
  0
LINE
  5
47
  8
1
  6
DASHED
 62
     7
 10
-221.74309843542611
 20
80.368851869451362
 30
0.0
 11
-234.06410035470719
 21
68.04784995017036
 31
0.0
  0
LINE
  5
48
  8
1
  6
DASHDOT
 62
     3
 10
-217.98195452426481
 20
81.301568655866674
 30
0.0
 11
-235.05875550146629
 21
64.224767678665046
 31
0.0
  0
LINE
  5
49
  8
1
  6
DASHED
 62
     7
 10
-218.91467131068001
 20
77.540424744705149
 30
0.0
 11
-231.23567322996109
 21
65.219422825424203
 31
0.0
  0
LINE
  5
4A
  8
1
  6
DASHED
 62
     7
 10
-221.7430984354263
 20
10.566399929109711
 30
0.0
 11
-234.06410035470731
 21
22.88740184839077
 31
0.0
  0
LINE
  5
4B
  8
1
  6
DASHED
 62
     7
 10
-218.91467131068001
 20
13.394827053855909
 30
0.0
 11
-231.23567322996109
 21
25.715828973136919
 31
0.0
  0
LINE
  5
4C
  8
1
  6
DASHDOT
 62
     3
 10
-217.98195452426481
 20
9.6336831426944531
 30
0.0
 11
-235.05875550146629
 21
26.71048411989608
 31
0.0
  0
LINE
  5
4D
  8
1
  6
DASHED
 62
     7
 10
-288.71712325102158
 20
13.39482705385597
 30
0.0
 11
-276.39612133174057
 21
25.715828973136919
 31
0.0
  0
LINE
  5
4E
  8
1
  6
DASHED
 62
     7
 10
-285.88869612627542
 20
10.56639992910976
 30
0.0
 11
-273.56769420699447
 21
22.88740184839077
 31
0.0
  0
LINE
  5
4F
  8
1
  6
DASHDOT
 62
     3
 10
-289.64984003743689
 20
9.6336831426944567
 30
0.0
 11
-272.57303906023537
 21
26.71048411989608
 31
0.0
  0
LINE
  5
50
  8
1
  6
DASHDOT
 62
     3
 10
-289.64984003743689
 20
81.301568655866674
 30
0.0
 11
-272.57303906023537
 21
64.22476767866506
 31
0.0
  0
LINE
  5
51
  8
1
  6
DASHED
 62
     7
 10
-285.88869612627542
 20
80.368851869451404
 30
0.0
 11
-273.56769420699447
 21
68.047849950170388
 31
0.0
  0
LINE
  5
52
  8
1
  6
DASHED
 62
     7
 10
-288.71712325102158
 20
77.54042474470522
 30
0.0
 11
-276.39612133174057
 21
65.219422825424203
 31
0.0
  0
LINE
  5
53
  8
1
 62
     7
 10
-261.81589728085089
 20
135.46762589928051
 30
0.0
 11
-245.81589728085089
 21
135.46762589928051
 31
0.0
  0
LINE
  5
54
  8
1
 62
     7
 10
-245.81589728085089
 20
-44.532374100719423
 30
0.0
 11
-245.81589728085089
 21
-51.703614702041378
 31
0.0
  0
LINE
  5
55
  8
1
 62
     7
 10
-261.81589728085089
 20
-44.532374100719423
 30
0.0
 11
-245.81589728085089
 21
-44.532374100719423
 31
0.0
  0
LINE
  5
56
  8
1
 62
     7
 10
-261.81589728085089
 20
-51.703614702041378
 30
0.0
 11
-261.81589728085089
 21
-44.532374100719423
 31
0.0
  0
LINE
  5
57
  8
1
 62
     7
 10
-179.8736109402513
 20
97.395829129556077
 30
0.0
 11
-173.66313440285609
 21
100.981449430217
 31
0.0
  0
LINE
  5
58
  8
1
 62
     7
 10
-171.8736109402513
 20
83.539422669005077
 30
0.0
 11
-179.8736109402513
 21
97.395829129556077
 31
0.0
  0
LINE
  5
59
  8
1
 62
     7
 10
-165.66313440285609
 20
87.125042969666055
 30
0.0
 11
-171.8736109402513
 21
83.539422669005077
 31
0.0
  0
LINE
  5
5A
  8
1
 62
     7
 10
-335.75818362145031
 20
7.3958291295560876
 30
0.0
 11
-341.96866015884558
 21
3.810208828895111
 31
0.0
  0
LINE
  5
5B
  8
1
 62
     7
 10
-327.75818362145031
 20
-6.4605773309949237
 30
0.0
 11
-335.75818362145031
 21
7.3958291295560876
 31
0.0
  0
LINE
  5
5C
  8
1
 62
     7
 10
-333.96866015884558
 20
-10.04619763165589
 30
0.0
 11
-327.75818362145031
 21
-6.4605773309949237
 31
0.0
  0
LINE
  5
5D
  8
1
 62
     7
 10
-327.75818362145031
 20
97.395829129556077
 30
0.0
 11
-333.96866015884558
 21
100.981449430217
 31
0.0
  0
LINE
  5
5E
  8
1
 62
     7
 10
-335.75818362145031
 20
83.539422669005063
 30
0.0
 11
-327.75818362145031
 21
97.395829129556077
 31
0.0
  0
LINE
  5
5F
  8
1
 62
     7
 10
-341.96866015884558
 20
87.125042969666055
 30
0.0
 11
-335.75818362145031
 21
83.539422669005063
 31
0.0
  0
LINE
  5
60
  8
1
 62
     7
 10
-171.8736109402513
 20
7.3958291295560876
 30
0.0
 11
-165.66313440285609
 21
3.810208828895111
 31
0.0
  0
LINE
  5
61
  8
1
 62
     7
 10
-179.8736109402513
 20
-6.4605773309949237
 30
0.0
 11
-171.8736109402513
 21
7.3958291295560876
 31
0.0
  0
LINE
  5
62
  8
1
 62
     7
 10
-173.66313440285609
 20
-10.04619763165589
 30
0.0
 11
-179.8736109402513
 21
-6.4605773309949237
 31
0.0
  0
LINE
  5
63
  8
1
 62
     7
 10
-243.81589728085089
 20
142.30705115096561
 30
0.0
 11
-243.81589728085089
 21
190.46762589928051
 31
0.0
  0
LINE
  5
64
  8
1
 62
     7
 10
-261.81589728085089
 20
190.46762589928051
 30
0.0
 11
-261.81589728085089
 21
135.46762589928051
 31
0.0
  0
LINE
  5
65
  8
1
 62
     7
 10
-263.81589728085089
 20
142.4534496056346
 30
0.0
 11
-263.81589728085089
 21
190.46762589928051
 31
0.0
  0
LINE
  5
66
  8
1
 62
     7
 10
-243.81589728085089
 20
190.46762589928051
 30
0.0
 11
-251.1858972808509
 21
190.46762589928051
 31
0.0
  0
LINE
  5
67
  8
1
 62
     3
 10
-555.81589728085089
 20
45.46762589928057
 30
0.0
 11
-558.81589728085089
 21
45.46762589928057
 31
0.0
  0
LINE
  5
68
  8
1
 62
     3
 10
-448.81589728085078
 20
45.46762589928057
 30
0.0
 11
-445.81589728085089
 21
45.46762589928057
 31
0.0
  0
LINE
  5
69
  8
1
 62
     7
 10
-256.44589728085077
 20
142.85818086692129
 30
0.0
 11
-256.44589728085077
 21
215.08031632467299
 31
0.0
  0
LINE
  5
6A
  8
1
 62
     7
 10
-255.13089728085089
 20
215.08031632467299
 30
0.0
 11
-255.13089728085089
 21
220.08031632467291
 31
0.0
  0
LINE
  5
6B
  8
1
 62
     7
 10
-255.86501623594489
 20
215.08031632467299
 30
0.0
 11
-255.86501623594489
 21
220.08031632467291
 31
0.0
  0
LINE
  5
6C
  8
1
 62
     7
 10
-254.32706547751189
 20
215.08031632467299
 30
0.0
 11
-254.32706547751189
 21
220.08031632467291
 31
0.0
  0
LINE
  5
6D
  8
1
 62
     7
 10
-254.71155316711989
 20
215.08031632467299
 30
0.0
 11
-254.71155316711989
 21
220.08031632467291
 31
0.0
  0
LINE
  5
6E
  8
1
 62
     7
 10
-255.53820169977789
 20
215.08031632467299
 30
0.0
 11
-255.53820169977789
 21
220.08031632467291
 31
0.0
  0
LINE
  5
6F
  8
1
 62
     7
 10
-256.44589728085077
 20
215.08031632467299
 30
0.0
 11
-251.1858972808509
 21
215.08031632467299
 31
0.0
  0
LINE
  5
70
  8
1
 62
     7
 10
-251.1858972808509
 20
142.87129898303201
 30
0.0
 11
-251.1858972808509
 21
215.08031632467299
 31
0.0
  0
LINE
  5
71
  8
1
 62
     7
 10
-253.81589728085089
 20
142.92146112396529
 30
0.0
 11
-253.81589728085089
 21
215.08031632467299
 31
0.0
  0
LINE
  5
72
  8
1
 62
     7
 10
-252.50089728085089
 20
215.08031632467299
 30
0.0
 11
-252.50089728085089
 21
220.08031632467291
 31
0.0
  0
LINE
  5
73
  8
1
 62
     7
 10
-253.2350162359449
 20
215.08031632467299
 30
0.0
 11
-253.2350162359449
 21
220.08031632467291
 31
0.0
  0
LINE
  5
74
  8
1
 62
     7
 10
-251.6970654775119
 20
215.08031632467299
 30
0.0
 11
-251.6970654775119
 21
220.08031632467291
 31
0.0
  0
LINE
  5
75
  8
1
 62
     7
 10
-252.08155316711981
 20
215.08031632467299
 30
0.0
 11
-252.08155316711981
 21
220.08031632467291
 31
0.0
  0
LINE
  5
76
  8
1
 62
     7
 10
-252.90820169977789
 20
215.08031632467299
 30
0.0
 11
-252.90820169977789
 21
220.08031632467291
 31
0.0
  0
LINE
  5
77
  8
1
 62
     7
 10
-263.81589728085089
 20
190.46762589928051
 30
0.0
 11
-256.44589728085077
 21
190.46762589928051
 31
0.0
  0
LINE
  5
78
  8
1
  6
DASHDOT
 62
     3
 10
-178.46818083375399
 20
88.969650272835523
 30
0.0
 11
-166.59679786503179
 21
95.823596425480474
 31
0.0
  0
LINE
  5
79
  8
1
  6
DASHDOT
 62
     3
 10
-178.46818083375399
 20
1.965601525725633
 30
0.0
 11
-166.59679786503179
 21
-4.8883446269193271
 31
0.0
  0
LINE
  5
7A
  8
1
  6
DASHDOT
 62
     3
 10
-253.81589728085089
 20
-41.5364228478293
 30
0.0
 11
-253.81589728085089
 21
-55.244315153119253
 31
0.0
  0
LINE
  5
7B
  8
1
  6
DASHDOT
 62
     3
 10
-329.16361372794762
 20
1.9656015257256201
 30
0.0
 11
-341.03499669667002
 21
-4.8883446269193627
 31
0.0
  0
LINE
  5
7C
  8
1
  6
DASHDOT
 62
     3
 10
-329.16361372794762
 20
88.969650272835466
 30
0.0
 11
-341.03499669667002
 21
95.823596425480446
 31
0.0
  0
LINE
  5
7D
  8
1
  6
DASHDOT
 62
     3
 10
-253.81589728085089
 20
132.4716746463904
 30
0.0
 11
-253.81589728085089
 21
142.92146112396529
 31
0.0
  0
LINE
  5
7E
  8
1
  6
DASHDOT
 62
     3
 10
-243.42340775238139
 20
45.46762589928057
 30
0.0
 11
-264.2083868093203
 21
45.46762589928057
 31
0.0
  0
LINE
  5
7F
  8
1
  6
DASHDOT
 62
     3
 10
-253.81589728085089
 20
35.075136370811151
 30
0.0
 11
-253.81589728085089
 21
55.860115427750003
 31
0.0
  0
LINE
  5
80
  8
1
 62
     3
 10
-760.31589728085078
 20
45.46762589928057
 30
0.0
 11
-763.31589728085078
 21
45.46762589928057
 31
0.0
  0
LINE
  5
81
  8
1
 62
     3
 10
-653.31589728085078
 20
45.46762589928057
 30
0.0
 11
-650.31589728085089
 21
45.46762589928057
 31
0.0
  0
LINE
  5
82
  8
1
  6
DASHDOT
 62
     3
 10
-944.92340775238154
 20
45.46762589928057
 30
0.0
 11
-965.70838680932036
 21
45.46762589928057
 31
0.0
  0
LINE
  5
83
  8
1
  6
DASHDOT
 62
     3
 10
-955.31589728085066
 20
35.075136370811151
 30
0.0
 11
-955.31589728085066
 21
55.860115427750003
 31
0.0
  0
LINE
  5
84
  8
1
 62
     7
 10
-970.0064962040924
 20
125.46762589928051
 30
0.0
 11
-971.16119674247147
 21
127.46762589928061
 31
0.0
  0
LINE
  5
85
  8
1
 62
     7
 10
-971.16119674247147
 20
127.46762589928061
 30
0.0
 11
-973.47059781923019
 21
127.46762589928061
 31
0.0
  0
LINE
  5
86
  8
1
 62
     7
 10
-973.47059781923019
 20
127.46762589928061
 30
0.0
 11
-974.62529835760927
 21
125.46762589928051
 31
0.0
  0
LINE
  5
87
  8
1
 62
     7
 10
-974.62529835760927
 20
125.46762589928051
 30
0.0
 11
-973.47059781923019
 21
123.46762589928051
 31
0.0
  0
LINE
  5
88
  8
1
 62
     7
 10
-973.47059781923019
 20
123.46762589928051
 30
0.0
 11
-971.16119674247147
 21
123.46762589928051
 31
0.0
  0
LINE
  5
89
  8
1
 62
     7
 10
-971.16119674247147
 20
123.46762589928051
 30
0.0
 11
-970.0064962040924
 21
125.46762589928051
 31
0.0
  0
LINE
  5
8A
  8
1
 62
     7
 10
-979.31589728085066
 20
129.11813812490919
 30
0.0
 11
-979.31589728085066
 21
123.1813261310139
 31
0.0
  0
LINE
  5
8B
  8
1
 62
     7
 10
-965.31589728085055
 20
118.7056516204805
 30
0.0
 11
-965.31589728085055
 21
190.46762589928051
 31
0.0
  0
LINE
  5
8C
  8
1
 62
     7
 10
-939.47059781923019
 20
127.46762589928061
 30
0.0
 11
-940.62529835760927
 21
125.46762589928051
 31
0.0
  0
LINE
  5
8D
  8
1
 62
     7
 10
-937.16119674247159
 20
127.46762589928061
 30
0.0
 11
-939.47059781923019
 21
127.46762589928061
 31
0.0
  0
LINE
  5
8E
  8
1
 62
     7
 10
-936.0064962040924
 20
125.46762589928051
 30
0.0
 11
-937.16119674247159
 21
127.46762589928061
 31
0.0
  0
LINE
  5
8F
  8
1
 62
     7
 10
-937.16119674247159
 20
123.46762589928051
 30
0.0
 11
-936.0064962040924
 21
125.46762589928051
 31
0.0
  0
LINE
  5
90
  8
1
 62
     7
 10
-939.47059781923019
 20
123.46762589928051
 30
0.0
 11
-937.16119674247159
 21
123.46762589928051
 31
0.0
  0
LINE
  5
91
  8
1
 62
     7
 10
-940.62529835760927
 20
125.46762589928051
 30
0.0
 11
-939.47059781923019
 21
123.46762589928051
 31
0.0
  0
LINE
  5
92
  8
1
 62
     7
 10
-945.31589728085066
 20
190.46762589928051
 30
0.0
 11
-965.31589728085055
 21
190.46762589928051
 31
0.0
  0
LINE
  5
93
  8
1
 62
     7
 10
-931.31589728085066
 20
123.1813261310139
 30
0.0
 11
-931.31589728085066
 21
129.11813812490919
 31
0.0
  0
LINE
  5
94
  8
1
 62
     7
 10
-945.31589728085066
 20
190.46762589928051
 30
0.0
 11
-945.31589728085066
 21
118.7056516204805
 31
0.0
  0
LINE
  5
95
  8
1
 62
     7
 10
-245.81589728085089
 20
135.46762589928051
 30
0.0
 11
-245.81589728085089
 21
190.46762589928051
 31
0.0
  0
LINE
  5
96
  8
1
 62
     7
 10
-503.81589728085089
 20
84.467625899280563
 30
0.0
 11
-503.81589728085089
 21
98.117625899280583
 31
0.0
  0
LINE
  5
97
  8
1
 62
     7
 10
-554.81589728085089
 20
7.9676258992805611
 30
0.0
 11
-555.81589728085089
 21
7.9676258992805611
 31
0.0
  0
LINE
  5
98
  8
1
 62
     7
 10
-555.81589728085089
 20
78.467625899280563
 30
0.0
 11
-448.81589728085078
 21
78.467625899280563
 31
0.0
  0
LINE
  5
99
  8
1
 62
     7
 10
-555.81589728085089
 20
75.467625899280563
 30
0.0
 11
-508.81589728085089
 21
75.467625899280563
 31
0.0
  0
LINE
  5
9A
  8
1
 62
     7
 10
-500.81589728085089
 20
75.467625899280563
 30
0.0
 11
-474.81589728085089
 21
75.467625899280563
 31
0.0
  0
LINE
  5
9B
  8
1
 62
     7
 10
-466.81589728085089
 20
75.467625899280563
 30
0.0
 11
-448.81589728085078
 21
75.467625899280563
 31
0.0
  0
LINE
  5
9C
  8
1
 62
     7
 10
-508.81589728085089
 20
76.467625899280563
 30
0.0
 11
-500.81589728085089
 21
76.467625899280563
 31
0.0
  0
LINE
  5
9D
  8
1
 62
     7
 10
-474.81589728085089
 20
76.467625899280563
 30
0.0
 11
-466.81589728085089
 21
76.467625899280563
 31
0.0
  0
LINE
  5
9E
  8
1
 62
     7
 10
-474.81589728085089
 20
14.467625899280449
 30
0.0
 11
-474.81589728085089
 21
76.467625899280563
 31
0.0
  0
LINE
  5
9F
  8
1
 62
     7
 10
-508.81589728085089
 20
14.467625899280449
 30
0.0
 11
-508.81589728085089
 21
76.467625899280563
 31
0.0
  0
LINE
  5
A0
  8
1
 62
     7
 10
-451.31589728085089
 20
95.717625899280563
 30
0.0
 11
-454.31589728085089
 21
95.717625899280563
 31
0.0
  0
LINE
  5
A1
  8
1
 62
     7
 10
-451.31589728085089
 20
87.717625899280577
 30
0.0
 11
-451.31589728085089
 21
95.717625899280563
 31
0.0
  0
LINE
  5
A2
  8
1
 62
     7
 10
-454.51589728085088
 20
87.717625899280577
 30
0.0
 11
-451.31589728085089
 21
87.717625899280577
 31
0.0
  0
LINE
  5
A3
  8
1
 62
     7
 10
-454.31589728085089
 20
95.717625899280563
 30
0.0
 11
-454.31589728085089
 21
87.717625899280577
 31
0.0
  0
LINE
  5
A4
  8
1
 62
     7
 10
-451.31589728085089
 20
89.467625899280563
 30
0.0
 11
-448.81589728085078
 21
89.467625899280563
 31
0.0
  0
LINE
  5
A5
  8
1
 62
     7
 10
-448.81589728085078
 20
1.4676258992804481
 30
0.0
 11
-448.81589728085078
 21
89.467625899280563
 31
0.0
  0
LINE
  5
A6
  8
1
 62
     7
 10
-454.51589728085088
 20
87.717625899280577
 30
0.0
 11
-454.51589728085088
 21
92.867625899280569
 31
0.0
  0
LINE
  5
A7
  8
1
 62
     7
 10
-479.01589728085088
 20
92.867625899280569
 30
0.0
 11
-454.51589728085088
 21
92.867625899280569
 31
0.0
  0
LINE
  5
A8
  8
1
 62
     7
 10
-479.01589728085088
 20
84.467625899280563
 30
0.0
 11
-479.01589728085088
 21
142.96762589928059
 31
0.0
  0
LINE
  5
A9
  8
1
 62
     7
 10
-504.81589728085089
 20
89.467625899280563
 30
0.0
 11
-504.81589728085089
 21
98.117625899280583
 31
0.0
  0
LINE
  5
AA
  8
1
 62
     7
 10
-479.01589728085088
 20
84.467625899280563
 30
0.0
 11
-505.81589728085089
 21
84.467625899280563
 31
0.0
  0
LINE
  5
AB
  8
1
 62
     7
 10
-504.81589728085089
 20
89.467625899280563
 30
0.0
 11
-505.81589728085089
 21
89.467625899280563
 31
0.0
  0
LINE
  5
AC
  8
1
 62
     7
 10
-490.01589728085082
 20
98.117625899280583
 30
0.0
 11
-504.81589728085089
 21
98.117625899280583
 31
0.0
  0
LINE
  5
AD
  8
1
 62
     7
 10
-462.31589728085089
 20
123.96762589928051
 30
0.0
 11
-492.01589728085088
 21
123.96762589928051
 31
0.0
  0
LINE
  5
AE
  8
1
 62
     7
 10
-492.01589728085088
 20
134.1176258992806
 30
0.0
 11
-479.01589728085088
 21
134.1176258992806
 31
0.0
  0
LINE
  5
AF
  8
1
 62
     7
 10
-492.01589728085088
 20
123.96762589928051
 30
0.0
 11
-492.01589728085088
 21
134.1176258992806
 31
0.0
  0
LINE
  5
B0
  8
1
 62
     7
 10
-490.01589728085082
 20
98.117625899280583
 30
0.0
 11
-490.01589728085082
 21
123.96762589928051
 31
0.0
  0
LINE
  5
B1
  8
1
 62
     7
 10
-462.31589728085089
 20
112.96762589928051
 30
0.0
 11
-490.01589728085082
 21
112.96762589928051
 31
0.0
  0
LINE
  5
B2
  8
1
 62
     7
 10
-548.31589728085078
 20
88.467625899280563
 30
0.0
 11
-545.81589728085089
 21
88.467625899280563
 31
0.0
  0
LINE
  5
B3
  8
1
 62
     7
 10
-548.31589728085078
 20
81.467625899280577
 30
0.0
 11
-548.31589728085078
 21
88.467625899280563
 31
0.0
  0
LINE
  5
B4
  8
1
 62
     7
 10
-545.81589728085089
 20
81.467625899280577
 30
0.0
 11
-548.31589728085078
 21
81.467625899280577
 31
0.0
  0
LINE
  5
B5
  8
1
 62
     7
 10
-505.01589728085088
 20
82.967625899280549
 30
0.0
 11
-505.01589728085088
 21
84.467625899280563
 31
0.0
  0
LINE
  5
B6
  8
1
 62
     7
 10
-555.81589728085089
 20
82.967625899280549
 30
0.0
 11
-548.31589728085078
 21
82.967625899280549
 31
0.0
  0
LINE
  5
B7
  8
1
 62
     7
 10
-462.31589728085089
 20
134.46762589928051
 30
0.0
 11
-453.31589728085078
 21
134.46762589928051
 31
0.0
  0
LINE
  5
B8
  8
1
 62
     7
 10
-453.31589728085078
 20
99.467625899280563
 30
0.0
 11
-452.31589728085078
 21
99.467625899280563
 31
0.0
  0
LINE
  5
B9
  8
1
 62
     7
 10
-479.01589728085088
 20
88.367625899280583
 30
0.0
 11
-454.31589728085089
 21
88.367625899280583
 31
0.0
  0
LINE
  5
BA
  8
1
 62
     7
 10
-454.31589728085089
 20
95.717625899280563
 30
0.0
 11
-454.31589728085089
 21
98.467625899280563
 31
0.0
  0
LINE
  5
BB
  8
1
 62
     7
 10
-450.31589728085089
 20
101.46762589928061
 30
0.0
 11
-450.31589728085089
 21
131.46762589928059
 31
0.0
  0
LINE
  5
BC
  8
1
 62
     7
 10
-452.31589728085078
 20
99.467625899280563
 30
0.0
 11
-450.31589728085089
 21
101.46762589928061
 31
0.0
  0
LINE
  5
BD
  8
1
 62
     7
 10
-452.31589728085078
 20
96.761498676290145
 30
0.0
 11
-452.31589728085078
 21
99.467625899280563
 31
0.0
  0
LINE
  5
BE
  8
1
 62
     7
 10
-450.31589728085089
 20
93.467625899280563
 30
0.0
 11
-450.31589728085089
 21
101.46762589928061
 31
0.0
  0
LINE
  5
BF
  8
1
 62
     7
 10
-453.31589728085078
 20
134.46762589928051
 30
0.0
 11
-450.31589728085089
 21
131.46762589928059
 31
0.0
  0
LINE
  5
C0
  8
1
 62
     7
 10
-462.31589728085089
 20
88.367625899280583
 30
0.0
 11
-462.31589728085089
 21
142.96762589928059
 31
0.0
  0
LINE
  5
C1
  8
1
 62
     7
 10
-479.01589728085088
 20
142.96762589928059
 30
0.0
 11
-462.31589728085089
 21
142.96762589928059
 31
0.0
  0
LINE
  5
C2
  8
1
 62
     3
 10
-479.01589728085088
 20
142.96762589928059
 30
0.0
 11
-462.31589728085089
 21
88.367625899280583
 31
0.0
  0
LINE
  5
C3
  8
1
 62
     3
 10
-479.01589728085088
 20
88.367625899280583
 30
0.0
 11
-462.31589728085089
 21
142.96762589928059
 31
0.0
  0
LINE
  5
C4
  8
1
 62
     7
 10
-543.81589728085078
 20
142.96762589928059
 30
0.0
 11
-489.51589728085082
 21
142.96762589928059
 31
0.0
  0
LINE
  5
C5
  8
1
 62
     7
 10
-492.01589728085088
 20
98.467625899280563
 30
0.0
 11
-505.81589728085089
 21
98.467625899280563
 31
0.0
  0
LINE
  5
C6
  8
1
 62
     7
 10
-492.01589728085088
 20
98.467625899280563
 30
0.0
 11
-492.01589728085088
 21
112.46762589928051
 31
0.0
  0
LINE
  5
C7
  8
1
 62
     7
 10
-482.01589728085082
 20
134.46762589928051
 30
0.0
 11
-482.01589728085082
 21
135.46762589928051
 31
0.0
  0
LINE
  5
C8
  8
1
 62
     7
 10
-492.51589728085088
 20
112.96762589928051
 30
0.0
 11
-492.01589728085088
 21
112.46762589928051
 31
0.0
  0
LINE
  5
C9
  8
1
 62
     7
 10
-489.51589728085082
 20
142.96762589928059
 30
0.0
 11
-482.01589728085082
 21
135.46762589928051
 31
0.0
  0
LINE
  5
CA
  8
1
 62
     7
 10
-494.01589728085082
 20
112.96762589928051
 30
0.0
 11
-494.01589728085082
 21
134.46762589928051
 31
0.0
  0
LINE
  5
CB
  8
1
 62
     7
 10
-554.81589728085089
 20
88.276438848920861
 30
0.0
 11
-554.81589728085089
 21
115.96762589928061
 31
0.0
  0
LINE
  5
CC
  8
1
 62
     7
 10
-554.81589728085089
 20
115.96762589928061
 30
0.0
 11
-543.81589728085078
 21
115.96762589928061
 31
0.0
  0
LINE
  5
CD
  8
1
 62
     7
 10
-505.81589728085089
 20
87.867625899280569
 30
0.0
 11
-512.6552011549951
 21
87.867625899280569
 31
0.0
  0
LINE
  5
CE
  8
1
 62
     7
 10
-505.81589728085089
 20
98.067625899280586
 30
0.0
 11
-512.6552011549951
 21
98.067625899280586
 31
0.0
  0
LINE
  5
CF
  8
1
 62
     3
 10
-508.81589728085089
 20
92.967625899280549
 30
0.0
 11
-522.81589728085078
 21
92.967625899280549
 31
0.0
  0
LINE
  5
D0
  8
1
 62
     3
 10
-515.81589728085078
 20
85.967625899280563
 30
0.0
 11
-515.81589728085078
 21
99.967625899280563
 31
0.0
  0
LINE
  5
D1
  8
1
 62
     7
 10
-518.97659340670668
 20
87.867625899280569
 30
0.0
 11
-532.65520115499498
 21
87.867625899280569
 31
0.0
  0
LINE
  5
D2
  8
1
 62
     7
 10
-545.81589728085089
 20
87.867625899280569
 30
0.0
 11
-538.97659340670668
 21
87.867625899280569
 31
0.0
  0
LINE
  5
D3
  8
1
 62
     7
 10
-518.97659340670668
 20
98.067625899280586
 30
0.0
 11
-532.65520115499498
 21
98.067625899280586
 31
0.0
  0
LINE
  5
D4
  8
1
 62
     7
 10
-545.81589728085089
 20
98.067625899280586
 30
0.0
 11
-538.97659340670668
 21
98.067625899280586
 31
0.0
  0
LINE
  5
D5
  8
1
 62
     3
 10
-528.81589728085089
 20
92.967625899280549
 30
0.0
 11
-542.81589728085089
 21
92.967625899280549
 31
0.0
  0
LINE
  5
D6
  8
1
 62
     3
 10
-535.81589728085078
 20
85.967625899280563
 30
0.0
 11
-535.81589728085078
 21
99.967625899280563
 31
0.0
  0
LINE
  5
D7
  8
1
 62
     7
 10
-545.81589728085089
 20
104.96762589928051
 30
0.0
 11
-549.81589728085089
 21
104.96762589928051
 31
0.0
  0
LINE
  5
D8
  8
1
 62
     7
 10
-549.81589728085089
 20
95.467625899280549
 30
0.0
 11
-545.81589728085089
 21
95.467625899280549
 31
0.0
  0
LINE
  5
D9
  8
1
 62
     7
 10
-549.81589728085089
 20
104.96762589928051
 30
0.0
 11
-549.81589728085089
 21
90.358695532350225
 31
0.0
  0
LINE
  5
DA
  8
1
 62
     7
 10
-549.81589728085089
 20
102.96762589928051
 30
0.0
 11
-554.81589728085089
 21
102.96762589928051
 31
0.0
  0
LINE
  5
DB
  8
1
 62
     7
 10
-492.51589728085088
 20
112.96762589928051
 30
0.0
 11
-494.01589728085082
 21
112.96762589928051
 31
0.0
  0
LINE
  5
DC
  8
1
 62
     7
 10
-482.01589728085082
 20
134.46762589928051
 30
0.0
 11
-494.01589728085082
 21
134.46762589928051
 31
0.0
  0
LINE
  5
DD
  8
1
 62
     7
 10
-545.81589728085089
 20
82.967625899280549
 30
0.0
 11
-505.81589728085089
 21
82.967625899280549
 31
0.0
  0
LINE
  5
DE
  8
1
 62
     7
 10
-505.81589728085089
 20
102.96762589928051
 30
0.0
 11
-545.81589728085089
 21
102.96762589928051
 31
0.0
  0
LINE
  5
DF
  8
1
 62
     7
 10
-545.81589728085089
 20
104.96762589928051
 30
0.0
 11
-545.81589728085089
 21
81.467625899280577
 31
0.0
  0
LINE
  5
E0
  8
1
 62
     7
 10
-525.81589728085089
 20
102.96762589928051
 30
0.0
 11
-525.81589728085089
 21
82.967625899280549
 31
0.0
  0
LINE
  5
E1
  8
1
 62
     7
 10
-505.81589728085089
 20
102.96762589928051
 30
0.0
 11
-505.81589728085089
 21
82.967625899280549
 31
0.0
  0
LINE
  5
E2
  8
1
 62
     7
 10
-760.31589728085078
 20
7.9676258992805611
 30
0.0
 11
-760.31589728085078
 21
45.46762589928057
 31
0.0
  0
LINE
  5
E3
  8
1
 62
     7
 10
-653.31589728085078
 20
1.4676258992805631
 30
0.0
 11
-653.31589728085078
 21
45.46762589928057
 31
0.0
  0
LINE
  5
E4
  8
1
 62
     7
 10
-748.31589728085066
 20
-52.03237410071943
 30
0.0
 11
-694.01589728085082
 21
-52.03237410071943
 31
0.0
  0
LINE
  5
E5
  8
1
 62
     7
 10
-759.31589728085078
 20
-25.032374100719441
 30
0.0
 11
-748.31589728085066
 21
-25.032374100719441
 31
0.0
  0
LINE
  5
E6
  8
1
 62
     7
 10
-748.31589728085066
 20
-52.03237410071943
 30
0.0
 11
-748.31589728085066
 21
45.467625899280613
 31
0.0
  0
LINE
  5
E7
  8
1
 62
     7
 10
-759.31589728085078
 20
-25.032374100719441
 30
0.0
 11
-759.31589728085078
 21
45.467625899280563
 31
0.0
  0
LINE
  5
E8
  8
1
 62
     7
 10
-654.81589728085089
 20
1.4676258992805631
 30
0.0
 11
-653.31589728085078
 21
1.4676258992805631
 31
0.0
  0
LINE
  5
E9
  8
1
 62
     7
 10
-654.81589728085089
 20
45.467625899280563
 30
0.0
 11
-654.81589728085089
 21
-40.53237410071943
 31
0.0
  0
LINE
  5
EA
  8
1
 62
     3
 10
-666.81589728085089
 20
-52.032374100719423
 30
0.0
 11
-683.51589728085094
 21
45.467625899280563
 31
0.0
  0
LINE
  5
EB
  8
1
 62
     3
 10
-683.51589728085071
 20
-52.032374100719423
 30
0.0
 11
-666.81589728085089
 21
45.467625899280563
 31
0.0
  0
LINE
  5
EC
  8
1
 62
     7
 10
-683.51589728085094
 20
-43.1823741007194
 30
0.0
 11
-683.51589728085071
 21
-52.032374100719423
 31
0.0
  0
LINE
  5
ED
  8
1
 62
     7
 10
-683.51589728085071
 20
-52.032374100719423
 30
0.0
 11
-666.81589728085089
 21
-52.032374100719423
 31
0.0
  0
LINE
  5
EE
  8
1
 62
     7
 10
-666.81589728085089
 20
-52.032374100719423
 30
0.0
 11
-666.81589728085089
 21
45.467625899280563
 31
0.0
  0
LINE
  5
EF
  8
1
 62
     7
 10
-686.51589728085094
 20
-43.1823741007194
 30
0.0
 11
-683.51589728085094
 21
-43.1823741007194
 31
0.0
  0
LINE
  5
F0
  8
1
 62
     7
 10
-683.51589728085094
 20
-43.1823741007194
 30
0.0
 11
-683.51589728085094
 21
45.467625899280563
 31
0.0
  0
LINE
  5
F1
  8
1
 62
     7
 10
-759.31589728085078
 20
7.9676258992805611
 30
0.0
 11
-760.31589728085078
 21
7.9676258992805611
 31
0.0
  0
LINE
  5
F2
  8
1
 62
     7
 10
-694.01589728085082
 20
45.467625899280563
 30
0.0
 11
-694.01589728085082
 21
-52.03237410071943
 31
0.0
  0
LINE
  5
F3
  8
1
 62
     7
 10
-686.51589728085094
 20
45.467625899280563
 30
0.0
 11
-686.51589728085094
 21
-44.53237410071943
 31
0.0
  0
LINE
  5
F4
  8
1
 62
     7
 10
-686.51589728085094
 20
-44.53237410071943
 30
0.0
 11
-694.01589728085082
 21
-52.03237410071943
 31
0.0
  0
LINE
  5
F5
  8
1
 62
     7
 10
-657.81589728085089
 20
-43.53237410071943
 30
0.0
 11
-666.81589728085089
 21
-43.53237410071943
 31
0.0
  0
LINE
  5
F6
  8
1
 62
     7
 10
-654.81589728085089
 20
-40.53237410071943
 30
0.0
 11
-657.81589728085089
 21
-43.53237410071943
 31
0.0
  0
LINE
  5
F7
  8
1
 62
     7
 10
-657.81589728085089
 20
-43.53237410071943
 30
0.0
 11
-666.81589728085089
 21
-43.53237410071943
 31
0.0
  0
LINE
  5
F8
  8
1
 62
     7
 10
-748.31589728085066
 20
127.96762589928051
 30
0.0
 11
-748.31589728085066
 21
190.46762589928051
 31
0.0
  0
LINE
  5
F9
  8
1
 62
     3
 10
-752.63275088159617
 20
200.4768594176783
 30
0.0
 11
-752.63275088159617
 21
204.7274905656482
 31
0.0
  0
LINE
  5
FA
  8
1
 62
     3
 10
-753.08489199358792
 20
200.4768594176783
 30
0.0
 11
-753.08489199358792
 21
204.7274905656482
 31
0.0
  0
LINE
  5
FB
  8
1
 62
     3
 10
-752.9921450988204
 20
200.4768594176783
 30
0.0
 11
-752.9921450988204
 21
204.7274905656482
 31
0.0
  0
LINE
  5
FC
  8
1
 62
     3
 10
-752.74868450005567
 20
200.4768594176783
 30
0.0
 11
-752.74868450005567
 21
204.7274905656482
 31
0.0
  0
LINE
  5
FD
  8
1
 62
     3
 10
-752.87621148036112
 20
200.4768594176783
 30
0.0
 11
-752.87621148036112
 21
204.7274905656482
 31
0.0
  0
LINE
  5
FE
  8
1
 62
     3
 10
-752.40088364467738
 20
204.7274905656482
 30
0.0
 11
-752.40088364467738
 21
200.4768594176783
 31
0.0
  0
LINE
  5
FF
  8
1
 62
     3
 10
-751.94874253268574
 20
204.7274905656482
 30
0.0
 11
-751.94874253268574
 21
200.4768594176783
 31
0.0
  0
LINE
  5
100
  8
1
 62
     3
 10
-752.04148942745314
 20
204.7274905656482
 30
0.0
 11
-752.04148942745314
 21
200.4768594176783
 31
0.0
  0
LINE
  5
101
  8
1
 62
     3
 10
-752.28495002621798
 20
204.7274905656482
 30
0.0
 11
-752.28495002621798
 21
200.4768594176783
 31
0.0
  0
LINE
  5
102
  8
1
 62
     3
 10
-752.15742304591265
 20
204.7274905656482
 30
0.0
 11
-752.15742304591265
 21
200.4768594176783
 31
0.0
  0
LINE
  5
103
  8
1
 62
     7
 10
-754.01681726313689
 20
200.4768594176783
 30
0.0
 11
-751.01681726313677
 21
200.4768594176783
 31
0.0
  0
LINE
  5
104
  8
1
 62
     7
 10
-754.01681726313689
 20
200.4768594176783
 30
0.0
 11
-754.01681726313689
 21
197.0075564478509
 31
0.0
  0
LINE
  5
105
  8
1
 62
     7
 10
-751.01681726313677
 20
197.0075564478509
 30
0.0
 11
-751.01681726313677
 21
200.4768594176783
 31
0.0
  0
LINE
  5
106
  8
1
  6
DASHDOT
 62
     3
 10
-752.51681726313677
 20
188.8181787645336
 30
0.0
 11
-752.51681726313677
 21
210.9199045318488
 31
0.0
  0
LINE
  5
107
  8
1
 62
     7
 10
-754.01681726313689
 20
195.91654324454731
 30
0.0
 11
-754.01681726313689
 21
190.46762589928051
 31
0.0
  0
LINE
  5
108
  8
1
 62
     7
 10
-751.01681726313677
 20
190.46762589928051
 30
0.0
 11
-751.01681726313677
 21
195.91654324454731
 31
0.0
  0
LINE
  5
109
  8
1
 62
     7
 10
-758.31589728085066
 20
120.833651303065
 30
0.0
 11
-758.31589728085066
 21
190.46762589928051
 31
0.0
  0
LINE
  5
10A
  8
1
 62
     7
 10
-758.31589728085066
 20
120.833651303065
 30
0.0
 11
-758.31589728085066
 21
119.46762589928051
 31
0.0
  0
LINE
  5
10B
  8
1
 62
     7
 10
-758.31589728085066
 20
119.46762589928051
 30
0.0
 11
-748.31589728085066
 21
119.46762589928051
 31
0.0
  0
LINE
  5
10C
  8
1
 62
     7
 10
-758.31589728085066
 20
190.46762589928051
 30
0.0
 11
-748.31589728085066
 21
190.46762589928051
 31
0.0
  0
LINE
  5
10D
  8
1
 62
     7
 10
-750.31589728085066
 20
136.46762589928051
 30
0.0
 11
-748.31589728085066
 21
136.46762589928051
 31
0.0
  0
LINE
  5
10E
  8
1
 62
     7
 10
-750.31589728085066
 20
119.46762589928051
 30
0.0
 11
-750.31589728085066
 21
136.46762589928051
 31
0.0
  0
LINE
  5
10F
  8
1
 62
     7
 10
-751.61589728085096
 20
126.7676258992805
 30
0.0
 11
-750.31589728085066
 21
125.46762589928051
 31
0.0
  0
LINE
  5
110
  8
1
 62
     7
 10
-751.61589728085096
 20
125.46762589928051
 30
0.0
 11
-750.31589728085066
 21
124.16762589928049
 31
0.0
  0
LINE
  5
111
  8
1
 62
     7
 10
-751.61589728085085
 20
130.0676258992805
 30
0.0
 11
-750.31589728085066
 21
130.0676258992805
 31
0.0
  0
LINE
  5
112
  8
1
 62
     7
 10
-751.61589728085085
 20
120.8676258992805
 30
0.0
 11
-751.61589728085085
 21
130.0676258992805
 31
0.0
  0
LINE
  5
113
  8
1
 62
     7
 10
-750.31589728085066
 20
120.8676258992805
 30
0.0
 11
-751.61589728085085
 21
120.8676258992805
 31
0.0
  0
LINE
  5
114
  8
1
 62
     7
 10
-750.31589728085066
 20
130.0676258992805
 30
0.0
 11
-750.31589728085066
 21
120.8676258992805
 31
0.0
  0
LINE
  5
115
  8
1
 62
     7
 10
-756.31589728085078
 20
129.71762589928051
 30
0.0
 11
-751.61589728085096
 21
129.71762589928051
 31
0.0
  0
LINE
  5
116
  8
1
 62
     7
 10
-756.61589728085085
 20
129.19801065700989
 30
0.0
 11
-756.31589728085078
 21
129.71762589928051
 31
0.0
  0
LINE
  5
117
  8
1
 62
     7
 10
-756.61589728085085
 20
121.73724114155119
 30
0.0
 11
-756.61589728085085
 21
129.19801065700989
 31
0.0
  0
LINE
  5
118
  8
1
 62
     7
 10
-756.31589728085078
 20
121.21762589928061
 30
0.0
 11
-756.61589728085085
 21
121.73724114155119
 31
0.0
  0
LINE
  5
119
  8
1
 62
     7
 10
-751.61589728085096
 20
121.21762589928061
 30
0.0
 11
-756.31589728085078
 21
121.21762589928061
 31
0.0
  0
LINE
  5
11A
  8
1
 62
     7
 10
-751.61589728085096
 20
129.71762589928051
 30
0.0
 11
-751.61589728085096
 21
121.21762589928061
 31
0.0
  0
LINE
  5
11B
  8
1
 62
     7
 10
-756.31589728085078
 20
121.21762589928061
 30
0.0
 11
-756.31589728085078
 21
129.71762589928051
 31
0.0
  0
LINE
  5
11C
  8
1
 62
     7
 10
-748.31589728085066
 20
115.96762589928061
 30
0.0
 11
-748.31589728085066
 21
122.96762589928051
 31
0.0
  0
LINE
  5
11D
  8
1
 62
     7
 10
-503.81589728085089
 20
-7.1823741007195849
 30
0.0
 11
-503.81589728085089
 21
6.4676258992804492
 31
0.0
  0
LINE
  5
11E
  8
1
 62
     7
 10
-506.81589728085078
 20
7.9676258992804492
 30
0.0
 11
-506.81589728085078
 21
14.467625899280449
 31
0.0
  0
LINE
  5
11F
  8
1
  6
DASHED
 62
     3
 10
-504.81589728085089
 20
17.467625899280449
 30
0.0
 11
-504.81589728085089
 21
3.4676258992804478
 31
0.0
  0
LINE
  5
120
  8
1
 62
     7
 10
-502.81589728085078
 20
14.467625899280449
 30
0.0
 11
-502.81589728085078
 21
6.4676258992804492
 31
0.0
  0
LINE
  5
121
  8
1
  6
DASHED
 62
     3
 10
-470.81589728085089
 20
17.467625899280449
 30
0.0
 11
-470.81589728085089
 21
0.4676258992804492
 31
0.0
  0
LINE
  5
122
  8
1
 62
     7
 10
-472.81589728085078
 20
3.4676258992804478
 30
0.0
 11
-472.81589728085078
 21
14.467625899280449
 31
0.0
  0
LINE
  5
123
  8
1
 62
     7
 10
-468.81589728085078
 20
14.467625899280449
 30
0.0
 11
-468.81589728085078
 21
3.4676258992804478
 31
0.0
  0
LINE
  5
124
  8
1
 62
     7
 10
-555.81589728085089
 20
82.967625899280549
 30
0.0
 11
-554.81589728085089
 21
82.967625899280449
 31
0.0
  0
LINE
  5
125
  8
1
 62
     7
 10
-508.81589728085089
 20
15.467625899280449
 30
0.0
 11
-555.81589728085089
 21
15.467625899280449
 31
0.0
  0
LINE
  5
126
  8
1
 62
     7
 10
-474.81589728085089
 20
15.467625899280449
 30
0.0
 11
-500.81589728085089
 21
15.467625899280449
 31
0.0
  0
LINE
  5
127
  8
1
 62
     7
 10
-448.81589728085078
 20
15.46762589928057
 30
0.0
 11
-466.81589728085089
 21
15.467625899280449
 31
0.0
  0
LINE
  5
128
  8
1
 62
     7
 10
-500.81589728085089
 20
14.467625899280449
 30
0.0
 11
-508.81589728085089
 21
14.467625899280449
 31
0.0
  0
LINE
  5
129
  8
1
 62
     7
 10
-466.81589728085089
 20
14.467625899280449
 30
0.0
 11
-474.81589728085089
 21
14.467625899280449
 31
0.0
  0
LINE
  5
12A
  8
1
 62
     7
 10
-466.81589728085089
 20
14.467625899280449
 30
0.0
 11
-466.81589728085089
 21
76.467625899280563
 31
0.0
  0
LINE
  5
12B
  8
1
 62
     7
 10
-500.81589728085089
 20
14.467625899280449
 30
0.0
 11
-500.81589728085089
 21
76.467625899280563
 31
0.0
  0
LINE
  5
12C
  8
1
 62
     7
 10
-454.31589728085089
 20
-4.7823741007195499
 30
0.0
 11
-451.31589728085089
 21
-4.7823741007195499
 31
0.0
  0
LINE
  5
12D
  8
1
 62
     7
 10
-451.31589728085089
 20
-4.7823741007195499
 30
0.0
 11
-451.31589728085089
 21
3.2176258992804478
 31
0.0
  0
LINE
  5
12E
  8
1
 62
     7
 10
-451.31589728085089
 20
3.2176258992804478
 30
0.0
 11
-454.31589728085089
 21
3.2176258992804478
 31
0.0
  0
LINE
  5
12F
  8
1
 62
     7
 10
-454.31589728085089
 20
3.2176258992804478
 30
0.0
 11
-454.31589728085089
 21
-4.7823741007195499
 31
0.0
  0
LINE
  5
130
  8
1
 62
     7
 10
-448.81589728085078
 20
1.4676258992804481
 30
0.0
 11
-451.31589728085089
 21
1.4676258992804481
 31
0.0
  0
LINE
  5
131
  8
1
 62
     7
 10
-454.51589728085088
 20
-1.932374100719584
 30
0.0
 11
-454.51589728085088
 21
3.2176258992804478
 31
0.0
  0
LINE
  5
132
  8
1
 62
     7
 10
-454.51589728085088
 20
3.2176258992804478
 30
0.0
 11
-454.31589728085089
 21
3.2176258992804478
 31
0.0
  0
LINE
  5
133
  8
1
 62
     7
 10
-454.51589728085088
 20
-1.932374100719584
 30
0.0
 11
-479.01589728085088
 21
-1.932374100719584
 31
0.0
  0
LINE
  5
134
  8
1
  6
DASHDOT
 62
     3
 10
-453.47485700784182
 20
0.4676258992804492
 30
0.0
 11
-480.40089816624572
 21
0.4676258992804492
 31
0.0
  0
LINE
  5
135
  8
1
 62
     7
 10
-479.01589728085088
 20
-43.182374100719592
 30
0.0
 11
-479.01589728085088
 21
6.4676258992804492
 31
0.0
  0
LINE
  5
136
  8
1
 62
     7
 10
-504.81589728085089
 20
-7.1823741007195849
 30
0.0
 11
-504.81589728085089
 21
1.4676258992804481
 31
0.0
  0
LINE
  5
137
  8
1
 62
     7
 10
-505.81589728085089
 20
6.4676258992804492
 30
0.0
 11
-479.01589728085088
 21
6.4676258992804492
 31
0.0
  0
LINE
  5
138
  8
1
 62
     7
 10
-505.81589728085089
 20
1.4676258992804481
 30
0.0
 11
-504.81589728085089
 21
1.4676258992804481
 31
0.0
  0
LINE
  5
139
  8
1
 62
     7
 10
-504.81589728085089
 20
-7.1823741007195849
 30
0.0
 11
-490.01589728085082
 21
-7.1823741007195849
 31
0.0
  0
LINE
  5
13A
  8
1
 62
     7
 10
-492.01589728085088
 20
-33.032374100719551
 30
0.0
 11
-462.31589728085089
 21
-33.032374100719551
 31
0.0
  0
LINE
  5
13B
  8
1
 62
     7
 10
-479.01589728085088
 20
-43.182374100719592
 30
0.0
 11
-492.01589728085088
 21
-43.182374100719592
 31
0.0
  0
LINE
  5
13C
  8
1
 62
     7
 10
-492.01589728085088
 20
-43.182374100719592
 30
0.0
 11
-492.01589728085088
 21
-33.032374100719551
 31
0.0
  0
LINE
  5
13D
  8
1
 62
     7
 10
-490.01589728085082
 20
-33.032374100719551
 30
0.0
 11
-490.01589728085082
 21
-7.1823741007195849
 31
0.0
  0
LINE
  5
13E
  8
1
 62
     7
 10
-490.01589728085082
 20
-22.032374100719551
 30
0.0
 11
-462.31589728085089
 21
-22.032374100719551
 31
0.0
  0
LINE
  5
13F
  8
1
 62
     7
 10
-545.81589728085089
 20
2.4676258992804492
 30
0.0
 11
-548.31589728085078
 21
2.4676258992804492
 31
0.0
  0
LINE
  5
140
  8
1
 62
     7
 10
-548.31589728085078
 20
2.4676258992804492
 30
0.0
 11
-548.31589728085078
 21
9.4676258992804474
 31
0.0
  0
LINE
  5
141
  8
1
 62
     7
 10
-548.31589728085078
 20
9.4676258992804474
 30
0.0
 11
-545.81589728085089
 21
9.4676258992804474
 31
0.0
  0
LINE
  5
142
  8
1
 62
     7
 10
-505.01589728085088
 20
6.4676258992804492
 30
0.0
 11
-505.01589728085088
 21
7.9676258992804492
 31
0.0
  0
LINE
  5
143
  8
1
 62
     7
 10
-548.31589728085078
 20
7.9676258992804492
 30
0.0
 11
-555.81589728085089
 21
7.9676258992805611
 31
0.0
  0
LINE
  5
144
  8
1
 62
     7
 10
-555.81589728085089
 20
7.9676258992805611
 30
0.0
 11
-555.81589728085089
 21
82.967625899280549
 31
0.0
  0
LINE
  5
145
  8
1
 62
     7
 10
-453.31589728085078
 20
-43.532374100719537
 30
0.0
 11
-462.31589728085089
 21
-43.532374100719537
 31
0.0
  0
LINE
  5
146
  8
1
 62
     7
 10
-452.31589728085078
 20
-8.5323741007195508
 30
0.0
 11
-453.31589728085078
 21
-8.5323741007195508
 31
0.0
  0
LINE
  5
147
  8
1
 62
     7
 10
-454.31589728085089
 20
2.5676258992804151
 30
0.0
 11
-479.01589728085088
 21
2.5676258992804151
 31
0.0
  0
LINE
  5
148
  8
1
 62
     7
 10
-454.31589728085089
 20
-7.5323741007195499
 30
0.0
 11
-454.31589728085089
 21
-4.7823741007195499
 31
0.0
  0
LINE
  5
149
  8
1
 62
     7
 10
-462.31589728085089
 20
2.5676258992804151
 30
0.0
 11
-462.31589728085089
 21
-43.532374100719537
 31
0.0
  0
LINE
  5
14A
  8
1
 62
     7
 10
-450.31589728085089
 20
-40.532374100719537
 30
0.0
 11
-450.31589728085089
 21
-10.532374100719551
 31
0.0
  0
LINE
  5
14B
  8
1
 62
     7
 10
-450.31589728085089
 20
-10.532374100719551
 30
0.0
 11
-452.31589728085078
 21
-8.5323741007195508
 31
0.0
  0
LINE
  5
14C
  8
1
 62
     7
 10
-452.31589728085078
 20
-8.5323741007195508
 30
0.0
 11
-452.31589728085078
 21
-5.8262468777291474
 31
0.0
  0
LINE
  5
14D
  8
1
 62
     7
 10
-450.31589728085089
 20
-10.532374100719551
 30
0.0
 11
-450.31589728085089
 21
-2.5323741007195499
 31
0.0
  0
LINE
  5
14E
  8
1
 62
     7
 10
-450.31589728085089
 20
-40.532374100719537
 30
0.0
 11
-453.31589728085078
 21
-43.532374100719537
 31
0.0
  0
LINE
  5
14F
  8
1
 62
     7
 10
-479.01589728085082
 20
-52.03237410071943
 30
0.0
 11
-479.01589728085088
 21
-43.182374100719592
 31
0.0
  0
LINE
  5
150
  8
1
 62
     7
 10
-462.31589728085089
 20
-52.03237410071943
 30
0.0
 11
-462.31589728085089
 21
-43.532374100719537
 31
0.0
  0
LINE
  5
151
  8
1
 62
     7
 10
-462.31589728085089
 20
-52.03237410071943
 30
0.0
 11
-479.01589728085082
 21
-52.03237410071943
 31
0.0
  0
LINE
  5
152
  8
1
 62
     3
 10
-462.31589728085089
 20
2.5676258992804151
 30
0.0
 11
-479.01589728085082
 21
-52.03237410071943
 31
0.0
  0
LINE
  5
153
  8
1
 62
     3
 10
-462.31589728085089
 20
-52.03237410071943
 30
0.0
 11
-479.01589728085088
 21
2.5676258992804151
 31
0.0
  0
LINE
  5
154
  8
1
 62
     7
 10
-489.51589728085082
 20
-52.032374100719537
 30
0.0
 11
-543.81589728085078
 21
-52.032374100719537
 31
0.0
  0
LINE
  5
155
  8
1
 62
     7
 10
-505.81589728085089
 20
-7.5323741007195499
 30
0.0
 11
-492.01589728085088
 21
-7.5323741007195499
 31
0.0
  0
LINE
  5
156
  8
1
 62
     7
 10
-492.01589728085088
 20
-21.532374100719551
 30
0.0
 11
-492.01589728085088
 21
-7.5323741007195499
 31
0.0
  0
LINE
  5
157
  8
1
 62
     7
 10
-482.01589728085082
 20
-44.532374100719537
 30
0.0
 11
-482.01589728085082
 21
-43.532374100719537
 31
0.0
  0
LINE
  5
158
  8
1
 62
     7
 10
-492.01589728085088
 20
-21.532374100719551
 30
0.0
 11
-492.51589728085088
 21
-22.032374100719551
 31
0.0
  0
LINE
  5
159
  8
1
 62
     7
 10
-482.01589728085082
 20
-44.532374100719537
 30
0.0
 11
-489.51589728085082
 21
-52.032374100719537
 31
0.0
  0
LINE
  5
15A
  8
1
 62
     7
 10
-494.01589728085082
 20
-43.532374100719537
 30
0.0
 11
-494.01589728085082
 21
-22.032374100719551
 31
0.0
  0
LINE
  5
15B
  8
1
 62
     7
 10
-554.81589728085089
 20
-25.032374100719551
 30
0.0
 11
-554.81589728085089
 21
2.6588129496401511
 31
0.0
  0
LINE
  5
15C
  8
1
 62
     7
 10
-543.81589728085078
 20
-25.032374100719551
 30
0.0
 11
-554.81589728085089
 21
-25.032374100719551
 31
0.0
  0
LINE
  5
15D
  8
1
 62
     7
 10
-512.6552011549951
 20
3.0676258992804151
 30
0.0
 11
-505.81589728085089
 21
3.0676258992804151
 31
0.0
  0
LINE
  5
15E
  8
1
 62
     7
 10
-512.6552011549951
 20
-7.1323741007195736
 30
0.0
 11
-505.81589728085089
 21
-7.1323741007195736
 31
0.0
  0
LINE
  5
15F
  8
1
 62
     3
 10
-522.81589728085078
 20
-2.0323741007195508
 30
0.0
 11
-508.81589728085089
 21
-2.0323741007195508
 31
0.0
  0
LINE
  5
160
  8
1
 62
     3
 10
-515.81589728085078
 20
-9.0323741007195526
 30
0.0
 11
-515.81589728085078
 21
4.9676258992804492
 31
0.0
  0
LINE
  5
161
  8
1
 62
     7
 10
-532.65520115499498
 20
3.0676258992804151
 30
0.0
 11
-518.97659340670668
 21
3.0676258992804151
 31
0.0
  0
LINE
  5
162
  8
1
 62
     7
 10
-538.97659340670668
 20
3.0676258992804151
 30
0.0
 11
-545.81589728085089
 21
3.0676258992804151
 31
0.0
  0
LINE
  5
163
  8
1
 62
     7
 10
-532.65520115499498
 20
-7.1323741007195736
 30
0.0
 11
-518.97659340670668
 21
-7.1323741007195736
 31
0.0
  0
LINE
  5
164
  8
1
 62
     7
 10
-538.97659340670668
 20
-7.1323741007195736
 30
0.0
 11
-545.81589728085089
 21
-7.1323741007195736
 31
0.0
  0
LINE
  5
165
  8
1
 62
     3
 10
-542.81589728085089
 20
-2.0323741007195508
 30
0.0
 11
-528.81589728085089
 21
-2.0323741007195508
 31
0.0
  0
LINE
  5
166
  8
1
 62
     3
 10
-535.81589728085078
 20
-9.0323741007195526
 30
0.0
 11
-535.81589728085078
 21
4.9676258992804492
 31
0.0
  0
LINE
  5
167
  8
1
 62
     7
 10
-549.81589728085089
 20
-14.03237410071954
 30
0.0
 11
-545.81589728085089
 21
-14.03237410071954
 31
0.0
  0
LINE
  5
168
  8
1
 62
     7
 10
-545.81589728085089
 20
-4.5323741007195499
 30
0.0
 11
-549.81589728085089
 21
-4.5323741007195499
 31
0.0
  0
LINE
  5
169
  8
1
 62
     7
 10
-549.81589728085089
 20
0.5765562662107869
 30
0.0
 11
-549.81589728085089
 21
-14.03237410071954
 31
0.0
  0
LINE
  5
16A
  8
1
 62
     7
 10
-554.81589728085089
 20
-12.03237410071954
 30
0.0
 11
-549.81589728085089
 21
-12.03237410071954
 31
0.0
  0
LINE
  5
16B
  8
1
 62
     7
 10
-494.01589728085082
 20
-22.032374100719551
 30
0.0
 11
-492.51589728085088
 21
-22.032374100719551
 31
0.0
  0
LINE
  5
16C
  8
1
 62
     7
 10
-494.01589728085082
 20
-43.532374100719537
 30
0.0
 11
-482.01589728085082
 21
-43.532374100719537
 31
0.0
  0
LINE
  5
16D
  8
1
 62
     7
 10
-505.81589728085089
 20
7.9676258992804492
 30
0.0
 11
-545.81589728085089
 21
7.9676258992804492
 31
0.0
  0
LINE
  5
16E
  8
1
 62
     7
 10
-545.81589728085089
 20
-12.03237410071954
 30
0.0
 11
-505.81589728085089
 21
-12.03237410071954
 31
0.0
  0
LINE
  5
16F
  8
1
 62
     7
 10
-545.81589728085089
 20
9.4676258992804474
 30
0.0
 11
-545.81589728085089
 21
-14.03237410071954
 31
0.0
  0
LINE
  5
170
  8
1
 62
     7
 10
-525.81589728085089
 20
7.9676258992804492
 30
0.0
 11
-525.81589728085089
 21
-12.03237410071954
 31
0.0
  0
LINE
  5
171
  8
1
 62
     7
 10
-505.81589728085089
 20
7.9676258992804492
 30
0.0
 11
-505.81589728085089
 21
-12.03237410071954
 31
0.0
  0
LINE
  5
172
  8
1
 62
     7
 10
-550.07740469651958
 20
190.46762589928051
 30
0.0
 11
-553.81589728085089
 21
190.46762589928051
 31
0.0
  0
LINE
  5
173
  8
1
 62
     7
 10
-547.44740469651958
 20
131.7826258992805
 30
0.0
 11
-547.44740469651958
 21
215.08031632467279
 31
0.0
  0
LINE
  5
174
  8
1
 62
     7
 10
-544.44740469651958
 20
126.15262589928049
 30
0.0
 11
-543.81589728085078
 21
126.15262589928049
 31
0.0
  0
LINE
  5
175
  8
1
 62
     7
 10
-544.44740469651958
 20
128.7826258992805
 30
0.0
 11
-543.81589728085078
 21
128.7826258992805
 31
0.0
  0
LINE
  5
176
  8
1
 62
     7
 10
-551.81589728085078
 20
190.46762589928051
 30
0.0
 11
-551.81589728085078
 21
119.46762589928051
 31
0.0
  0
LINE
  5
177
  8
1
 62
     7
 10
-553.81589728085089
 20
119.46762589928051
 30
0.0
 11
-543.81589728085078
 21
119.46762589928051
 31
0.0
  0
LINE
  5
178
  8
1
 62
     7
 10
-543.81589728085078
 20
190.46762589928051
 30
0.0
 11
-547.44740469651958
 21
190.46762589928051
 31
0.0
  0
LINE
  5
179
  8
1
 62
     7
 10
-553.81589728085089
 20
119.46762589928051
 30
0.0
 11
-553.81589728085089
 21
190.46762589928051
 31
0.0
  0
LINE
  5
17A
  8
1
 62
     7
 10
-550.07740469651958
 20
215.08031632467279
 30
0.0
 11
-547.44740469651958
 21
215.08031632467279
 31
0.0
  0
LINE
  5
17B
  8
1
 62
     7
 10
-550.07740469651958
 20
215.08031632467279
 30
0.0
 11
-550.07740469651958
 21
131.7826258992805
 31
0.0
  0
LINE
  5
17C
  8
1
 62
     7
 10
-548.76240469651964
 20
215.08031632467279
 30
0.0
 11
-548.76240469651964
 21
220.08031632467279
 31
0.0
  0
LINE
  5
17D
  8
1
 62
     7
 10
-549.49652365161364
 20
215.08031632467279
 30
0.0
 11
-549.49652365161364
 21
220.08031632467279
 31
0.0
  0
LINE
  5
17E
  8
1
 62
     7
 10
-547.95857289318064
 20
215.08031632467279
 30
0.0
 11
-547.95857289318064
 21
220.08031632467279
 31
0.0
  0
LINE
  5
17F
  8
1
 62
     7
 10
-548.34306058278855
 20
215.08031632467279
 30
0.0
 11
-548.34306058278855
 21
220.08031632467279
 31
0.0
  0
LINE
  5
180
  8
1
 62
     7
 10
-549.16970911544661
 20
215.08031632467279
 30
0.0
 11
-549.16970911544661
 21
220.08031632467279
 31
0.0
  0
LINE
  5
181
  8
1
 62
     7
 10
-543.81589728085078
 20
190.46762589928051
 30
0.0
 11
-543.81589728085078
 21
115.96762589928061
 31
0.0
  0
LINE
  5
182
  8
1
 62
     7
 10
-760.31589728085078
 20
45.46762589928057
 30
0.0
 11
-760.31589728085078
 21
82.967625899280449
 31
0.0
  0
LINE
  5
183
  8
1
 62
     7
 10
-653.31589728085078
 20
45.46762589928057
 30
0.0
 11
-653.31589728085078
 21
89.467625899280449
 31
0.0
  0
LINE
  5
184
  8
1
 62
     7
 10
-694.01589728085082
 20
142.96762589928039
 30
0.0
 11
-748.31589728085066
 21
142.96762589928039
 31
0.0
  0
LINE
  5
185
  8
1
 62
     7
 10
-748.31589728085066
 20
115.96762589928061
 30
0.0
 11
-759.31589728085078
 21
115.96762589928061
 31
0.0
  0
LINE
  5
186
  8
1
 62
     7
 10
-748.31589728085066
 20
45.467625899280613
 30
0.0
 11
-748.31589728085066
 21
142.96762589928039
 31
0.0
  0
LINE
  5
187
  8
1
 62
     7
 10
-759.31589728085078
 20
45.467625899280563
 30
0.0
 11
-759.31589728085078
 21
115.96762589928061
 31
0.0
  0
LINE
  5
188
  8
1
 62
     7
 10
-653.31589728085078
 20
89.467625899280449
 30
0.0
 11
-654.81589728085089
 21
89.467625899280449
 31
0.0
  0
LINE
  5
189
  8
1
 62
     7
 10
-654.81589728085089
 20
131.46762589928039
 30
0.0
 11
-654.81589728085089
 21
45.467625899280563
 31
0.0
  0
LINE
  5
18A
  8
1
 62
     3
 10
-683.51589728085094
 20
45.467625899280563
 30
0.0
 11
-666.81589728085089
 21
142.96762589928059
 31
0.0
  0
LINE
  5
18B
  8
1
 62
     3
 10
-666.81589728085089
 20
45.467625899280563
 30
0.0
 11
-683.51589728085094
 21
142.96762589928039
 31
0.0
  0
LINE
  5
18C
  8
1
 62
     7
 10
-683.51589728085094
 20
142.96762589928039
 30
0.0
 11
-683.51589728085094
 21
134.1176258992804
 31
0.0
  0
LINE
  5
18D
  8
1
 62
     7
 10
-666.81589728085089
 20
142.96762589928059
 30
0.0
 11
-683.51589728085094
 21
142.96762589928039
 31
0.0
  0
LINE
  5
18E
  8
1
 62
     7
 10
-666.81589728085089
 20
45.467625899280563
 30
0.0
 11
-666.81589728085089
 21
142.96762589928059
 31
0.0
  0
LINE
  5
18F
  8
1
 62
     7
 10
-683.51589728085094
 20
134.1176258992804
 30
0.0
 11
-686.51589728085094
 21
134.1176258992804
 31
0.0
  0
LINE
  5
190
  8
1
 62
     7
 10
-683.51589728085094
 20
45.467625899280563
 30
0.0
 11
-683.51589728085094
 21
134.1176258992804
 31
0.0
  0
LINE
  5
191
  8
1
 62
     7
 10
-760.31589728085078
 20
82.967625899280449
 30
0.0
 11
-759.31589728085078
 21
82.967625899280449
 31
0.0
  0
LINE
  5
192
  8
1
 62
     7
 10
-694.01589728085082
 20
142.96762589928039
 30
0.0
 11
-694.01589728085082
 21
45.467625899280563
 31
0.0
  0
LINE
  5
193
  8
1
 62
     7
 10
-686.51589728085094
 20
135.46762589928039
 30
0.0
 11
-686.51589728085094
 21
45.467625899280563
 31
0.0
  0
LINE
  5
194
  8
1
 62
     7
 10
-694.01589728085082
 20
142.96762589928039
 30
0.0
 11
-686.51589728085094
 21
135.46762589928039
 31
0.0
  0
LINE
  5
195
  8
1
 62
     7
 10
-666.81589728085089
 20
134.46762589928039
 30
0.0
 11
-657.81589728085089
 21
134.46762589928039
 31
0.0
  0
LINE
  5
196
  8
1
 62
     7
 10
-657.81589728085089
 20
134.46762589928039
 30
0.0
 11
-654.81589728085089
 21
131.46762589928039
 31
0.0
  0
LINE
  5
197
  8
1
 62
     7
 10
-666.81589728085089
 20
134.46762589928039
 30
0.0
 11
-657.81589728085089
 21
134.46762589928039
 31
0.0
  0
LINE
  5
198
  8
1
 62
     7
 10
-543.81589728085078
 20
-25.032374100719551
 30
0.0
 11
-543.81589728085078
 21
-52.032374100719537
 31
0.0
  0
LINE
  5
199
  8
1
 62
     7
 10
-698.51589728085082
 20
134.46762589928051
 30
0.0
 11
-734.31589728085078
 21
112.96762589928051
 31
0.0
  0
LINE
  5
19A
  8
1
 62
     7
 10
-698.51589728085082
 20
112.96762589928051
 30
0.0
 11
-734.31589728085078
 21
112.96762589928051
 31
0.0
  0
LINE
  5
19B
  8
1
 62
     7
 10
-734.315897280851
 20
134.46762589928051
 30
0.0
 11
-698.51589728085082
 21
112.96762589928051
 31
0.0
  0
LINE
  5
19C
  8
1
 62
     7
 10
-734.31589728085078
 20
112.96762589928051
 30
0.0
 11
-734.315897280851
 21
134.46762589928051
 31
0.0
  0
LINE
  5
19D
  8
1
 62
     7
 10
-698.51589728085082
 20
134.46762589928051
 30
0.0
 11
-734.315897280851
 21
134.46762589928051
 31
0.0
  0
LINE
  5
19E
  8
1
 62
     7
 10
-529.81589728085089
 20
-22.032374100719551
 30
0.0
 11
-494.01589728085082
 21
-43.532374100719537
 31
0.0
  0
LINE
  5
19F
  8
1
 62
     7
 10
-529.81589728085089
 20
-22.032374100719551
 30
0.0
 11
-494.01589728085082
 21
-22.032374100719551
 31
0.0
  0
LINE
  5
1A0
  8
1
 62
     7
 10
-494.01589728085082
 20
-22.032374100719551
 30
0.0
 11
-529.815897280851
 21
-43.532374100719537
 31
0.0
  0
LINE
  5
1A1
  8
1
 62
     7
 10
-529.815897280851
 20
-43.532374100719537
 30
0.0
 11
-529.81589728085089
 21
-22.032374100719551
 31
0.0
  0
LINE
  5
1A2
  8
1
 62
     7
 10
-529.815897280851
 20
-43.532374100719537
 30
0.0
 11
-494.01589728085082
 21
-43.532374100719537
 31
0.0
  0
ARC
  5
1A3
  8
1
 62
     7
 10
-955.31589728085066
 20
45.46762589928057
 30
0.0
 40
30.0
 50
107.45760312372209
 51
72.542396876277905
  0
ARC
  5
1A4
  8
1
 62
     7
 10
-955.31589728085066
 20
45.46762589928057
 30
0.0
 40
73.773081834763559
 50
77.075975855187721
 51
102.92402414481219
  0
ARC
  5
1A5
  8
1
 62
     7
 10
-974.31589728085055
 20
129.11813812490919
 30
0.0
 40
5.0000000000000009
 50
104.0985072708109
 51
180.0
  0
ARC
  5
1A6
  8
1
 62
     7
 10
-973.31589728085066
 20
123.1813261310139
 30
0.0
 40
6.0
 50
180.0
 51
284.4775121859293
  0
ARC
  5
1A7
  8
1
 62
     7
 10
-970.31589728085066
 20
140.17979344224989
 30
0.0
 40
4.9999999999999432
 50
279.81424833293403
 51
0.0
  0
ARC
  5
1A8
  8
1
 62
     7
 10
-936.31589728085055
 20
129.11813812490919
 30
0.0
 40
5.0
 50
0.0
 51
75.90149272918913
  0
ARC
  5
1A9
  8
1
 62
     7
 10
-937.31589728085066
 20
123.1813261310139
 30
0.0
 40
6.0000000000000799
 50
255.5224878140703
 51
0.0
  0
ARC
  5
1AA
  8
1
 62
     7
 10
-940.31589728085055
 20
140.17979344224989
 30
0.0
 40
5.0
 50
180.0
 51
260.18575166706842
  0
ARC
  5
1AB
  8
1
 62
     7
 10
-253.81589728085089
 20
45.46762589928057
 30
0.0
 40
29.999999999999989
 50
107.45760312372209
 51
72.542396876277905
  0
ARC
  5
1AC
  8
1
 62
     7
 10
-955.31589728085123
 20
53.467625899283277
 30
0.0
 40
82.999999999997215
 50
99.814248332932422
 51
104.09850727081231
  0
ARC
  5
1AD
  8
1
 62
     7
 10
-955.31589728085123
 20
53.467625899283277
 30
0.0
 40
82.999999999997357
 50
75.901492729187282
 51
80.185751667067024
  0
ARC
  5
1AE
  8
1
 62
     7
 10
-955.31589728085066
 20
45.46762589928057
 30
0.0
 40
97.5
 50
95.886842138707706
 51
84.113157861292265
  0
ARC
  5
1AF
  8
1
 62
     7
 10
-955.31589728085066
 20
45.46762589928057
 30
0.0
 40
90.0
 50
104.546762853209
 51
75.453237146790968
  0
ARC
  5
1B0
  8
1
 62
     7
 10
-544.44740469651958
 20
131.7826258992805
 30
0.0
 40
5.6299999999999963
 50
180.0
 51
270.0
  0
ARC
  5
1B1
  8
1
 62
     7
 10
-544.44740469651958
 20
131.7826258992805
 30
0.0
 40
3.0
 50
180.0
 51
270.0
  0
CIRCLE
  5
1B2
  8
1
 62
     7
 10
-253.81589728085089
 20
45.46762589928057
 30
0.0
 40
47.399999999999977
  0
CIRCLE
  5
1B3
  8
1
 62
     7
 10
-253.81589728085089
 20
45.46762589928057
 30
0.0
 40
54.0
  0
CIRCLE
  5
1B4
  8
1
 62
     7
 10
-253.81589728085089
 20
45.46762589928057
 30
0.0
 40
86.0
  0
CIRCLE
  5
1B5
  8
1
 62
     7
 10
-253.81589728085089
 20
45.46762589928057
 30
0.0
 40
89.0
  0
CIRCLE
  5
1B6
  8
1
 62
     7
 10
-253.81589728085089
 20
45.46762589928057
 30
0.0
 40
97.5
  0
CIRCLE
  5
1B7
  8
1
 62
     7
 10
-972.31589728085066
 20
125.46762589928051
 30
0.0
 40
4.25
  0
CIRCLE
  5
1B8
  8
1
 62
     7
 10
-938.31589728085066
 20
125.46762589928051
 30
0.0
 40
4.25
  0
CIRCLE
  5
1B9
  8
1
 62
     7
 10
-955.31589728085066
 20
45.46762589928057
 30
0.0
 40
37.5
  0
CIRCLE
  5
1BA
  8
1
 62
     7
 10
-955.31589728085066
 20
45.46762589928057
 30
0.0
 40
57.5
  0
CIRCLE
  5
1BB
  8
1
 62
     7
 10
-955.31589728085066
 20
45.46762589928057
 30
0.0
 40
70.5
  0
CIRCLE
  5
1BC
  8
1
 62
     7
 10
-515.81589728085078
 20
92.967625899280549
 30
0.0
 40
6.0
  0
CIRCLE
  5
1BD
  8
1
 62
     7
 10
-535.81589728085078
 20
92.967625899280549
 30
0.0
 40
6.0
  0
CIRCLE
  5
1BE
  8
1
 62
     7
 10
-515.81589728085078
 20
-2.0323741007195508
 30
0.0
 40
6.0
  0
CIRCLE
  5
1BF
  8
1
 62
     7
 10
-535.81589728085078
 20
-2.0323741007195508
 30
0.0
 40
6.0
  0
POLYLINE
  5
1C0
  8
1
 62
     7
 66
     1
 10
0.0
 20
0.0
 30
0.0
  0
VERTEX
  5
1EF
  8
1
 62
     7
 10
-751.01681726313677
 20
197.0075564478509
 30
0.0
 42
0.0045369072219797
  0
VERTEX
  5
1F0
  8
1
 62
     7
 10
-751.14685828831955
 20
197.2227575617668
 30
0.0
 42
0.0146270367022755
  0
VERTEX
  5
1F1
  8
1
 62
     7
 10
-751.27775441939104
 20
197.4217288490627
 30
0.0
 42
0.0307061797158218
  0
VERTEX
  5
1F2
  8
1
 62
     7
 10
-751.41036076224043
 20
197.588240483118
 30
0.0
 42
0.0600448453960608
  0
VERTEX
  5
1F3
  8
1
 62
     7
 10
-751.5455324227562
 20
197.70606263731301
 30
0.0
 42
0.1166939317811178
  0
VERTEX
  5
1F4
  8
1
 62
     7
 10
-751.68412450682752
 20
197.75896548502729
 30
0.0
 42
0.2666518794679095
  0
VERTEX
  5
1F5
  8
1
 62
     7
 10
-751.98937353238682
 20
197.6338949715541
 30
0.0
 42
0.0491502545078137
  0
VERTEX
  5
1F6
  8
1
 62
     7
 10
-752.30836539517122
 20
197.2905440860736
 30
0.0
 42
-0.001032375224126
  0
VERTEX
  5
1F7
  8
1
 62
     7
 10
-752.6358110160686
 20
196.8718563780065
 30
0.0
 42
-0.0497608328335806
  0
VERTEX
  5
1F8
  8
1
 62
     7
 10
-752.96642131596695
 20
196.5207753967731
 30
0.0
 42
-0.1812617289712195
  0
VERTEX
  5
1F9
  8
1
 62
     7
 10
-753.2949072157536
 20
196.38024469179399
 30
0.0
 42
-0.1039335751700582
  0
VERTEX
  5
1FA
  8
1
 62
     7
 10
-753.44109928328214
 20
196.41939880282709
 30
0.0
 42
-0.0610195421300042
  0
VERTEX
  5
1FB
  8
1
 62
     7
 10
-753.58608464544261
 20
196.51609174064581
 30
0.0
 42
-0.0328140873218483
  0
VERTEX
  5
1FC
  8
1
 62
     7
 10
-753.73016497857725
 20
196.65593879855351
 30
0.0
 42
-0.0161839578651093
  0
VERTEX
  5
1FD
  8
1
 62
     7
 10
-753.87364195902808
 20
196.82455526985399
 30
0.0
 42
-0.0048964455631699
  0
VERTEX
  5
1FE
  8
1
 62
     7
 10
-754.01681726313689
 20
197.0075564478509
 30
0.0
  0
SEQEND
  5
1FF
  8
1
 62
     7
  0
POLYLINE
  5
1D2
  8
1
 62
     7
 66
     1
 10
0.0
 20
0.0
 30
0.0
  0
VERTEX
  5
200
  8
1
 62
     7
 10
-751.01681726313677
 20
195.91654324454731
 30
0.0
 42
0.0045369072219229
  0
VERTEX
  5
201
  8
1
 62
     7
 10
-751.14685828831955
 20
196.1317443584631
 30
0.0
 42
0.0146270367023688
  0
VERTEX
  5
202
  8
1
 62
     7
 10
-751.27775441939104
 20
196.3307156457588
 30
0.0
 42
0.030706179715458
  0
VERTEX
  5
203
  8
1
 62
     7
 10
-751.41036076224032
 20
196.49722727981441
 30
0.0
 42
0.0600448453969131
  0
VERTEX
  5
204
  8
1
 62
     7
 10
-751.5455324227562
 20
196.61504943400931
 30
0.0
 42
0.1166939317799897
  0
VERTEX
  5
205
  8
1
 62
     7
 10
-751.68412450682752
 20
196.6679522817235
 30
0.0
 42
0.2666518794691418
  0
VERTEX
  5
206
  8
1
 62
     7
 10
-751.98937353238682
 20
196.54288176825031
 30
0.0
 42
0.0491502545077307
  0
VERTEX
  5
207
  8
1
 62
     7
 10
-752.30836539517122
 20
196.19953088276981
 30
0.0
 42
-0.0010323752241919
  0
VERTEX
  5
208
  8
1
 62
     7
 10
-752.6358110160686
 20
195.78084317470271
 30
0.0
 42
-0.0497608328335715
  0
VERTEX
  5
209
  8
1
 62
     7
 10
-752.96642131596695
 20
195.4297621934694
 30
0.0
 42
-0.1812617289712195
  0
VERTEX
  5
20A
  8
1
 62
     7
 10
-753.2949072157536
 20
195.28923148849009
 30
0.0
 42
-0.1039335751700582
  0
VERTEX
  5
20B
  8
1
 62
     7
 10
-753.44109928328214
 20
195.3283855995233
 30
0.0
 42
-0.0610195421298483
  0
VERTEX
  5
20C
  8
1
 62
     7
 10
-753.58608464544261
 20
195.4250785373419
 30
0.0
 42
-0.0328140873217329
  0
VERTEX
  5
20D
  8
1
 62
     7
 10
-753.73016497857725
 20
195.5649255952498
 30
0.0
 42
-0.0161839578651862
  0
VERTEX
  5
20E
  8
1
 62
     7
 10
-753.87364195902808
 20
195.73354206655031
 30
0.0
 42
-0.0048964455632434
  0
VERTEX
  5
20F
  8
1
 62
     7
 10
-754.01681726313689
 20
195.91654324454731
 30
0.0
  0
SEQEND
  5
210
  8
1
 62
     7
  0
ARC
  5
1E4
  8
1
 62
     7
 10
-453.31589728085078
 20
98.467625899280563
 30
0.0
 40
1.0
 50
90.0
 51
180.0
  0
ARC
  5
1E5
  8
1
 62
     7
 10
-453.31589728085078
 20
-7.5323741007195499
 30
0.0
 40
1.0
 50
180.0
 51
270.0
  0
TEXT
  5
1E7
  8
1
 62
     7
 10
-1053.6625744998601
 20
297.77442615308792
 30
0.0
 40
10.0
  1
MWC 40
 41
0.9
  7
SIMPLEX
  0
ENDSEC
  0
EOF
