  0
SECTION
  2
HEADER
  9
$ACADVER
  1
AC1009
  9
$INSBASE
 10
0.0
 20
0.0
 30
0.0
  9
$EXTMIN
 10
-2604.5326729705898
 20
-315.82523342813857
 30
0.0
  9
$EXTMAX
 10
-794.49269595464978
 20
369.68812228305688
 30
0.0
  9
$LIMMIN
 10
-2604.5326729705898
 20
-308.74190796724349
  9
$LIMMAX
 10
-794.49269595465
 20
369.68812228305688
  9
$ORTHOMODE
 70
     0
  9
$REGENMODE
 70
     1
  9
$FILLMODE
 70
     1
  9
$QTEXTMODE
 70
     0
  9
$MIRRTEXT
 70
     1
  9
$DRAGMODE
 70
     2
  9
$LTSCALE
 40
1.0
  9
$OSMODE
 70
    37
  9
$ATTMODE
 70
     1
  9
$TEXTSIZE
 40
3.5
  9
$TRACEWID
 40
0.5
  9
$TEXTSTYLE
  7
STANDARD
  9
$CLAYER
  8
0
  9
$CELTYPE
  6
BYLAYER
  9
$CECOLOR
 62
   256
  9
$DIMSCALE
 40
1.0
  9
$DIMASZ
 40
0.18
  9
$DIMEXO
 40
0.0625
  9
$DIMDLI
 40
0.38
  9
$DIMRND
 40
0.0
  9
$DIMDLE
 40
0.0
  9
$DIMEXE
 40
0.18
  9
$DIMTP
 40
0.0
  9
$DIMTM
 40
0.0
  9
$DIMTXT
 40
0.18
  9
$DIMCEN
 40
0.09
  9
$DIMTSZ
 40
0.0
  9
$DIMTOL
 70
     0
  9
$DIMLIM
 70
     0
  9
$DIMTIH
 70
     1
  9
$DIMTOH
 70
     1
  9
$DIMSE1
 70
     0
  9
$DIMSE2
 70
     0
  9
$DIMTAD
 70
     0
  9
$DIMZIN
 70
     0
  9
$DIMBLK
  1

  9
$DIMASO
 70
     1
  9
$DIMSHO
 70
     1
  9
$DIMPOST
  1

  9
$DIMAPOST
  1

  9
$DIMALT
 70
     0
  9
$DIMALTD
 70
     2
  9
$DIMALTF
 40
25.399999999999999
  9
$DIMLFAC
 40
1.0
  9
$DIMTOFL
 70
     0
  9
$DIMTVP
 40
0.0
  9
$DIMTIX
 70
     0
  9
$DIMSOXD
 70
     0
  9
$DIMSAH
 70
     0
  9
$DIMBLK1
  1

  9
$DIMBLK2
  1

  9
$DIMSTYLE
  2
STANDARD
  9
$DIMCLRD
 70
     0
  9
$DIMCLRE
 70
     0
  9
$DIMCLRT
 70
     0
  9
$DIMTFAC
 40
1.0
  9
$DIMGAP
 40
0.09
  9
$LUNITS
 70
     2
  9
$LUPREC
 70
     4
  9
$SKETCHINC
 40
0.1
  9
$FILLETRAD
 40
2.0
  9
$AUNITS
 70
     0
  9
$AUPREC
 70
     0
  9
$MENU
  1
ACAD
  9
$ELEVATION
 40
0.0
  9
$PELEVATION
 40
0.0
  9
$THICKNESS
 40
0.0
  9
$LIMCHECK
 70
     0
  9
$BLIPMODE
 70
     0
  9
$CHAMFERA
 40
0.0
  9
$CHAMFERB
 40
0.0
  9
$SKPOLY
 70
     0
  9
$TDCREATE
 40
2452095.0506731481
  9
$TDUPDATE
 40
2452095.0512625002
  9
$TDINDWG
 40
0.0006141204
  9
$TDUSRTIMER
 40
0.0006141204
  9
$USRTIMER
 70
     1
  9
$ANGBASE
 50
0.0
  9
$ANGDIR
 70
     0
  9
$PDMODE
 70
     0
  9
$PDSIZE
 40
0.0
  9
$PLINEWID
 40
0.0
  9
$COORDS
 70
     1
  9
$SPLFRAME
 70
     0
  9
$SPLINETYPE
 70
     6
  9
$SPLINESEGS
 70
     8
  9
$ATTDIA
 70
     0
  9
$ATTREQ
 70
     1
  9
$HANDLING
 70
 10241
  9
$HANDSEED
  5
1E6
  9
$SURFTAB1
 70
     6
  9
$SURFTAB2
 70
     6
  9
$SURFTYPE
 70
     6
  9
$SURFU
 70
     6
  9
$SURFV
 70
     6
  9
$UCSNAME
  2

  9
$UCSORG
 10
0.0
 20
0.0
 30
0.0
  9
$UCSXDIR
 10
1.0
 20
0.0
 30
0.0
  9
$UCSYDIR
 10
0.0
 20
1.0
 30
0.0
  9
$PUCSNAME
  2

  9
$PUCSORG
 10
0.0
 20
0.0
 30
0.0
  9
$PUCSXDIR
 10
1.0
 20
0.0
 30
0.0
  9
$PUCSYDIR
 10
0.0
 20
1.0
 30
0.0
  9
$USERI1
 70
     0
  9
$USERI2
 70
     0
  9
$USERI3
 70
     0
  9
$USERI4
 70
     0
  9
$USERI5
 70
     0
  9
$USERR1
 40
0.0
  9
$USERR2
 40
0.0
  9
$USERR3
 40
0.0
  9
$USERR4
 40
0.0
  9
$USERR5
 40
0.0
  9
$WORLDVIEW
 70
     1
  9
$SHADEDGE
 70
     3
  9
$SHADEDIF
 70
    70
  9
$TILEMODE
 70
     1
  9
$MAXACTVP
 70
    64
  9
$PLIMCHECK
 70
     0
  9
$PEXTMIN
 10
1.0000000000000000E+020
 20
1.0000000000000000E+020
 30
1.0000000000000000E+020
  9
$PEXTMAX
 10
-1.0000000000000000E+020
 20
-1.0000000000000000E+020
 30
-1.0000000000000000E+020
  9
$PLIMMIN
 10
0.0
 20
0.0
  9
$PLIMMAX
 10
12.0
 20
9.0
  9
$UNITMODE
 70
     0
  9
$VISRETAIN
 70
     1
  9
$PLINEGEN
 70
     0
  9
$PSLTSCALE
 70
     1
  0
ENDSEC
  0
SECTION
  2
TABLES
  0
TABLE
  2
VPORT
 70
     2
  0
VPORT
  2
*ACTIVE
 70
     0
 10
0.0
 20
0.0
 11
1.0
 21
1.0
 12
-2551.9844211530908
 22
315.14150066058772
 13
0.0
 23
0.0
 14
1.0
 24
1.0
 15
0.0
 25
0.0
 16
0.0
 26
0.0
 36
1.0
 17
0.0
 27
0.0
 37
0.0
 40
8.9999984868832144
 41
2.4144144144144142
 42
50.0
 43
0.0
 44
0.0
 50
0.0
 51
0.0
 71
     0
 72
   100
 73
     1
 74
     1
 75
     0
 76
     0
 77
     0
 78
     0
  0
ENDTAB
  0
TABLE
  2
LTYPE
 70
     9
  0
LTYPE
  2
CONTINUOUS
 70
     0
  3
Solid line
 72
    65
 73
     0
 40
0.0
  0
LTYPE
  2
BORDER
 70
     0
  3
__ __ . __ __ .
 72
    65
 73
     6
 40
83.357104204681434
 49
23.816315487051838
 49
-11.908157743525919
 49
23.816315487051838
 49
-11.908157743525919
 49
0.0
 49
-11.908157743525919
  0
LTYPE
  2
CENTER
 70
     0
  3
____ _ ____ _
 72
    65
 73
     4
 40
95.265261948207353
 49
59.540788717629603
 49
-11.908157743525919
 49
11.908157743525919
 49
-11.908157743525919
  0
LTYPE
  2
DASHDOT
 70
     0
  3
__ . __ . __ .
 72
    65
 73
     4
 40
47.632630974103677
 49
23.816315487051838
 49
-11.908157743525919
 49
0.0
 49
-11.908157743525919
  0
LTYPE
  2
DASHED
 70
     0
  3
__ __ __ __ __
 72
    65
 73
     2
 40
35.724473230577757
 49
23.816315487051838
 49
-11.908157743525919
  0
LTYPE
  2
DIVIDE
 70
     0
  3
__ . . __ . . 
 72
    65
 73
     6
 40
59.540788717629603
 49
23.816315487051838
 49
-11.908157743525919
 49
0.0
 49
-11.908157743525919
 49
0.0
 49
-11.908157743525919
  0
LTYPE
  2
DOT
 70
     0
  3
..............
 72
    65
 73
     4
 40
23.816315487051838
 49
0.0
 49
-11.908157743525919
 49
0.0
 49
-11.908157743525919
  0
LTYPE
  2
HIDDEN
 70
     0
  3
_ _ _ _ _ _ _
 72
    65
 73
     2
 40
17.862236615288879
 49
11.908157743525919
 49
-5.9540788717629587
  0
LTYPE
  2
PHANTOM
 70
     0
  3
_____ _ _ _____ _ _ 
 72
    65
 73
     6
 40
119.08157743525921
 49
59.540788717629603
 49
-11.908157743525919
 49
11.908157743525919
 49
-11.908157743525919
 49
11.908157743525919
 49
-11.908157743525919
  0
ENDTAB
  0
TABLE
  2
LAYER
 70
     2
  0
LAYER
  2
0
 70
     0
 62
     7
  6
CONTINUOUS
  0
LAYER
  2
1
 70
     0
 62
     7
  6
CONTINUOUS
  0
ENDTAB
  0
TABLE
  2
STYLE
 70
     4
  0
STYLE
  2
STANDARD
 70
     0
 40
0.0
 41
1.0
 50
0.0
 71
     0
 42
3.5
  3
txt
  4

  0
STYLE
  2
SIMPLEX
 70
     0
 40
0.0
 41
1.0
 50
0.0
 71
     0
 42
3.5
  3
simplex
  4

  0
STYLE
  2
COMPLEX
 70
     0
 40
0.0
 41
1.0
 50
0.0
 71
     0
 42
3.5
  3
complex
  4

  0
STYLE
  2
ITALIC
 70
     0
 40
0.0
 41
1.0
 50
0.0
 71
     0
 42
3.5
  3
italic
  4

  0
ENDTAB
  0
TABLE
  2
VIEW
 70
     0
  0
ENDTAB
  0
TABLE
  2
UCS
 70
     0
  0
ENDTAB
  0
TABLE
  2
APPID
 70
     1
  0
APPID
  2
ACAD
 70
     0
  0
ENDTAB
  0
TABLE
  2
DIMSTYLE
 70
     1
  0
DIMSTYLE
  2
STANDARD
 70
     0
  3

  4

  5

  6

  7

 40
1.0
 41
0.18
 42
0.0625
 43
0.38
 44
0.18
 45
0.0
 46
0.0
 47
0.0
 48
0.0
140
0.18
141
0.09
142
0.0
143
25.399999999999999
144
1.0
145
0.0
146
1.0
147
0.09
 71
     0
 72
     0
 73
     1
 74
     1
 75
     0
 76
     0
 77
     0
 78
     0
170
     0
171
     2
172
     0
173
     0
174
     0
175
     0
176
     0
177
     0
178
     0
  0
ENDTAB
  0
ENDSEC
  0
SECTION
  2
BLOCKS
  0
BLOCK
  8
0
  2
$MODEL_SPACE
 70
     0
 10
0.0
 20
0.0
 30
0.0
  3
$MODEL_SPACE
  1

  0
ENDBLK
  5
20
  8
0
  0
BLOCK
 67
     1
  8
0
  2
$PAPER_SPACE
 70
     0
 10
0.0
 20
0.0
 30
0.0
  3
$PAPER_SPACE
  1

  0
ENDBLK
  5
1C
 67
     1
  8
0
  0
ENDSEC
  0
SECTION
  2
ENTITIES
  0
LINE
  5
33
  8
1
 62
     7
 10
-1381.3665498003099
 20
-33.837633136094979
 30
0.0
 11
-1601.3665498003099
 21
-33.837633136094979
 31
0.0
  0
LINE
  5
34
  8
1
 62
     7
 10
-1503.3665498003099
 20
16.162366863905049
 30
0.0
 11
-1503.3665498003099
 21
-23.837633136094979
 31
0.0
  0
LINE
  5
35
  8
1
  6
DASHED
 62
     7
 10
-1062.3183557605271
 20
-177.320147191464
 30
0.0
 11
-1033.9962898069371
 21
-148.9980812378746
 31
0.0
  0
LINE
  5
36
  8
1
  6
DASHED
 62
     7
 10
-1067.9752100100191
 20
-171.66329294197149
 30
0.0
 11
-1039.6531440564299
 21
-143.34122698838209
 31
0.0
  0
LINE
  5
37
  8
1
 62
     3
 10
-1067.9065713413499
 20
-177.25150852279461
 30
0.0
 11
-1033.0284827954511
 21
-142.3734199768958
 31
0.0
  0
LINE
  5
38
  8
1
  6
DASHED
 62
     7
 10
-921.01018189928095
 20
-171.66329294197149
 30
0.0
 11
-949.33224785287086
 21
-143.34122698838229
 31
0.0
  0
LINE
  5
39
  8
1
  6
DASHED
 62
     7
 10
-926.66703614877383
 20
-177.320147191464
 30
0.0
 11
-954.98910210236295
 21
-148.9980812378746
 31
0.0
  0
LINE
  5
3A
  8
1
 62
     3
 10
-921.07882056794995
 20
-177.25150852279461
 30
0.0
 11
-955.95690911384895
 21
-142.3734199768956
 31
0.0
  0
LINE
  5
3B
  8
1
  6
DASHED
 62
     7
 10
-926.66703614877383
 20
-30.355119080726119
 30
0.0
 11
-954.98910210236295
 21
-58.677185034315471
 31
0.0
  0
LINE
  5
3C
  8
1
  6
DASHED
 62
     7
 10
-921.01018189928095
 20
-36.011973330218552
 30
0.0
 11
-949.33224785287086
 21
-64.334039283807897
 31
0.0
  0
LINE
  5
3D
  8
1
 62
     3
 10
-921.07882056794995
 20
-30.42375774939547
 30
0.0
 11
-955.95690911384986
 21
-65.301846295294354
 31
0.0
  0
LINE
  5
3E
  8
1
  6
DASHED
 62
     7
 10
-1067.9752100100191
 20
-36.011973330218431
 30
0.0
 11
-1039.6531440564299
 21
-64.334039283807741
 31
0.0
  0
LINE
  5
3F
  8
1
  6
DASHED
 62
     7
 10
-1062.3183557605271
 20
-30.35511908072603
 30
0.0
 11
-1033.9962898069371
 21
-58.67718503431535
 31
0.0
  0
LINE
  5
40
  8
1
 62
     3
 10
-1067.9065713413499
 20
-30.423757749395438
 30
0.0
 11
-1033.0284827954511
 21
-65.301846295294396
 31
0.0
  0
LINE
  5
41
  8
1
 62
     7
 10
-1010.49269595465
 20
-33.837633136094979
 30
0.0
 11
-978.49269595464989
 21
-33.837633136094979
 31
0.0
  0
LINE
  5
42
  8
1
 62
     7
 10
-1010.49269595465
 20
-46.010303956891143
 30
0.0
 11
-1010.49269595465
 21
-33.837633136094979
 31
0.0
  0
LINE
  5
43
  8
1
 62
     7
 10
-978.49269595464989
 20
-46.010303956891143
 30
0.0
 11
-978.49269595464989
 21
-33.837633136094979
 31
0.0
  0
LINE
  5
44
  8
1
 62
     7
 10
-979.49269595464989
 20
91.587544361585714
 30
0.0
 11
-979.49269595464989
 21
146.16236686390499
 31
0.0
  0
LINE
  5
45
  8
1
 62
     7
 10
-982.69269595464993
 20
91.806840335557155
 30
0.0
 11
-982.69269595464993
 21
146.16236686390499
 31
0.0
  0
LINE
  5
46
  8
1
 62
     7
 10
-1006.29269595465
 20
91.806840335557155
 30
0.0
 11
-1006.29269595465
 21
146.16236686390499
 31
0.0
  0
LINE
  5
47
  8
1
 62
     7
 10
-1009.492695954649
 20
91.587544361585714
 30
0.0
 11
-1009.492695954649
 21
146.16236686390499
 31
0.0
  0
LINE
  5
48
  8
1
 62
     7
 10
-1009.492695954649
 20
146.16236686390499
 30
0.0
 11
-997.12269595465
 21
146.16236686390499
 31
0.0
  0
LINE
  5
49
  8
1
 62
     7
 10
-991.86269595465001
 20
146.16236686390499
 30
0.0
 11
-979.49269595464989
 21
146.16236686390499
 31
0.0
  0
LINE
  5
4A
  8
1
 62
     7
 10
-991.86269595465001
 20
92.153121073472704
 30
0.0
 11
-991.86269595465001
 21
171.04652606891489
 31
0.0
  0
LINE
  5
4B
  8
1
 62
     7
 10
-994.49269595464989
 20
167.08356838206601
 30
0.0
 11
-994.49269595464989
 21
92.162366863905007
 31
0.0
  0
LINE
  5
4C
  8
1
 62
     7
 10
-993.74887160508797
 20
171.04652606891489
 30
0.0
 11
-993.74887160508797
 21
176.04652606891489
 31
0.0
  0
LINE
  5
4D
  8
1
 62
     7
 10
-993.44853484047735
 20
171.04652606891489
 30
0.0
 11
-993.44853484047735
 21
176.04652606891489
 31
0.0
  0
LINE
  5
4E
  8
1
 62
     7
 10
-992.610753339192
 20
171.04652606891489
 30
0.0
 11
-992.610753339192
 21
176.04652606891489
 31
0.0
  0
LINE
  5
4F
  8
1
 62
     7
 10
-992.89528290566602
 20
171.04652606891489
 30
0.0
 11
-992.89528290566602
 21
176.04652606891489
 31
0.0
  0
LINE
  5
50
  8
1
 62
     7
 10
-993.17769595464995
 20
171.04652606891489
 30
0.0
 11
-993.17769595464995
 21
176.04652606891489
 31
0.0
  0
LINE
  5
51
  8
1
 62
     7
 10
-997.12269595465
 20
171.04652606891489
 30
0.0
 11
-991.86269595465001
 21
171.04652606891489
 31
0.0
  0
LINE
  5
52
  8
1
 62
     7
 10
-995.23652030421204
 20
176.04652606891489
 30
0.0
 11
-995.23652030421204
 21
171.04652606891489
 31
0.0
  0
LINE
  5
53
  8
1
 62
     7
 10
-995.53685706882322
 20
176.04652606891489
 30
0.0
 11
-995.53685706882322
 21
171.04652606891489
 31
0.0
  0
LINE
  5
54
  8
1
 62
     7
 10
-996.374638570108
 20
176.04652606891489
 30
0.0
 11
-996.374638570108
 21
171.04652606891489
 31
0.0
  0
LINE
  5
55
  8
1
 62
     7
 10
-996.09010900363398
 20
176.04652606891489
 30
0.0
 11
-996.09010900363398
 21
171.04652606891489
 31
0.0
  0
LINE
  5
56
  8
1
 62
     7
 10
-995.80769595464994
 20
176.04652606891489
 30
0.0
 11
-995.80769595464994
 21
171.04652606891489
 31
0.0
  0
LINE
  5
57
  8
1
 62
     7
 10
-997.12269595465
 20
171.04652606891489
 30
0.0
 11
-997.12269595465
 21
92.142544178581986
 31
0.0
  0
LINE
  5
58
  8
1
 62
     7
 10
-994.49269595464989
 20
171.04652606891489
 30
0.0
 11
-994.49269595464989
 21
161.35582338175101
 31
0.0
  0
LINE
  5
59
  8
1
 62
     7
 10
-1178.839284515494
 20
-26.272594065784041
 30
0.0
 11
-1164.392813092471
 21
-34.613268230706183
 31
0.0
  0
LINE
  5
5A
  8
1
 62
     7
 10
-1139.392813092471
 20
8.6880019585157662
 30
0.0
 11
-1164.392813092471
 21
-34.613268230706183
 31
0.0
  0
LINE
  5
5B
  8
1
 62
     7
 10
-1139.392813092471
 20
8.6880019585157662
 30
0.0
 11
-1153.839284515494
 21
17.028676123437911
 31
0.0
  0
LINE
  5
5C
  8
1
 62
     7
 10
-1139.392813092471
 20
-216.3632682307059
 30
0.0
 11
-1164.392813092471
 21
-173.061998041484
 31
0.0
  0
LINE
  5
5D
  8
1
 62
     7
 10
-1153.839284515494
 20
-224.70394239562799
 30
0.0
 11
-1139.392813092471
 21
-216.3632682307059
 31
0.0
  0
LINE
  5
5E
  8
1
 62
     7
 10
-1164.392813092471
 20
-173.061998041484
 30
0.0
 11
-1178.839284515494
 21
-181.40267220640609
 31
0.0
  0
LINE
  5
5F
  8
1
 62
     7
 10
-969.49269595464989
 20
-285.58763313609478
 30
0.0
 11
-1019.492695954649
 21
-285.58763313609478
 31
0.0
  0
LINE
  5
60
  8
1
 62
     7
 10
-969.49269595464989
 20
-302.26898146593919
 30
0.0
 11
-969.49269595464989
 21
-285.58763313609478
 31
0.0
  0
LINE
  5
61
  8
1
 62
     7
 10
-1019.492695954649
 20
-285.58763313609478
 30
0.0
 11
-1019.492695954649
 21
-302.26898146593919
 31
0.0
  0
LINE
  5
62
  8
1
 62
     7
 10
-810.14610739380589
 20
-181.40267220640609
 30
0.0
 11
-824.5925788168289
 21
-173.061998041484
 31
0.0
  0
LINE
  5
63
  8
1
 62
     7
 10
-849.5925788168289
 20
-216.3632682307059
 30
0.0
 11
-824.5925788168289
 21
-173.061998041484
 31
0.0
  0
LINE
  5
64
  8
1
 62
     7
 10
-849.5925788168289
 20
-216.3632682307059
 30
0.0
 11
-835.14610739380589
 21
-224.70394239562799
 31
0.0
  0
LINE
  5
65
  8
1
 62
     7
 10
-835.14610739380589
 20
17.028676123438071
 30
0.0
 11
-849.592578816828
 21
8.6880019585159172
 31
0.0
  0
LINE
  5
66
  8
1
 62
     7
 10
-824.592578816828
 20
-34.613268230706012
 30
0.0
 11
-849.592578816828
 21
8.6880019585159172
 31
0.0
  0
LINE
  5
67
  8
1
 62
     7
 10
-824.592578816828
 20
-34.613268230706012
 30
0.0
 11
-810.14610739380589
 21
-26.27259406578386
 31
0.0
  0
LINE
  5
68
  8
1
 62
     7
 10
-1019.492695954649
 20
94.59371519374929
 30
0.0
 11
-1019.492695954649
 21
77.912366863905021
 31
0.0
  0
LINE
  5
69
  8
1
 62
     7
 10
-969.49269595464989
 20
77.912366863905021
 30
0.0
 11
-1019.492695954649
 21
77.912366863905021
 31
0.0
  0
LINE
  5
6A
  8
1
 62
     7
 10
-969.49269595464989
 20
77.912366863905021
 30
0.0
 11
-969.49269595464989
 21
94.59371519374929
 31
0.0
  0
LINE
  5
6B
  8
1
 62
     7
 10
-2007.2968755889001
 20
-178.83763313609501
 30
0.0
 11
-2009.2968755889001
 21
-176.83763313609501
 31
0.0
  0
LINE
  5
6C
  8
1
 62
     7
 10
-1794.0968755888989
 20
-3.837633136095008
 30
0.0
 11
-1791.2968755889001
 21
-3.837633136095008
 31
0.0
  0
LINE
  5
6D
  8
1
 62
     7
 10
-2009.2968755889001
 20
-30.837633136095011
 30
0.0
 11
-2007.2968755889001
 21
-28.837633136095011
 31
0.0
  0
LINE
  5
6E
  8
1
 62
     7
 10
-1789.2968755889001
 20
-5.8376331360950067
 30
0.0
 11
-1791.2968755889001
 21
-3.837633136095008
 31
0.0
  0
LINE
  5
6F
  8
1
 62
     3
 10
-1381.3665498003099
 20
-103.83763313609499
 30
0.0
 11
-1373.3665498003099
 21
-103.83763313609499
 31
0.0
  0
LINE
  5
70
  8
1
 62
     3
 10
-1601.3665498003099
 20
-103.83763313609499
 30
0.0
 11
-1609.3665498003099
 21
-103.83763313609499
 31
0.0
  0
LINE
  5
71
  8
1
 62
     7
 10
-2405.847672970589
 20
176.04652606891489
 30
0.0
 11
-2405.847672970589
 21
171.04652606891489
 31
0.0
  0
LINE
  5
72
  8
1
 62
     7
 10
-2405.0863048905671
 20
176.04652606891489
 30
0.0
 11
-2405.0863048905671
 21
171.04652606891489
 31
0.0
  0
LINE
  5
73
  8
1
 62
     7
 10
-2405.4624961857921
 20
176.04652606891489
 30
0.0
 11
-2405.4624961857921
 21
171.04652606891489
 31
0.0
  0
LINE
  5
74
  8
1
 62
     7
 10
-2406.6055389674389
 20
176.04652606891489
 30
0.0
 11
-2406.6055389674389
 21
171.04652606891489
 31
0.0
  0
LINE
  5
75
  8
1
 62
     7
 10
-2406.2004098802731
 20
176.04652606891489
 30
0.0
 11
-2406.2004098802731
 21
171.04652606891489
 31
0.0
  0
LINE
  5
76
  8
1
 62
     7
 10
-2403.2176729705898
 20
171.04652606891489
 30
0.0
 11
-2403.2176729705898
 21
176.04652606891489
 31
0.0
  0
LINE
  5
77
  8
1
 62
     7
 10
-2407.1626729705899
 20
171.04652606891489
 30
0.0
 11
-2401.9026729705902
 21
171.04652606891489
 31
0.0
  0
LINE
  5
78
  8
1
 62
     7
 10
-2403.979041050613
 20
171.04652606891489
 30
0.0
 11
-2403.979041050613
 21
176.04652606891489
 31
0.0
  0
LINE
  5
79
  8
1
 62
     7
 10
-2403.602849755388
 20
171.04652606891489
 30
0.0
 11
-2403.602849755388
 21
176.04652606891489
 31
0.0
  0
LINE
  5
7A
  8
1
 62
     7
 10
-2402.4598069737408
 20
171.04652606891489
 30
0.0
 11
-2402.4598069737408
 21
176.04652606891489
 31
0.0
  0
LINE
  5
7B
  8
1
 62
     7
 10
-2402.864936060907
 20
171.04652606891489
 30
0.0
 11
-2402.864936060907
 21
176.04652606891489
 31
0.0
  0
LINE
  5
7C
  8
1
 62
     7
 10
-2374.5326729705889
 20
55.773323190906922
 30
0.0
 11
-2374.5326729705889
 21
67.795696274746888
 31
0.0
  0
LINE
  5
7D
  8
1
 62
     7
 10
-2434.5326729705898
 20
55.773323190906922
 30
0.0
 11
-2434.5326729705898
 21
67.795696274746888
 31
0.0
  0
LINE
  5
7E
  8
1
 62
     7
 10
-2389.5326729705889
 20
146.16236686390499
 30
0.0
 11
-2389.5326729705889
 21
52.268709932543743
 31
0.0
  0
LINE
  5
7F
  8
1
 62
     7
 10
-2419.5326729705889
 20
146.16236686390499
 30
0.0
 11
-2419.5326729705889
 21
52.319717879181553
 31
0.0
  0
LINE
  5
80
  8
1
 62
     7
 10
-2419.5326729705889
 20
146.16236686390499
 30
0.0
 11
-2389.5326729705889
 21
146.16236686390499
 31
0.0
  0
LINE
  5
81
  8
1
 62
     7
 10
-2426.5326729705889
 20
64.47176794066354
 30
0.0
 11
-2428.5326729705898
 21
63.317067402284358
 31
0.0
  0
LINE
  5
82
  8
1
 62
     7
 10
-2428.5326729705898
 20
63.317067402284358
 30
0.0
 11
-2428.5326729705898
 21
61.007666325525747
 31
0.0
  0
LINE
  5
83
  8
1
 62
     7
 10
-2428.5326729705898
 20
61.007666325525747
 30
0.0
 11
-2426.5326729705889
 21
59.852965787146452
 31
0.0
  0
LINE
  5
84
  8
1
 62
     7
 10
-2426.5326729705889
 20
59.852965787146452
 30
0.0
 11
-2424.5326729705898
 21
61.007666325525747
 31
0.0
  0
LINE
  5
85
  8
1
 62
     7
 10
-2424.5326729705898
 20
61.007666325525747
 30
0.0
 11
-2424.5326729705898
 21
63.317067402284358
 31
0.0
  0
LINE
  5
86
  8
1
 62
     7
 10
-2424.5326729705898
 20
63.317067402284358
 30
0.0
 11
-2426.5326729705889
 21
64.47176794066354
 31
0.0
  0
LINE
  5
87
  8
1
 62
     7
 10
-2380.5326729705898
 20
63.317067402284358
 30
0.0
 11
-2382.5326729705898
 21
64.47176794066354
 31
0.0
  0
LINE
  5
88
  8
1
 62
     7
 10
-2380.5326729705898
 20
61.007666325525747
 30
0.0
 11
-2380.5326729705898
 21
63.317067402284358
 31
0.0
  0
LINE
  5
89
  8
1
 62
     7
 10
-2382.5326729705898
 20
59.852965787146452
 30
0.0
 11
-2380.5326729705898
 21
61.007666325525747
 31
0.0
  0
LINE
  5
8A
  8
1
 62
     7
 10
-2384.5326729705898
 20
61.007666325525747
 30
0.0
 11
-2382.5326729705898
 21
59.852965787146452
 31
0.0
  0
LINE
  5
8B
  8
1
 62
     7
 10
-2384.5326729705898
 20
63.317067402284358
 30
0.0
 11
-2384.5326729705898
 21
61.007666325525747
 31
0.0
  0
LINE
  5
8C
  8
1
 62
     7
 10
-2382.5326729705898
 20
64.47176794066354
 30
0.0
 11
-2384.5326729705898
 21
63.317067402284358
 31
0.0
  0
LINE
  5
8D
  8
1
 62
     7
 10
-2407.1626729705899
 20
146.16236686390499
 30
0.0
 11
-2407.1626729705899
 21
171.04652606891489
 31
0.0
  0
LINE
  5
8E
  8
1
 62
     7
 10
-2404.5326729705898
 20
146.16236686390499
 30
0.0
 11
-2404.5326729705898
 21
171.04652606891489
 31
0.0
  0
LINE
  5
8F
  8
1
 62
     7
 10
-2401.9026729705902
 20
146.16236686390499
 30
0.0
 11
-2401.9026729705902
 21
171.04652606891489
 31
0.0
  0
LINE
  5
90
  8
1
 62
     7
 10
-2420.5326729705898
 20
-33.837633136094979
 30
0.0
 11
-2388.5326729705898
 21
-33.837633136094979
 31
0.0
  0
LINE
  5
91
  8
1
 62
     7
 10
-2420.5326729705898
 20
-46.010303956891143
 30
0.0
 11
-2420.5326729705898
 21
-33.837633136094979
 31
0.0
  0
LINE
  5
92
  8
1
 62
     7
 10
-2388.5326729705898
 20
-46.010303956891143
 30
0.0
 11
-2388.5326729705898
 21
-33.837633136094979
 31
0.0
  0
LINE
  5
93
  8
1
 62
     7
 10
-2429.5326729705889
 20
94.59371519374929
 30
0.0
 11
-2429.5326729705889
 21
90.561440935773945
 31
0.0
  0
LINE
  5
94
  8
1
 62
     7
 10
-2560.3872095890019
 20
15.012538994450241
 30
0.0
 11
-2563.8792615314342
 21
17.028676123437911
 31
0.0
  0
LINE
  5
95
  8
1
 62
     7
 10
-2585.387209589001
 20
-179.38653507741921
 30
0.0
 11
-2588.8792615314342
 21
-181.40267220640601
 31
0.0
  0
LINE
  5
96
  8
1
 62
     7
 10
-2429.5326729705889
 20
-298.23670720796463
 30
0.0
 11
-2429.5326729705889
 21
-302.26898146593919
 31
0.0
  0
LINE
  5
97
  8
1
 62
     7
 10
-2248.6781363521782
 20
-222.68780526664059
 30
0.0
 11
-2245.1860844097459
 21
-224.70394239562819
 31
0.0
  0
LINE
  5
98
  8
1
 62
     7
 10
-2223.6781363521782
 20
-28.288731194770779
 30
0.0
 11
-2220.1860844097459
 21
-26.272594065783899
 31
0.0
  0
LINE
  5
99
  8
1
 62
     7
 10
-2379.5326729705898
 20
90.561440935774556
 30
0.0
 11
-2379.5326729705898
 21
94.593715193749105
 31
0.0
  0
LINE
  5
9A
  8
1
 62
     7
 10
-2588.8792615314342
 20
-26.272594065783739
 30
0.0
 11
-2585.387209589001
 21
-28.288731194771419
 31
0.0
  0
LINE
  5
9B
  8
1
 62
     7
 10
-2563.8792615314342
 20
-224.70394239562819
 30
0.0
 11
-2560.387209589001
 21
-222.68780526664051
 31
0.0
  0
LINE
  5
9C
  8
1
 62
     7
 10
-2379.5326729705898
 20
-302.26898146593959
 30
0.0
 11
-2379.5326729705898
 21
-298.23670720796412
 31
0.0
  0
LINE
  5
9D
  8
1
 62
     7
 10
-2220.1860844097459
 20
-181.40267220640629
 30
0.0
 11
-2223.6781363521791
 21
-179.3865350774185
 31
0.0
  0
LINE
  5
9E
  8
1
 62
     7
 10
-2245.1860844097459
 20
17.028676123438071
 30
0.0
 11
-2248.6781363521791
 21
15.012538994450409
 31
0.0
  0
LINE
  5
9F
  8
1
 62
     7
 10
-2282.3633576077968
 20
18.331682226697051
 30
0.0
 11
-2287.94013296605
 21
19.82597468031048
 31
0.0
  0
LINE
  5
A0
  8
1
 62
     7
 10
-2287.94013296605
 20
19.82597468031048
 30
0.0
 11
-2292.0226158706892
 21
15.743491775671851
 31
0.0
  0
LINE
  5
A1
  8
1
 62
     7
 10
-2292.0226158706892
 20
15.743491775671851
 30
0.0
 11
-2290.5283234170752
 21
10.166716417419799
 31
0.0
  0
LINE
  5
A2
  8
1
 62
     7
 10
-2290.5283234170752
 20
10.166716417419799
 30
0.0
 11
-2284.9515480588229
 21
8.6724239638063771
 31
0.0
  0
LINE
  5
A3
  8
1
 62
     7
 10
-2284.9515480588229
 20
8.6724239638063771
 30
0.0
 11
-2280.8690651541829
 21
12.754906868445
 31
0.0
  0
LINE
  5
A4
  8
1
 62
     7
 10
-2280.8690651541829
 20
12.754906868445
 30
0.0
 11
-2282.3633576077968
 21
18.331682226697051
 31
0.0
  0
LINE
  5
A5
  8
1
 62
     7
 10
-2526.7019883333819
 20
18.331682226697009
 30
0.0
 11
-2528.1962807869941
 21
12.75490686844477
 31
0.0
  0
LINE
  5
A6
  8
1
 62
     7
 10
-2528.1962807869941
 20
12.75490686844477
 30
0.0
 11
-2524.1137978823558
 21
8.6724239638060681
 31
0.0
  0
LINE
  5
A7
  8
1
 62
     7
 10
-2524.1137978823558
 20
8.6724239638060681
 30
0.0
 11
-2518.5370225241049
 21
10.16671641741959
 31
0.0
  0
LINE
  5
A8
  8
1
 62
     7
 10
-2518.5370225241049
 20
10.16671641741959
 30
0.0
 11
-2517.042730070491
 21
15.743491775671821
 31
0.0
  0
LINE
  5
A9
  8
1
 62
     7
 10
-2517.042730070491
 20
15.743491775671821
 30
0.0
 11
-2521.1252129751301
 21
19.825974680310541
 31
0.0
  0
LINE
  5
AA
  8
1
 62
     7
 10
-2521.1252129751301
 20
19.825974680310541
 30
0.0
 11
-2526.7019883333819
 21
18.331682226697009
 31
0.0
  0
LINE
  5
AB
  8
1
 62
     7
 10
-2526.7019883333819
 20
-226.00694849888731
 30
0.0
 11
-2521.1252129751301
 21
-227.50124095250069
 31
0.0
  0
LINE
  5
AC
  8
1
 62
     7
 10
-2521.1252129751301
 20
-227.50124095250069
 30
0.0
 11
-2517.042730070491
 21
-223.4187580478621
 31
0.0
  0
LINE
  5
AD
  8
1
 62
     7
 10
-2517.042730070491
 20
-223.4187580478621
 30
0.0
 11
-2518.537022524104
 21
-217.84198268961001
 31
0.0
  0
LINE
  5
AE
  8
1
 62
     7
 10
-2518.537022524104
 20
-217.84198268961001
 30
0.0
 11
-2524.1137978823558
 21
-216.34769023599659
 31
0.0
  0
LINE
  5
AF
  8
1
 62
     7
 10
-2524.1137978823558
 20
-216.34769023599659
 30
0.0
 11
-2528.1962807869941
 21
-220.43017314063519
 31
0.0
  0
LINE
  5
B0
  8
1
 62
     7
 10
-2528.1962807869941
 20
-220.43017314063519
 30
0.0
 11
-2526.7019883333819
 21
-226.00694849888731
 31
0.0
  0
LINE
  5
B1
  8
1
 62
     7
 10
-2282.3633576077968
 20
-226.00694849888711
 30
0.0
 11
-2280.8690651541829
 21
-220.43017314063491
 31
0.0
  0
LINE
  5
B2
  8
1
 62
     7
 10
-2280.8690651541829
 20
-220.43017314063491
 30
0.0
 11
-2284.9515480588229
 21
-216.34769023599611
 31
0.0
  0
LINE
  5
B3
  8
1
 62
     7
 10
-2284.9515480588229
 20
-216.34769023599611
 30
0.0
 11
-2290.5283234170752
 21
-217.84198268960961
 31
0.0
  0
LINE
  5
B4
  8
1
 62
     7
 10
-2290.5283234170752
 20
-217.84198268960961
 30
0.0
 11
-2292.0226158706878
 21
-223.41875804786201
 31
0.0
  0
LINE
  5
B5
  8
1
 62
     7
 10
-2292.0226158706878
 20
-223.41875804786201
 30
0.0
 11
-2287.94013296605
 21
-227.50124095250069
 31
0.0
  0
LINE
  5
B6
  8
1
 62
     7
 10
-2287.94013296605
 20
-227.50124095250069
 30
0.0
 11
-2282.3633576077968
 21
-226.00694849888711
 31
0.0
  0
LINE
  5
B7
  8
1
  6
DASHDOT
 62
     3
 10
-2370.6840511956302
 20
-103.83763313609499
 30
0.0
 11
-2438.3812947455481
 21
-103.83763313609499
 31
0.0
  0
LINE
  5
B8
  8
1
  6
DASHDOT
 62
     3
 10
-2404.5326729705898
 20
-69.989011361135383
 30
0.0
 11
-2404.5326729705898
 21
-137.6862549110545
 31
0.0
  0
LINE
  5
B9
  8
1
  6
DASHDOT
 62
     3
 10
-960.64407417969028
 20
-103.83763313609499
 30
0.0
 11
-1028.341317729609
 21
-103.83763313609499
 31
0.0
  0
LINE
  5
BA
  8
1
  6
DASHDOT
 62
     3
 10
-994.49269595464989
 20
-69.989011361135383
 30
0.0
 11
-994.49269595464989
 21
-137.6862549110545
 31
0.0
  0
LINE
  5
BB
  8
1
  6
DASHDOT
 62
     3
 10
-1146.8012990814409
 20
-15.90222012094693
 30
0.0
 11
-1171.9450033024521
 21
-1.3854957205206619
 31
0.0
  0
LINE
  5
BC
  8
1
  6
DASHDOT
 62
     3
 10
-1146.80129908144
 20
-191.77304615124351
 30
0.0
 11
-1171.9450033024521
 21
-206.28977055166919
 31
0.0
  0
LINE
  5
BD
  8
1
  6
DASHDOT
 62
     3
 10
-994.49269595464989
 20
-279.70845916639149
 30
0.0
 11
-994.49269595464989
 21
-308.74190796724349
 31
0.0
  0
LINE
  5
BE
  8
1
  6
DASHDOT
 62
     3
 10
-842.18409282785979
 20
-191.77304615124291
 30
0.0
 11
-817.04038860684716
 21
-206.28977055166931
 31
0.0
  0
LINE
  5
BF
  8
1
  6
DASHDOT
 62
     3
 10
-842.18409282785979
 20
-15.902220120946531
 30
0.0
 11
-817.04038860684716
 21
-1.3854957205208309
 31
0.0
  0
LINE
  5
C0
  8
1
  6
DASHDOT
 62
     3
 10
-994.49269595465046
 20
72.033192894201434
 30
0.0
 11
-994.49269595464989
 21
92.162366863905007
 31
0.0
  0
LINE
  5
C1
  8
1
 62
     3
 10
-1789.2968755889001
 20
-103.83763313609499
 30
0.0
 11
-1781.2968755889001
 21
-103.83763313609499
 31
0.0
  0
LINE
  5
C2
  8
1
 62
     3
 10
-2009.2968755889001
 20
-103.83763313609499
 30
0.0
 11
-2017.2968755889001
 21
-103.83763313609499
 31
0.0
  0
LINE
  5
C3
  8
1
 62
     7
 10
-1396.1665498003099
 20
7.6623668639050067
 30
0.0
 11
-1392.1665498003099
 21
7.6623668639050067
 31
0.0
  0
LINE
  5
C4
  8
1
 62
     7
 10
-1392.1665498003099
 20
-3.8376331360949512
 30
0.0
 11
-1392.1665498003099
 21
7.6623668639050067
 31
0.0
  0
LINE
  5
C5
  8
1
 62
     7
 10
-1601.3665498003099
 20
-23.837633136094841
 30
0.0
 11
-1601.3665498003099
 21
-183.83763313609529
 31
0.0
  0
LINE
  5
C6
  8
1
 62
     3
 10
-1560.3665498003099
 20
-17.037633136095
 30
0.0
 11
-1560.3665498003099
 21
9.3623668639050965
 31
0.0
  0
LINE
  5
C7
  8
1
 62
     3
 10
-1573.56654980031
 20
-3.8376331360949512
 30
0.0
 11
-1547.1665498003099
 21
-3.8376331360949512
 31
0.0
  0
LINE
  5
C8
  8
1
 62
     7
 10
-1579.3665498003099
 20
-23.83763313609494
 30
0.0
 11
-1503.3665498003099
 21
-23.837633136094979
 31
0.0
  0
LINE
  5
C9
  8
1
 62
     7
 10
-1503.3665498003099
 20
16.162366863905049
 30
0.0
 11
-1579.3665498003099
 21
16.162366863905049
 31
0.0
  0
LINE
  5
CA
  8
1
 62
     7
 10
-1541.3665498003099
 20
-23.837633136094979
 30
0.0
 11
-1541.3665498003099
 21
16.162366863905049
 31
0.0
  0
LINE
  5
CB
  8
1
 62
     7
 10
-1541.3665498003099
 20
-23.837633136094979
 30
0.0
 11
-1541.3665498003099
 21
16.162366863905049
 31
0.0
  0
LINE
  5
CC
  8
1
 62
     7
 10
-1579.3665498003099
 20
-14.22993798150822
 30
0.0
 11
-1566.3665498003099
 21
-14.22993798150822
 31
0.0
  0
LINE
  5
CD
  8
1
 62
     7
 10
-1528.3665498003099
 20
-14.229937981508259
 30
0.0
 11
-1554.3665498003099
 21
-14.22993798150822
 31
0.0
  0
LINE
  5
CE
  8
1
 62
     7
 10
-1528.3665498003099
 20
6.5546717093183116
 30
0.0
 11
-1554.3665498003099
 21
6.5546717093183116
 31
0.0
  0
LINE
  5
CF
  8
1
 62
     7
 10
-1579.3665498003099
 20
6.5546717093183116
 30
0.0
 11
-1566.3665498003099
 21
6.5546717093183116
 31
0.0
  0
LINE
  5
D0
  8
1
 62
     3
 10
-1522.3665498003099
 20
-17.037633136095
 30
0.0
 11
-1522.3665498003099
 21
9.3623668639050965
 31
0.0
  0
LINE
  5
D1
  8
1
 62
     3
 10
-1535.56654980031
 20
-3.8376331360949512
 30
0.0
 11
-1509.1665498003099
 21
-3.8376331360949512
 31
0.0
  0
LINE
  5
D2
  8
1
 62
     7
 10
-1503.3665498003099
 20
-14.22993798150819
 30
0.0
 11
-1516.3665498003099
 21
-14.22993798150825
 31
0.0
  0
LINE
  5
D3
  8
1
 62
     7
 10
-1503.3665498003099
 20
6.5546717093183116
 30
0.0
 11
-1516.3665498003099
 21
6.5546717093182707
 31
0.0
  0
LINE
  5
D4
  8
1
 62
     7
 10
-1396.1665498003099
 20
8.6623668639050475
 30
0.0
 11
-1396.1665498003099
 21
-7.0376331360949953
 31
0.0
  0
LINE
  5
D5
  8
1
 62
     7
 10
-1444.3665498003099
 20
-7.0376331360949953
 30
0.0
 11
-1381.3665498003099
 21
-7.0376331360949953
 31
0.0
  0
LINE
  5
D6
  8
1
 62
     7
 10
-1391.1665498003099
 20
2.724138130455116
 30
0.0
 11
-1391.1665498003099
 21
10.66236686390501
 31
0.0
  0
LINE
  5
D7
  8
1
 62
     7
 10
-1386.1665498003099
 20
2.724138130455116
 30
0.0
 11
-1386.1665498003099
 21
66.162366863905049
 31
0.0
  0
LINE
  5
D8
  8
1
 62
     7
 10
-1386.1665498003099
 20
15.662366863905049
 30
0.0
 11
-1391.1665498003099
 21
10.66236686390501
 31
0.0
  0
LINE
  5
D9
  8
1
 62
     7
 10
-1394.1665498003099
 20
10.662366863905049
 30
0.0
 11
-1391.1665498003099
 21
10.66236686390501
 31
0.0
  0
LINE
  5
DA
  8
1
 62
     7
 10
-1396.1665498003099
 20
76.162366863905049
 30
0.0
 11
-1386.1665498003099
 21
66.162366863905049
 31
0.0
  0
LINE
  5
DB
  8
1
 62
     7
 10
-1396.1665498003099
 20
76.162366863905049
 30
0.0
 11
-1410.1665498003099
 21
76.162366863905049
 31
0.0
  0
LINE
  5
DC
  8
1
 62
     3
 10
-1444.3665498003099
 20
96.162366863905007
 30
0.0
 11
-1410.1665498003099
 21
-7.0376331360949909
 31
0.0
  0
LINE
  5
DD
  8
1
 62
     3
 10
-1444.3665498003099
 20
-7.0376331360949953
 30
0.0
 11
-1410.1665498003099
 21
96.162366863905049
 31
0.0
  0
LINE
  5
DE
  8
1
 62
     7
 10
-1444.3665498003099
 20
76.162366863905049
 30
0.0
 11
-1444.3665498003099
 21
96.162366863905007
 31
0.0
  0
LINE
  5
DF
  8
1
 62
     7
 10
-1444.3665498003099
 20
96.162366863905007
 30
0.0
 11
-1410.1665498003099
 21
96.162366863905049
 31
0.0
  0
LINE
  5
E0
  8
1
 62
     7
 10
-1410.1665498003099
 20
96.162366863905049
 30
0.0
 11
-1410.1665498003099
 21
-7.0376331360949909
 31
0.0
  0
LINE
  5
E1
  8
1
 62
     3
 10
-1396.1665498003099
 20
0.1623668639050493
 30
0.0
 11
-1444.3665498003099
 21
0.1623668639050493
 31
0.0
  0
LINE
  5
E2
  8
1
 62
     7
 10
-1490.3665498003099
 20
-43.837633136094937
 30
0.0
 11
-1436.3665498003099
 21
-43.837633136094937
 31
0.0
  0
LINE
  5
E3
  8
1
 62
     7
 10
-1436.3665498003099
 20
-165.83763313609509
 30
0.0
 11
-1436.3665498003099
 21
-41.837633136094951
 31
0.0
  0
LINE
  5
E4
  8
1
 62
     7
 10
-1436.3665498003099
 20
-41.837633136094951
 30
0.0
 11
-1416.3665498003099
 21
-41.837633136094993
 31
0.0
  0
LINE
  5
E5
  8
1
 62
     7
 10
-1416.3665498003099
 20
-41.837633136094993
 30
0.0
 11
-1416.3665498003099
 21
-165.83763313609501
 31
0.0
  0
LINE
  5
E6
  8
1
 62
     7
 10
-1381.3665498003099
 20
-201.83763313609501
 30
0.0
 11
-1381.3665498003099
 21
-5.8376331360949507
 31
0.0
  0
LINE
  5
E7
  8
1
 62
     7
 10
-1381.3665498003099
 20
-5.8376331360949507
 30
0.0
 11
-1383.3665498003099
 21
-3.8376331360949512
 31
0.0
  0
LINE
  5
E8
  8
1
 62
     7
 10
-1392.1665498003099
 20
-6.3376331360949916
 30
0.0
 11
-1392.1665498003099
 21
-3.8376331360949512
 31
0.0
  0
LINE
  5
E9
  8
1
 62
     7
 10
-1392.1665498003099
 20
-3.8376331360949512
 30
0.0
 11
-1383.3665498003099
 21
-3.8376331360949512
 31
0.0
  0
LINE
  5
EA
  8
1
 62
     7
 10
-1392.1665498003099
 20
-6.3376331360949916
 30
0.0
 11
-1396.1665498003099
 21
-6.3376331360949916
 31
0.0
  0
LINE
  5
EB
  8
1
 62
     7
 10
-1474.3665498003099
 20
7.9623668639050038
 30
0.0
 11
-1474.3665498003099
 21
76.962366863905004
 31
0.0
  0
LINE
  5
EC
  8
1
 62
     7
 10
-1591.3665498003099
 20
-12.429306604757009
 30
0.0
 11
-1591.3665498003099
 21
43.162366863905049
 31
0.0
  0
LINE
  5
ED
  8
1
 62
     7
 10
-1591.3665498003099
 20
43.162366863905049
 30
0.0
 11
-1569.3665498003099
 21
43.162366863905049
 31
0.0
  0
LINE
  5
EE
  8
1
 62
     7
 10
-1584.3665498003099
 20
-8.6128598348149126
 30
0.0
 11
-1584.3665498003099
 21
19.162366863905039
 31
0.0
  0
LINE
  5
EF
  8
1
 62
     7
 10
-1579.3665498003099
 20
5.1623668639050493
 30
0.0
 11
-1584.3665498003099
 21
5.1623668639050493
 31
0.0
  0
LINE
  5
F0
  8
1
 62
     7
 10
-1584.3665498003099
 20
19.162366863905039
 30
0.0
 11
-1579.3665498003099
 21
19.162366863905039
 31
0.0
  0
LINE
  5
F1
  8
1
 62
     7
 10
-1584.3665498003099
 20
16.162366863905049
 30
0.0
 11
-1591.3665498003099
 21
16.16236686390501
 31
0.0
  0
LINE
  5
F2
  8
1
 62
     7
 10
-1490.3665498003099
 20
-165.83763313609501
 30
0.0
 11
-1490.3665498003099
 21
-41.837633136094951
 31
0.0
  0
LINE
  5
F3
  8
1
 62
     7
 10
-1510.3665498003099
 20
-165.83763313609509
 30
0.0
 11
-1510.3665498003099
 21
-41.837633136094951
 31
0.0
  0
LINE
  5
F4
  8
1
 62
     7
 10
-1510.3665498003099
 20
-41.837633136094951
 30
0.0
 11
-1490.3665498003099
 21
-41.837633136094951
 31
0.0
  0
LINE
  5
F5
  8
1
 62
     7
 10
-1601.3665498003099
 20
-43.837633136094979
 30
0.0
 11
-1510.3665498003099
 21
-43.837633136094937
 31
0.0
  0
LINE
  5
F6
  8
1
 62
     7
 10
-1416.3665498003099
 20
-43.837633136094979
 30
0.0
 11
-1381.3665498003099
 21
-43.837633136094937
 31
0.0
  0
LINE
  5
F7
  8
1
 62
     7
 10
-1601.3665498003099
 20
-23.837633136094841
 30
0.0
 11
-1583.3665498003099
 21
-23.83763313609494
 31
0.0
  0
LINE
  5
F8
  8
1
 62
     7
 10
-1497.1665498003099
 20
-23.83763313609494
 30
0.0
 11
-1497.1665498003099
 21
-20.837633136094951
 31
0.0
  0
LINE
  5
F9
  8
1
 62
     7
 10
-1503.3665498003099
 20
-20.837633136094979
 30
0.0
 11
-1444.3665498003099
 21
-20.837633136094951
 31
0.0
  0
LINE
  5
FA
  8
1
 62
     7
 10
-1444.3665498003099
 20
76.162366863905049
 30
0.0
 11
-1472.3665498003099
 21
76.162366863905049
 31
0.0
  0
LINE
  5
FB
  8
1
 62
     7
 10
-1472.3665498003099
 20
76.162366863905049
 30
0.0
 11
-1472.3665498003099
 21
7.162366863905052
 31
0.0
  0
LINE
  5
FC
  8
1
 62
     7
 10
-1501.3665498003099
 20
-11.83763313609494
 30
0.0
 11
-1501.3665498003099
 21
7.1623668639050484
 31
0.0
  0
LINE
  5
FD
  8
1
 62
     7
 10
-1472.3665498003099
 20
7.162366863905052
 30
0.0
 11
-1501.3665498003099
 21
7.1623668639050484
 31
0.0
  0
LINE
  5
FE
  8
1
 62
     7
 10
-1503.3665498003099
 20
-11.837633136094979
 30
0.0
 11
-1501.3665498003099
 21
-11.83763313609494
 31
0.0
  0
LINE
  5
FF
  8
1
 62
     7
 10
-1464.3665498003099
 20
92.162366863905007
 30
0.0
 11
-1454.3665498003099
 21
82.162366863905021
 31
0.0
  0
LINE
  5
100
  8
1
 62
     7
 10
-1583.3665498003099
 20
-14.137633136094911
 30
0.0
 11
-1583.3665498003099
 21
-26.33763313609494
 31
0.0
  0
LINE
  5
101
  8
1
 62
     7
 10
-1583.3665498003099
 20
-26.33763313609494
 30
0.0
 11
-1579.3665498003099
 21
-26.33763313609494
 31
0.0
  0
LINE
  5
102
  8
1
 62
     7
 10
-1579.3665498003099
 20
-14.137633136094911
 30
0.0
 11
-1583.3665498003099
 21
-14.137633136094911
 31
0.0
  0
LINE
  5
103
  8
1
 62
     7
 10
-1503.3665498003099
 20
7.9623668639050038
 30
0.0
 11
-1474.3665498003099
 21
7.9623668639050038
 31
0.0
  0
LINE
  5
104
  8
1
 62
     7
 10
-1454.3665498003099
 20
76.962366863905018
 30
0.0
 11
-1454.3665498003099
 21
82.162366863905021
 31
0.0
  0
LINE
  5
105
  8
1
 62
     7
 10
-1569.3665498003099
 20
92.162366863905049
 30
0.0
 11
-1464.3665498003099
 21
92.162366863905007
 31
0.0
  0
LINE
  5
106
  8
1
 62
     7
 10
-1791.2968755889001
 20
-3.837633136095008
 30
0.0
 11
-1791.2968755889001
 21
-203.83763313609501
 31
0.0
  0
LINE
  5
107
  8
1
 62
     7
 10
-1789.2968755889001
 20
-201.83763313609501
 30
0.0
 11
-1791.2968755889001
 21
-203.83763313609501
 31
0.0
  0
LINE
  5
108
  8
1
 62
     7
 10
-1789.2968755889001
 20
-201.83763313609501
 30
0.0
 11
-1789.2968755889001
 21
-5.8376331360950067
 31
0.0
  0
LINE
  5
109
  8
1
 62
     7
 10
-1804.0968755889
 20
76.162366863905049
 30
0.0
 11
-1804.0968755889
 21
-283.83763313609489
 31
0.0
  0
LINE
  5
10A
  8
1
 62
     7
 10
-1794.0968755888989
 20
-273.83763313609489
 30
0.0
 11
-1804.0968755889
 21
-283.83763313609489
 31
0.0
  0
LINE
  5
10B
  8
1
 62
     7
 10
-1818.0968755889
 20
-283.83763313609489
 30
0.0
 11
-1804.0968755889
 21
-283.83763313609489
 31
0.0
  0
LINE
  5
10C
  8
1
 62
     7
 10
-1794.0968755888989
 20
-273.83763313609489
 30
0.0
 11
-1794.0968755888989
 21
66.162366863905049
 31
0.0
  0
LINE
  5
10D
  8
1
 62
     3
 10
-1852.296875588899
 20
-103.83763313609499
 30
0.0
 11
-1818.0968755889
 21
-303.83763313609501
 31
0.0
  0
LINE
  5
10E
  8
1
 62
     3
 10
-1852.296875588899
 20
-303.83763313609501
 30
0.0
 11
-1818.0968755889
 21
-103.83763313609499
 31
0.0
  0
LINE
  5
10F
  8
1
 62
     7
 10
-1852.296875588899
 20
-303.83763313609501
 30
0.0
 11
-1818.0968755889
 21
-303.83763313609501
 31
0.0
  0
LINE
  5
110
  8
1
 62
     7
 10
-1818.0968755889
 20
-303.83763313609501
 30
0.0
 11
-1818.0968755889
 21
96.162366863905049
 31
0.0
  0
LINE
  5
111
  8
1
 62
     7
 10
-1862.2968755889001
 20
-283.83763313609489
 30
0.0
 11
-1852.296875588899
 21
-283.83763313609489
 31
0.0
  0
LINE
  5
112
  8
1
 62
     7
 10
-1852.296875588899
 20
-303.83763313609501
 30
0.0
 11
-1852.296875588899
 21
96.162366863905049
 31
0.0
  0
LINE
  5
113
  8
1
 62
     7
 10
-1872.2968755889001
 20
-299.83763313609501
 30
0.0
 11
-1862.2968755889001
 21
-289.83763313609501
 31
0.0
  0
LINE
  5
114
  8
1
 62
     7
 10
-1862.2968755889001
 20
-289.83763313609501
 30
0.0
 11
-1862.2968755889001
 21
82.162366863904978
 31
0.0
  0
LINE
  5
115
  8
1
 62
     7
 10
-2007.2968755889001
 20
-23.83763313609494
 30
0.0
 11
-2007.2968755889001
 21
-183.83763313609489
 31
0.0
  0
LINE
  5
116
  8
1
 62
     7
 10
-2009.2968755889001
 20
-181.83763313609501
 30
0.0
 11
-2007.2968755889001
 21
-183.83763313609489
 31
0.0
  0
LINE
  5
117
  8
1
 62
     7
 10
-1872.2968755889001
 20
-299.83763313609501
 30
0.0
 11
-1977.296875588899
 21
-299.83763313609501
 31
0.0
  0
LINE
  5
118
  8
1
 62
     7
 10
-1872.2968755889001
 20
-299.83763313609501
 30
0.0
 11
-1872.2968755889001
 21
92.162366863905049
 31
0.0
  0
LINE
  5
119
  8
1
 62
     7
 10
-1977.296875588899
 20
-299.83763313609501
 30
0.0
 11
-1977.296875588899
 21
92.162366863905049
 31
0.0
  0
LINE
  5
11A
  8
1
 62
     7
 10
-1999.2968755889001
 20
-250.83763313609489
 30
0.0
 11
-1999.2968755889001
 21
43.162366863905049
 31
0.0
  0
LINE
  5
11B
  8
1
 62
     7
 10
-1999.2968755889001
 20
-250.83763313609489
 30
0.0
 11
-1977.296875588899
 21
-250.83763313609489
 31
0.0
  0
LINE
  5
11C
  8
1
 62
     7
 10
-1999.2968755889001
 20
-183.83763313609489
 30
0.0
 11
-2007.2968755889001
 21
-183.83763313609489
 31
0.0
  0
LINE
  5
11D
  8
1
 62
     7
 10
-2009.2968755889001
 20
-181.83763313609501
 30
0.0
 11
-2009.2968755889001
 21
-25.837633136094951
 31
0.0
  0
LINE
  5
11E
  8
1
 62
     7
 10
-1794.0968755888989
 20
-203.83763313609501
 30
0.0
 11
-1791.2968755889001
 21
-203.83763313609501
 31
0.0
  0
LINE
  5
11F
  8
1
 62
     7
 10
-1579.3665498003099
 20
19.162366863905039
 30
0.0
 11
-1579.3665498003099
 21
-26.33763313609494
 31
0.0
  0
LINE
  5
120
  8
1
 62
     7
 10
-1444.3665498003099
 20
76.162366863905049
 30
0.0
 11
-1444.3665498003099
 21
-20.837633136094951
 31
0.0
  0
LINE
  5
121
  8
1
 62
     7
 10
-1503.3665498003099
 20
-23.837633136094979
 30
0.0
 11
-1497.1665498003099
 21
-23.83763313609494
 31
0.0
  0
LINE
  5
122
  8
1
 62
     7
 10
-1392.1665498003099
 20
-215.33763313609489
 30
0.0
 11
-1396.1665498003099
 21
-215.33763313609489
 31
0.0
  0
LINE
  5
123
  8
1
 62
     7
 10
-1392.1665498003099
 20
-215.33763313609489
 30
0.0
 11
-1392.1665498003099
 21
-203.83763313609501
 31
0.0
  0
LINE
  5
124
  8
1
 62
     3
 10
-1560.3665498003099
 20
-217.0376331360952
 30
0.0
 11
-1560.3665498003099
 21
-190.63763313609499
 31
0.0
  0
LINE
  5
125
  8
1
 62
     3
 10
-1547.1665498003099
 20
-203.83763313609509
 30
0.0
 11
-1573.56654980031
 21
-203.83763313609509
 31
0.0
  0
LINE
  5
126
  8
1
 62
     7
 10
-1503.3665498003099
 20
-183.83763313609521
 30
0.0
 11
-1579.3665498003099
 21
-183.83763313609521
 31
0.0
  0
LINE
  5
127
  8
1
 62
     7
 10
-1579.3665498003099
 20
-223.83763313609521
 30
0.0
 11
-1503.3665498003099
 21
-223.83763313609489
 31
0.0
  0
LINE
  5
128
  8
1
 62
     7
 10
-1541.3665498003099
 20
-223.83763313609489
 30
0.0
 11
-1541.3665498003099
 21
-183.83763313609489
 31
0.0
  0
LINE
  5
129
  8
1
 62
     7
 10
-1541.3665498003099
 20
-223.83763313609489
 30
0.0
 11
-1541.3665498003099
 21
-183.83763313609489
 31
0.0
  0
LINE
  5
12A
  8
1
 62
     7
 10
-1566.3665498003099
 20
-193.44532829068191
 30
0.0
 11
-1579.3665498003099
 21
-193.44532829068191
 31
0.0
  0
LINE
  5
12B
  8
1
 62
     7
 10
-1554.3665498003099
 20
-193.44532829068191
 30
0.0
 11
-1528.3665498003099
 21
-193.4453282906816
 31
0.0
  0
LINE
  5
12C
  8
1
 62
     7
 10
-1554.3665498003099
 20
-214.22993798150841
 30
0.0
 11
-1528.3665498003099
 21
-214.2299379815083
 31
0.0
  0
LINE
  5
12D
  8
1
 62
     7
 10
-1566.3665498003099
 20
-214.22993798150841
 30
0.0
 11
-1579.3665498003099
 21
-214.22993798150841
 31
0.0
  0
LINE
  5
12E
  8
1
 62
     3
 10
-1522.3665498003099
 20
-217.0376331360952
 30
0.0
 11
-1522.3665498003099
 21
-190.63763313609499
 31
0.0
  0
LINE
  5
12F
  8
1
 62
     3
 10
-1509.1665498003099
 20
-203.83763313609509
 30
0.0
 11
-1535.56654980031
 21
-203.83763313609509
 31
0.0
  0
LINE
  5
130
  8
1
 62
     7
 10
-1516.3665498003099
 20
-193.44532829068169
 30
0.0
 11
-1503.3665498003099
 21
-193.44532829068169
 31
0.0
  0
LINE
  5
131
  8
1
 62
     7
 10
-1516.3665498003099
 20
-214.2299379815083
 30
0.0
 11
-1503.3665498003099
 21
-214.22993798150819
 31
0.0
  0
LINE
  5
132
  8
1
 62
     7
 10
-1396.1665498003099
 20
-200.63763313609499
 30
0.0
 11
-1396.1665498003099
 21
-216.33763313609509
 31
0.0
  0
LINE
  5
133
  8
1
 62
     7
 10
-1381.3665498003099
 20
-200.63763313609499
 30
0.0
 11
-1444.3665498003099
 21
-200.63763313609499
 31
0.0
  0
LINE
  5
134
  8
1
 62
     7
 10
-1391.1665498003099
 20
-218.33763313609501
 30
0.0
 11
-1391.1665498003099
 21
-210.39940440264519
 31
0.0
  0
LINE
  5
135
  8
1
 62
     7
 10
-1386.1665498003099
 20
-273.83763313609512
 30
0.0
 11
-1386.1665498003099
 21
-210.39940440264519
 31
0.0
  0
LINE
  5
136
  8
1
 62
     7
 10
-1391.1665498003099
 20
-218.33763313609501
 30
0.0
 11
-1386.1665498003099
 21
-223.33763313609501
 31
0.0
  0
LINE
  5
137
  8
1
 62
     7
 10
-1391.1665498003099
 20
-218.33763313609501
 30
0.0
 11
-1394.1665498003099
 21
-218.33763313609509
 31
0.0
  0
LINE
  5
138
  8
1
 62
     7
 10
-1386.1665498003099
 20
-273.83763313609512
 30
0.0
 11
-1396.1665498003099
 21
-283.83763313609512
 31
0.0
  0
LINE
  5
139
  8
1
 62
     7
 10
-1410.1665498003099
 20
-283.83763313609512
 30
0.0
 11
-1396.1665498003099
 21
-283.83763313609512
 31
0.0
  0
LINE
  5
13A
  8
1
 62
     3
 10
-1410.1665498003099
 20
-200.63763313609499
 30
0.0
 11
-1444.3665498003099
 21
-303.83763313609512
 31
0.0
  0
LINE
  5
13B
  8
1
 62
     3
 10
-1410.1665498003099
 20
-303.83763313609512
 30
0.0
 11
-1444.3665498003099
 21
-200.63763313609499
 31
0.0
  0
LINE
  5
13C
  8
1
 62
     7
 10
-1444.3665498003099
 20
-303.83763313609512
 30
0.0
 11
-1444.3665498003099
 21
-283.83763313609512
 31
0.0
  0
LINE
  5
13D
  8
1
 62
     7
 10
-1410.1665498003099
 20
-303.83763313609512
 30
0.0
 11
-1444.3665498003099
 21
-303.83763313609512
 31
0.0
  0
LINE
  5
13E
  8
1
 62
     7
 10
-1410.1665498003099
 20
-200.63763313609499
 30
0.0
 11
-1410.1665498003099
 21
-303.83763313609512
 31
0.0
  0
LINE
  5
13F
  8
1
 62
     3
 10
-1444.3665498003099
 20
-207.83763313609521
 30
0.0
 11
-1396.1665498003099
 21
-207.83763313609521
 31
0.0
  0
LINE
  5
140
  8
1
 62
     7
 10
-1436.3665498003099
 20
-163.83763313609509
 30
0.0
 11
-1490.3665498003099
 21
-163.83763313609501
 31
0.0
  0
LINE
  5
141
  8
1
 62
     7
 10
-1416.3665498003099
 20
-165.83763313609501
 30
0.0
 11
-1436.3665498003099
 21
-165.83763313609509
 31
0.0
  0
LINE
  5
142
  8
1
 62
     7
 10
-1383.3665498003099
 20
-203.83763313609501
 30
0.0
 11
-1381.3665498003099
 21
-201.83763313609501
 31
0.0
  0
LINE
  5
143
  8
1
 62
     7
 10
-1392.1665498003099
 20
-203.83763313609501
 30
0.0
 11
-1392.1665498003099
 21
-201.33763313609501
 31
0.0
  0
LINE
  5
144
  8
1
 62
     7
 10
-1383.3665498003099
 20
-203.83763313609501
 30
0.0
 11
-1392.1665498003099
 21
-203.83763313609501
 31
0.0
  0
LINE
  5
145
  8
1
 62
     7
 10
-1396.1665498003099
 20
-201.33763313609501
 30
0.0
 11
-1392.1665498003099
 21
-201.33763313609501
 31
0.0
  0
LINE
  5
146
  8
1
 62
     7
 10
-1474.3665498003099
 20
-284.63763313609508
 30
0.0
 11
-1474.3665498003099
 21
-215.63763313609499
 31
0.0
  0
LINE
  5
147
  8
1
 62
     7
 10
-1591.3665498003099
 20
-250.83763313609521
 30
0.0
 11
-1591.3665498003099
 21
-195.245959667433
 31
0.0
  0
LINE
  5
148
  8
1
 62
     7
 10
-1569.3665498003099
 20
-250.83763313609521
 30
0.0
 11
-1591.3665498003099
 21
-250.83763313609521
 31
0.0
  0
LINE
  5
149
  8
1
 62
     7
 10
-1584.3665498003099
 20
-226.83763313609509
 30
0.0
 11
-1584.3665498003099
 21
-199.0624064373751
 31
0.0
  0
LINE
  5
14A
  8
1
 62
     7
 10
-1584.3665498003099
 20
-212.83763313609521
 30
0.0
 11
-1579.3665498003099
 21
-212.83763313609521
 31
0.0
  0
LINE
  5
14B
  8
1
 62
     7
 10
-1579.3665498003099
 20
-226.83763313609509
 30
0.0
 11
-1584.3665498003099
 21
-226.83763313609509
 31
0.0
  0
LINE
  5
14C
  8
1
 62
     7
 10
-1591.3665498003099
 20
-223.83763313609489
 30
0.0
 11
-1584.3665498003099
 21
-223.83763313609521
 31
0.0
  0
LINE
  5
14D
  8
1
 62
     7
 10
-1490.3665498003099
 20
-165.83763313609501
 30
0.0
 11
-1510.3665498003099
 21
-165.83763313609509
 31
0.0
  0
LINE
  5
14E
  8
1
 62
     7
 10
-1510.3665498003099
 20
-163.83763313609509
 30
0.0
 11
-1601.3665498003099
 21
-163.83763313609501
 31
0.0
  0
LINE
  5
14F
  8
1
 62
     7
 10
-1381.3665498003099
 20
-163.83763313609501
 30
0.0
 11
-1416.3665498003099
 21
-163.83763313609509
 31
0.0
  0
LINE
  5
150
  8
1
 62
     7
 10
-1583.3665498003099
 20
-183.83763313609521
 30
0.0
 11
-1601.3665498003099
 21
-183.83763313609529
 31
0.0
  0
LINE
  5
151
  8
1
 62
     7
 10
-1497.1665498003099
 20
-186.83763313609521
 30
0.0
 11
-1497.1665498003099
 21
-183.83763313609521
 31
0.0
  0
LINE
  5
152
  8
1
 62
     7
 10
-1444.3665498003099
 20
-186.83763313609501
 30
0.0
 11
-1503.3665498003099
 21
-186.83763313609521
 31
0.0
  0
LINE
  5
153
  8
1
 62
     7
 10
-1472.3665498003099
 20
-283.83763313609512
 30
0.0
 11
-1444.3665498003099
 21
-283.83763313609512
 31
0.0
  0
LINE
  5
154
  8
1
 62
     7
 10
-1472.3665498003099
 20
-214.83763313609521
 30
0.0
 11
-1472.3665498003099
 21
-283.83763313609512
 31
0.0
  0
LINE
  5
155
  8
1
 62
     7
 10
-1501.3665498003099
 20
-214.83763313609521
 30
0.0
 11
-1501.3665498003099
 21
-195.83763313609501
 31
0.0
  0
LINE
  5
156
  8
1
 62
     7
 10
-1501.3665498003099
 20
-214.83763313609521
 30
0.0
 11
-1472.3665498003099
 21
-214.83763313609521
 31
0.0
  0
LINE
  5
157
  8
1
 62
     7
 10
-1501.3665498003099
 20
-195.83763313609501
 30
0.0
 11
-1503.3665498003099
 21
-195.83763313609501
 31
0.0
  0
LINE
  5
158
  8
1
 62
     7
 10
-1454.3665498003099
 20
-289.83763313609501
 30
0.0
 11
-1464.3665498003099
 21
-299.83763313609501
 31
0.0
  0
LINE
  5
159
  8
1
 62
     7
 10
-1583.3665498003099
 20
-181.33763313609521
 30
0.0
 11
-1583.3665498003099
 21
-193.53763313609511
 31
0.0
  0
LINE
  5
15A
  8
1
 62
     7
 10
-1579.3665498003099
 20
-181.33763313609521
 30
0.0
 11
-1583.3665498003099
 21
-181.33763313609521
 31
0.0
  0
LINE
  5
15B
  8
1
 62
     7
 10
-1583.3665498003099
 20
-193.53763313609511
 30
0.0
 11
-1579.3665498003099
 21
-193.53763313609511
 31
0.0
  0
LINE
  5
15C
  8
1
 62
     7
 10
-1474.3665498003099
 20
-215.63763313609499
 30
0.0
 11
-1503.3665498003099
 21
-215.63763313609499
 31
0.0
  0
LINE
  5
15D
  8
1
 62
     7
 10
-1454.3665498003099
 20
-284.63763313609502
 30
0.0
 11
-1474.3665498003099
 21
-284.63763313609508
 31
0.0
  0
LINE
  5
15E
  8
1
 62
     7
 10
-1454.3665498003099
 20
-289.83763313609501
 30
0.0
 11
-1454.3665498003099
 21
-284.63763313609502
 31
0.0
  0
LINE
  5
15F
  8
1
 62
     7
 10
-1464.3665498003099
 20
-299.83763313609501
 30
0.0
 11
-1569.3665498003099
 21
-299.83763313609512
 31
0.0
  0
LINE
  5
160
  8
1
 62
     7
 10
-1422.3665498003099
 20
-165.83763313609501
 30
0.0
 11
-1422.3665498003099
 21
-200.63763313609499
 31
0.0
  0
LINE
  5
161
  8
1
 62
     7
 10
-1430.3665498003099
 20
-200.63763313609499
 30
0.0
 11
-1430.3665498003099
 21
-165.83763313609501
 31
0.0
  0
LINE
  5
162
  8
1
 62
     3
 10
-1426.3665498003099
 20
-162.83763313609501
 30
0.0
 11
-1426.3665498003099
 21
-202.83763313609521
 31
0.0
  0
LINE
  5
163
  8
1
 62
     7
 10
-1497.3665498003099
 20
-165.83763313609501
 30
0.0
 11
-1497.3665498003099
 21
-183.83763313609521
 31
0.0
  0
LINE
  5
164
  8
1
 62
     7
 10
-1503.3665498003099
 20
-223.83763313609489
 30
0.0
 11
-1503.3665498003099
 21
-165.83763313609501
 31
0.0
  0
LINE
  5
165
  8
1
 62
     3
 10
-1500.3665498003099
 20
-162.83763313609501
 30
0.0
 11
-1500.3665498003099
 21
-186.83763313609521
 31
0.0
  0
LINE
  5
166
  8
1
 62
     7
 10
-1579.3665498003099
 20
-181.33763313609521
 30
0.0
 11
-1579.3665498003099
 21
-226.83763313609509
 31
0.0
  0
LINE
  5
167
  8
1
 62
     7
 10
-1444.3665498003099
 20
-186.83763313609501
 30
0.0
 11
-1444.3665498003099
 21
-283.83763313609512
 31
0.0
  0
LINE
  5
168
  8
1
 62
     7
 10
-1497.1665498003099
 20
-183.83763313609521
 30
0.0
 11
-1503.3665498003099
 21
-183.83763313609521
 31
0.0
  0
LINE
  5
169
  8
1
 62
     7
 10
-1569.3665498003099
 20
-250.83763313609521
 30
0.0
 11
-1569.3665498003099
 21
-299.83763313609512
 31
0.0
  0
LINE
  5
16A
  8
1
 62
     7
 10
-1578.8515498003101
 20
176.04652606891489
 30
0.0
 11
-1578.8515498003101
 21
171.04652606891489
 31
0.0
  0
LINE
  5
16B
  8
1
 62
     7
 10
-1580.1665498003099
 20
171.04652606891489
 30
0.0
 11
-1577.53654980031
 21
171.04652606891489
 31
0.0
  0
LINE
  5
16C
  8
1
 62
     7
 10
-1578.0901817202871
 20
176.04652606891489
 30
0.0
 11
-1578.0901817202871
 21
171.04652606891489
 31
0.0
  0
LINE
  5
16D
  8
1
 62
     7
 10
-1578.4663730155121
 20
176.04652606891489
 30
0.0
 11
-1578.4663730155121
 21
171.04652606891489
 31
0.0
  0
LINE
  5
16E
  8
1
 62
     7
 10
-1579.609415797159
 20
176.04652606891489
 30
0.0
 11
-1579.609415797159
 21
171.04652606891489
 31
0.0
  0
LINE
  5
16F
  8
1
 62
     7
 10
-1579.2042867099931
 20
176.04652606891489
 30
0.0
 11
-1579.2042867099931
 21
171.04652606891489
 31
0.0
  0
LINE
  5
170
  8
1
 62
     7
 10
-1580.1665498003099
 20
171.04652606891489
 30
0.0
 11
-1580.1665498003099
 21
77.477366863904976
 31
0.0
  0
LINE
  5
171
  8
1
 62
     7
 10
-1577.53654980031
 20
171.04652606891489
 30
0.0
 11
-1577.53654980031
 21
77.477366863904976
 31
0.0
  0
LINE
  5
172
  8
1
 62
     7
 10
-1584.3665498003099
 20
146.16236686390499
 30
0.0
 11
-1584.3665498003099
 21
53.162366863905049
 31
0.0
  0
LINE
  5
173
  8
1
 62
     7
 10
-1584.3665498003099
 20
146.16236686390499
 30
0.0
 11
-1580.1665498003099
 21
146.16236686390499
 31
0.0
  0
LINE
  5
174
  8
1
 62
     7
 10
-1581.1665498003099
 20
146.16236686390499
 30
0.0
 11
-1581.1665498003099
 21
53.162366863905049
 31
0.0
  0
LINE
  5
175
  8
1
 62
     7
 10
-1584.3665498003099
 20
53.162366863905049
 30
0.0
 11
-1569.3665498003099
 21
53.162366863905049
 31
0.0
  0
LINE
  5
176
  8
1
 62
     7
 10
-1574.53654980031
 20
74.477366863905004
 30
0.0
 11
-1569.3665498003099
 21
74.477366863905004
 31
0.0
  0
LINE
  5
177
  8
1
 62
     7
 10
-1574.53654980031
 20
71.847366863905023
 30
0.0
 11
-1569.3665498003099
 21
71.847366863905023
 31
0.0
  0
LINE
  5
178
  8
1
 62
     7
 10
-1577.53654980031
 20
146.16236686390499
 30
0.0
 11
-1569.3665498003099
 21
146.16236686390499
 31
0.0
  0
LINE
  5
179
  8
1
 62
     7
 10
-1569.3665498003099
 20
146.16236686390499
 30
0.0
 11
-1569.3665498003099
 21
43.162366863905049
 31
0.0
  0
LINE
  5
17A
  8
1
 62
     7
 10
-1791.2968755889001
 20
-3.837633136095008
 30
0.0
 11
-1789.2968755889001
 21
-5.8376331360950067
 31
0.0
  0
LINE
  5
17B
  8
1
 62
     7
 10
-1804.0968755889
 20
76.162366863905049
 30
0.0
 11
-1794.0968755888989
 21
66.162366863905049
 31
0.0
  0
LINE
  5
17C
  8
1
 62
     7
 10
-1804.0968755889
 20
76.162366863905049
 30
0.0
 11
-1818.0968755889
 21
76.162366863905049
 31
0.0
  0
LINE
  5
17D
  8
1
 62
     3
 10
-1818.0968755889
 20
96.162366863905049
 30
0.0
 11
-1852.296875588899
 21
-103.83763313609499
 31
0.0
  0
LINE
  5
17E
  8
1
 62
     3
 10
-1818.0968755889
 20
-103.83763313609499
 30
0.0
 11
-1852.296875588899
 21
96.162366863905049
 31
0.0
  0
LINE
  5
17F
  8
1
 62
     7
 10
-1818.0968755889
 20
96.162366863905049
 30
0.0
 11
-1852.296875588899
 21
96.162366863905049
 31
0.0
  0
LINE
  5
180
  8
1
 62
     7
 10
-1852.296875588899
 20
76.162366863904978
 30
0.0
 11
-1862.2968755889001
 21
76.162366863904978
 31
0.0
  0
LINE
  5
181
  8
1
 62
     7
 10
-1862.2968755889001
 20
82.162366863904978
 30
0.0
 11
-1872.2968755889001
 21
92.162366863905049
 31
0.0
  0
LINE
  5
182
  8
1
 62
     7
 10
-2007.2968755889001
 20
-23.83763313609494
 30
0.0
 11
-2009.2968755889001
 21
-25.837633136094951
 31
0.0
  0
LINE
  5
183
  8
1
 62
     7
 10
-1977.296875588899
 20
92.162366863905049
 30
0.0
 11
-1872.2968755889001
 21
92.162366863905049
 31
0.0
  0
LINE
  5
184
  8
1
 62
     7
 10
-1977.296875588899
 20
43.162366863905049
 30
0.0
 11
-1999.2968755889001
 21
43.162366863905049
 31
0.0
  0
LINE
  5
185
  8
1
 62
     7
 10
-2007.2968755889001
 20
-23.83763313609494
 30
0.0
 11
-1999.2968755889001
 21
-23.83763313609494
 31
0.0
  0
LINE
  5
186
  8
1
 62
     7
 10
-1791.2968755889001
 20
-3.837633136095008
 30
0.0
 11
-1794.0968755888989
 21
-3.837633136095008
 31
0.0
  0
LINE
  5
187
  8
1
 62
     7
 10
-1987.7818755889
 20
176.04652606891489
 30
0.0
 11
-1987.7818755889
 21
171.04652606891489
 31
0.0
  0
LINE
  5
188
  8
1
 62
     7
 10
-1989.0968755889
 20
171.04652606891489
 30
0.0
 11
-1986.4668755888999
 21
171.04652606891489
 31
0.0
  0
LINE
  5
189
  8
1
 62
     7
 10
-1987.0205075088761
 20
176.04652606891489
 30
0.0
 11
-1987.0205075088761
 21
171.04652606891489
 31
0.0
  0
LINE
  5
18A
  8
1
 62
     7
 10
-1987.396698804102
 20
176.04652606891489
 30
0.0
 11
-1987.396698804102
 21
171.04652606891489
 31
0.0
  0
LINE
  5
18B
  8
1
 62
     7
 10
-1988.5397415857481
 20
176.04652606891489
 30
0.0
 11
-1988.5397415857481
 21
171.04652606891489
 31
0.0
  0
LINE
  5
18C
  8
1
 62
     7
 10
-1988.134612498583
 20
176.04652606891489
 30
0.0
 11
-1988.134612498583
 21
171.04652606891489
 31
0.0
  0
LINE
  5
18D
  8
1
 62
     7
 10
-1989.0968755889
 20
146.16236686390499
 30
0.0
 11
-1989.0968755889
 21
171.04652606891489
 31
0.0
  0
LINE
  5
18E
  8
1
 62
     7
 10
-1986.4668755888999
 20
146.16236686390499
 30
0.0
 11
-1986.4668755888999
 21
171.04652606891489
 31
0.0
  0
LINE
  5
18F
  8
1
 62
     7
 10
-1977.296875588899
 20
74.912366863904936
 30
0.0
 11
-1977.296875588899
 21
146.16236686390491
 31
0.0
  0
LINE
  5
190
  8
1
 62
     7
 10
-1992.2968755889001
 20
146.16236686390491
 30
0.0
 11
-1977.296875588899
 21
146.16236686390491
 31
0.0
  0
LINE
  5
191
  8
1
 62
     7
 10
-1992.2968755889001
 20
53.162366863905049
 30
0.0
 11
-1992.2968755889001
 21
146.16236686390491
 31
0.0
  0
LINE
  5
192
  8
1
 62
     7
 10
-1977.296875588899
 20
74.162366863904936
 30
0.0
 11
-1980.4968755888999
 21
74.162366863904936
 31
0.0
  0
LINE
  5
193
  8
1
 62
     7
 10
-1980.4968755888999
 20
53.162366863905049
 30
0.0
 11
-1992.2968755889001
 21
53.162366863905049
 31
0.0
  0
LINE
  5
194
  8
1
 62
     7
 10
-1981.7968755889001
 20
63.462366863905011
 30
0.0
 11
-1980.4968755888999
 21
62.162366863905049
 31
0.0
  0
LINE
  5
195
  8
1
 62
     7
 10
-1981.7968755889001
 20
62.162366863905049
 30
0.0
 11
-1980.4968755888999
 21
60.862366863904967
 31
0.0
  0
LINE
  5
196
  8
1
 62
     7
 10
-1981.7968755889001
 20
66.762366863904944
 30
0.0
 11
-1980.4968755888999
 21
66.762366863904944
 31
0.0
  0
LINE
  5
197
  8
1
 62
     7
 10
-1980.4968755888999
 20
57.562366863905027
 30
0.0
 11
-1981.7968755889001
 21
57.562366863905027
 31
0.0
  0
LINE
  5
198
  8
1
 62
     7
 10
-1986.4968755888999
 20
66.412366863905049
 30
0.0
 11
-1981.7968755889001
 21
66.412366863905049
 31
0.0
  0
LINE
  5
199
  8
1
 62
     7
 10
-1986.7968755889001
 20
65.892751621634261
 30
0.0
 11
-1986.4968755888999
 21
66.412366863905049
 31
0.0
  0
LINE
  5
19A
  8
1
 62
     7
 10
-1986.7968755889001
 20
58.43198210617561
 30
0.0
 11
-1986.7968755889001
 21
65.892751621634261
 31
0.0
  0
LINE
  5
19B
  8
1
 62
     7
 10
-1986.4968755888999
 20
57.912366863905042
 30
0.0
 11
-1986.7968755889001
 21
58.43198210617561
 31
0.0
  0
LINE
  5
19C
  8
1
 62
     7
 10
-1981.7968755889001
 20
57.912366863905042
 30
0.0
 11
-1986.4968755888999
 21
57.912366863905042
 31
0.0
  0
LINE
  5
19D
  8
1
 62
     7
 10
-1986.4968755888999
 20
57.912366863905042
 30
0.0
 11
-1986.4968755888999
 21
66.412366863905049
 31
0.0
  0
LINE
  5
19E
  8
1
 62
     7
 10
-1980.4968755888999
 20
49.56820140992636
 30
0.0
 11
-1980.4968755888999
 21
74.162366863904936
 31
0.0
  0
LINE
  5
19F
  8
1
 62
     7
 10
-1981.7968755889001
 20
57.562366863905027
 30
0.0
 11
-1981.7968755889001
 21
66.762366863904944
 31
0.0
  0
LINE
  5
1A0
  8
1
 62
     7
 10
-1980.4968755888999
 20
49.56820140992636
 30
0.0
 11
-1977.296875588899
 21
49.56820140992636
 31
0.0
  0
LINE
  5
1A1
  8
1
 62
     7
 10
-1474.3665498003099
 20
76.962366863905004
 30
0.0
 11
-1454.3665498003099
 21
76.962366863905018
 31
0.0
  0
ARC
  5
1A2
  8
1
 62
     7
 10
-2378.5326729705889
 20
67.795696274746888
 30
0.0
 40
4.0
 50
0.0
 51
79.597878991054884
  0
ARC
  5
1A3
  8
1
 62
     7
 10
-2430.5326729705898
 20
67.795696274746888
 30
0.0
 40
3.9999999999997962
 50
100.4021210089516
 51
180.0
  0
ARC
  5
1A4
  8
1
 62
     7
 10
-2379.5326729705898
 20
55.773323190906922
 30
0.0
 40
5.0000000000000471
 50
259.08258268418302
 51
0.0
  0
ARC
  5
1A5
  8
1
 62
     7
 10
-2429.5326729705889
 20
55.773323190906922
 30
0.0
 40
5.0
 50
180.0
 51
280.91741731581692
  0
ARC
  5
1A6
  8
1
 62
     7
 10
-994.49269595464989
 20
-103.83763313609499
 30
0.0
 40
59.999999999999972
 50
105.4660099534204
 51
74.533990046579461
  0
ARC
  5
1A7
  8
1
 62
     7
 10
-994.49269595464989
 20
-103.83763313609499
 30
0.0
 40
196.0000000000002
 50
142.67190203010841
 51
157.32809796989179
  0
ARC
  5
1A8
  8
1
 62
     7
 10
-994.49269595464989
 20
-103.83763313609499
 30
0.0
 40
195.9999999999996
 50
202.67190203010821
 51
217.32809796989179
  0
ARC
  5
1A9
  8
1
 62
     7
 10
-994.49269595464989
 20
-103.83763313609499
 30
0.0
 40
195.9999999999998
 50
262.6719020301083
 51
277.32809796989159
  0
ARC
  5
1AA
  8
1
 62
     7
 10
-994.49269595464989
 20
-103.83763313609499
 30
0.0
 40
195.99999999999989
 50
322.67190203010807
 51
337.32809796989159
  0
ARC
  5
1AB
  8
1
 62
     7
 10
-994.49269595464989
 20
-103.83763313609499
 30
0.0
 40
195.99999999999989
 50
22.671902030108271
 51
37.328097969891743
  0
ARC
  5
1AC
  8
1
 62
     7
 10
-994.49269595464989
 20
-103.83763313609499
 30
0.0
 40
196.0
 50
82.671902030108257
 51
97.328097969891715
  0
ARC
  5
1AD
  8
1
 62
     7
 10
-994.49269595464989
 20
-103.83763313609499
 30
0.0
 40
199.9999999999998
 50
157.18075578145829
 51
202.8192442185416
  0
ARC
  5
1AE
  8
1
 62
     7
 10
-994.49269595464989
 20
-103.83763313609499
 30
0.0
 40
199.99999999999989
 50
217.18075578145829
 51
262.81924421854171
  0
ARC
  5
1AF
  8
1
 62
     7
 10
-994.49269595464989
 20
-103.83763313609499
 30
0.0
 40
199.99999999999989
 50
277.18075578145829
 51
322.81924421854183
  0
ARC
  5
1B0
  8
1
 62
     7
 10
-994.49269595464989
 20
-103.83763313609499
 30
0.0
 40
200.0
 50
337.18075578145829
 51
22.819244218541691
  0
ARC
  5
1B1
  8
1
 62
     7
 10
-994.49269595464989
 20
-103.83763313609499
 30
0.0
 40
200.0
 50
37.180755781458252
 51
82.819244218541741
  0
ARC
  5
1B2
  8
1
 62
     7
 10
-994.49269595464989
 20
-103.83763313609499
 30
0.0
 40
200.0
 50
97.180755781458245
 51
142.8192442185416
  0
ARC
  5
1B3
  8
1
 62
     7
 10
-2385.9801846819059
 20
79.402168439651305
 30
0.0
 40
6.3850039609233082
 50
236.1941838747463
 51
268.38575406783713
  0
ARC
  5
1B4
  8
1
 62
     7
 10
-2423.0851612592728
 20
79.402168439651305
 30
0.0
 40
6.3850039609234646
 50
271.61424593215872
 51
303.8058161252531
  0
ARC
  5
1B5
  8
1
 62
     7
 10
-2404.5326729705898
 20
-73.837633136094951
 30
0.0
 40
126.9999999999999
 50
79.082582684186221
 51
100.91741731581369
  0
ARC
  5
1B6
  8
1
 62
     7
 10
-2404.5326729705898
 20
-73.837633136094951
 30
0.0
 40
147.99999999999989
 50
79.597878991048304
 51
82.819244218541684
  0
ARC
  5
1B7
  8
1
 62
     7
 10
-2404.5326729705898
 20
-73.837633136094951
 30
0.0
 40
147.99999999999989
 50
97.180755781458302
 51
100.40212100895189
  0
ARC
  5
1B8
  8
1
 62
     7
 10
-2404.5326729705898
 20
-103.83763313609499
 30
0.0
 40
60.0
 50
105.4660099534206
 51
74.533990046579461
  0
ARC
  5
1B9
  8
1
 62
     7
 10
-2404.5326729705898
 20
-103.83763313609499
 30
0.0
 40
200.0
 50
97.180755781458302
 51
142.8192442185418
  0
ARC
  5
1BA
  8
1
 62
     7
 10
-2404.5326729705898
 20
-103.83763313609499
 30
0.0
 40
195.9999999999996
 50
94.389172732955046
 51
85.610827267044954
  0
ARC
  5
1BB
  8
1
 62
     7
 10
-2404.5326729705898
 20
-103.83763313609499
 30
0.0
 40
200.00000000000031
 50
157.18075578145829
 51
202.8192442185416
  0
ARC
  5
1BC
  8
1
 62
     7
 10
-2404.5326729705898
 20
-103.83763313609499
 30
0.0
 40
200.00000000000031
 50
217.18075578145829
 51
262.8192442185416
  0
ARC
  5
1BD
  8
1
 62
     7
 10
-2404.5326729705898
 20
-103.83763313609499
 30
0.0
 40
200.00000000000031
 50
277.18075578145829
 51
322.8192442185416
  0
ARC
  5
1BE
  8
1
 62
     7
 10
-2404.5326729705898
 20
-103.83763313609499
 30
0.0
 40
199.99999999999989
 50
337.18075578145817
 51
22.819244218541701
  0
ARC
  5
1BF
  8
1
 62
     7
 10
-2404.5326729705898
 20
-103.83763313609499
 30
0.0
 40
199.99999999999989
 50
37.180755781458288
 51
82.819244218541684
  0
ARC
  5
1C0
  8
1
 62
     7
 10
-2404.5326729705898
 20
-103.83763313609499
 30
0.0
 40
182.0
 50
94.727542062873098
 51
85.272457937126902
  0
ARC
  5
1C1
  8
1
 62
     7
 10
-2404.5326729705898
 20
-103.83763313609499
 30
0.0
 40
184.0
 50
94.676040710596226
 51
85.32395928940376
  0
ARC
  5
1C2
  8
1
 62
     7
 10
-2404.5326729705898
 20
-103.83763313609499
 30
0.0
 40
193.0
 50
94.457535134695647
 51
85.542464865304339
  0
ARC
  5
1C3
  8
1
 62
     7
 10
-1574.53654980031
 20
77.477366863905004
 30
0.0
 40
3.0
 50
180.0
 51
270.0
  0
ARC
  5
1C4
  8
1
 62
     7
 10
-1574.53654980031
 20
77.477366863905004
 30
0.0
 40
5.6299999999998827
 50
180.0
 51
270.0
  0
CIRCLE
  5
1C5
  8
1
 62
     7
 10
-994.49269595464989
 20
-103.83763313609499
 30
0.0
 40
100.0
  0
CIRCLE
  5
1C6
  8
1
 62
     7
 10
-994.49269595464989
 20
-103.83763313609499
 30
0.0
 40
114.5
  0
CIRCLE
  5
1C7
  8
1
 62
     7
 10
-994.49269595464989
 20
-103.83763313609499
 30
0.0
 40
119.5
  0
CIRCLE
  5
1C8
  8
1
 62
     7
 10
-994.49269595464989
 20
-103.83763313609499
 30
0.0
 40
170.0
  0
CIRCLE
  5
1C9
  8
1
 62
     7
 10
-994.49269595464989
 20
-103.83763313609499
 30
0.0
 40
180.0
  0
CIRCLE
  5
1CA
  8
1
 62
     7
 10
-2426.5326729705889
 20
62.162366863905049
 30
0.0
 40
4.25
  0
CIRCLE
  5
1CB
  8
1
 62
     7
 10
-2382.5326729705898
 20
62.162366863905049
 30
0.0
 40
4.25
  0
CIRCLE
  5
1CC
  8
1
 62
     7
 10
-2404.5326729705898
 20
-103.83763313609499
 30
0.0
 40
120.0
  0
CIRCLE
  5
1CD
  8
1
 62
     7
 10
-2404.5326729705898
 20
-103.83763313609499
 30
0.0
 40
147.0
  0
CIRCLE
  5
1CE
  8
1
 62
     7
 10
-2286.445840512436
 20
14.249199322058431
 30
0.0
 40
10.749999999999989
  0
CIRCLE
  5
1CF
  8
1
 62
     7
 10
-2286.445840512436
 20
14.249199322058431
 30
0.0
 40
9.0
  0
CIRCLE
  5
1D0
  8
1
 62
     7
 10
-2522.6195054287441
 20
14.249199322058301
 30
0.0
 40
10.749999999999989
  0
CIRCLE
  5
1D1
  8
1
 62
     7
 10
-2522.6195054287441
 20
14.249199322058301
 30
0.0
 40
9.0
  0
CIRCLE
  5
1D2
  8
1
 62
     7
 10
-2522.6195054287432
 20
-221.9244655942486
 30
0.0
 40
10.749999999999989
  0
CIRCLE
  5
1D3
  8
1
 62
     7
 10
-2522.6195054287432
 20
-221.9244655942486
 30
0.0
 40
9.0
  0
CIRCLE
  5
1D4
  8
1
 62
     7
 10
-2286.445840512436
 20
-221.9244655942484
 30
0.0
 40
10.749999999999989
  0
CIRCLE
  5
1D5
  8
1
 62
     7
 10
-2286.445840512436
 20
-221.9244655942484
 30
0.0
 40
9.0
  0
CIRCLE
  5
1D6
  8
1
 62
     7
 10
-1560.3665498003099
 20
-3.8376331360949512
 30
0.0
 40
12.0
  0
CIRCLE
  5
1D7
  8
1
 62
     7
 10
-1522.3665498003099
 20
-3.8376331360949512
 30
0.0
 40
12.0
  0
CIRCLE
  5
1D8
  8
1
 62
     7
 10
-1560.3665498003099
 20
-203.83763313609509
 30
0.0
 40
12.0
  0
CIRCLE
  5
1D9
  8
1
 62
     7
 10
-1522.3665498003099
 20
-203.83763313609509
 30
0.0
 40
12.0
  0
CIRCLE
  5
1DA
  8
1
 62
     7
 10
-2404.5326729705898
 20
-103.83763313609499
 30
0.0
 40
80.0
  0
ARC
  5
1DB
  8
1
 62
     7
 10
-1394.1665498003099
 20
8.6623668639050475
 30
0.0
 40
2.0
 50
90.0
 51
180.0
  0
ARC
  5
1DC
  8
1
 62
     7
 10
-1394.1665498003099
 20
-216.33763313609509
 30
0.0
 40
2.0
 50
180.0
 51
270.0
  0
TEXT
  5
1DE
  8
1
 62
     7
 10
-2562.2383153790101
 20
347.688122283057
 30
0.0
 40
22.0
  1
MWC 450
 41
0.9
  7
SIMPLEX
  0
ENDSEC
  0
EOF
