  0
SECTION
  2
HEADER
  9
$ACADVER
  1
AC1009
  9
$INSBASE
 10
0.0
 20
0.0
 30
0.0
  9
$EXTMIN
 10
-692.52118214728887
 20
-132.74113506257069
 30
0.0
  9
$EXTMAX
 10
-195.52118214728901
 20
44.046551779546903
 30
0.0
  9
$LIMMIN
 10
-692.52118214728876
 20
-130.67721510971691
  9
$LIMMAX
 10
-195.52118214728901
 20
44.046551779546903
  9
$ORTHOMODE
 70
     0
  9
$REGENMODE
 70
     1
  9
$FILLMODE
 70
     1
  9
$QTEXTMODE
 70
     0
  9
$MIRRTEXT
 70
     1
  9
$DRAGMODE
 70
     2
  9
$LTSCALE
 40
1.0
  9
$OSMODE
 70
    37
  9
$ATTMODE
 70
     1
  9
$TEXTSIZE
 40
3.5
  9
$TRACEWID
 40
0.5
  9
$TEXTSTYLE
  7
STANDARD
  9
$CLAYER
  8
0
  9
$CELTYPE
  6
BYLAYER
  9
$CECOLOR
 62
   256
  9
$DIMSCALE
 40
1.0
  9
$DIMASZ
 40
0.18
  9
$DIMEXO
 40
0.0625
  9
$DIMDLI
 40
0.38
  9
$DIMRND
 40
0.0
  9
$DIMDLE
 40
0.0
  9
$DIMEXE
 40
0.18
  9
$DIMTP
 40
0.0
  9
$DIMTM
 40
0.0
  9
$DIMTXT
 40
0.18
  9
$DIMCEN
 40
0.09
  9
$DIMTSZ
 40
0.0
  9
$DIMTOL
 70
     0
  9
$DIMLIM
 70
     0
  9
$DIMTIH
 70
     1
  9
$DIMTOH
 70
     1
  9
$DIMSE1
 70
     0
  9
$DIMSE2
 70
     0
  9
$DIMTAD
 70
     0
  9
$DIMZIN
 70
     0
  9
$DIMBLK
  1

  9
$DIMASO
 70
     1
  9
$DIMSHO
 70
     1
  9
$DIMPOST
  1

  9
$DIMAPOST
  1

  9
$DIMALT
 70
     0
  9
$DIMALTD
 70
     2
  9
$DIMALTF
 40
25.399999999999999
  9
$DIMLFAC
 40
1.0
  9
$DIMTOFL
 70
     0
  9
$DIMTVP
 40
0.0
  9
$DIMTIX
 70
     0
  9
$DIMSOXD
 70
     0
  9
$DIMSAH
 70
     0
  9
$DIMBLK1
  1

  9
$DIMBLK2
  1

  9
$DIMSTYLE
  2
STANDARD
  9
$DIMCLRD
 70
     0
  9
$DIMCLRE
 70
     0
  9
$DIMCLRT
 70
     0
  9
$DIMTFAC
 40
1.0
  9
$DIMGAP
 40
0.09
  9
$LUNITS
 70
     2
  9
$LUPREC
 70
     4
  9
$SKETCHINC
 40
0.1
  9
$FILLETRAD
 40
2.0
  9
$AUNITS
 70
     0
  9
$AUPREC
 70
     0
  9
$MENU
  1
ACAD
  9
$ELEVATION
 40
0.0
  9
$PELEVATION
 40
0.0
  9
$THICKNESS
 40
0.0
  9
$LIMCHECK
 70
     0
  9
$BLIPMODE
 70
     0
  9
$CHAMFERA
 40
0.0
  9
$CHAMFERB
 40
0.0
  9
$SKPOLY
 70
     0
  9
$TDCREATE
 40
2452095.036176967
  9
$TDUPDATE
 40
2452095.0369284721
  9
$TDINDWG
 40
0.0008289352
  9
$TDUSRTIMER
 40
0.0008289352
  9
$USRTIMER
 70
     1
  9
$ANGBASE
 50
0.0
  9
$ANGDIR
 70
     0
  9
$PDMODE
 70
     0
  9
$PDSIZE
 40
0.0
  9
$PLINEWID
 40
0.0
  9
$COORDS
 70
     1
  9
$SPLFRAME
 70
     0
  9
$SPLINETYPE
 70
     6
  9
$SPLINESEGS
 70
     8
  9
$ATTDIA
 70
     0
  9
$ATTREQ
 70
     1
  9
$HANDLING
 70
 10241
  9
$HANDSEED
  5
186
  9
$SURFTAB1
 70
     6
  9
$SURFTAB2
 70
     6
  9
$SURFTYPE
 70
     6
  9
$SURFU
 70
     6
  9
$SURFV
 70
     6
  9
$UCSNAME
  2

  9
$UCSORG
 10
0.0
 20
0.0
 30
0.0
  9
$UCSXDIR
 10
1.0
 20
0.0
 30
0.0
  9
$UCSYDIR
 10
0.0
 20
1.0
 30
0.0
  9
$PUCSNAME
  2

  9
$PUCSORG
 10
0.0
 20
0.0
 30
0.0
  9
$PUCSXDIR
 10
1.0
 20
0.0
 30
0.0
  9
$PUCSYDIR
 10
0.0
 20
1.0
 30
0.0
  9
$USERI1
 70
     0
  9
$USERI2
 70
     0
  9
$USERI3
 70
     0
  9
$USERI4
 70
     0
  9
$USERI5
 70
     0
  9
$USERR1
 40
0.0
  9
$USERR2
 40
0.0
  9
$USERR3
 40
0.0
  9
$USERR4
 40
0.0
  9
$USERR5
 40
0.0
  9
$WORLDVIEW
 70
     1
  9
$SHADEDGE
 70
     3
  9
$SHADEDIF
 70
    70
  9
$TILEMODE
 70
     1
  9
$MAXACTVP
 70
    64
  9
$PLIMCHECK
 70
     0
  9
$PEXTMIN
 10
1.0000000000000000E+020
 20
1.0000000000000000E+020
 30
1.0000000000000000E+020
  9
$PEXTMAX
 10
-1.0000000000000000E+020
 20
-1.0000000000000000E+020
 30
-1.0000000000000000E+020
  9
$PLIMMIN
 10
0.0
 20
0.0
  9
$PLIMMAX
 10
12.0
 20
9.0
  9
$UNITMODE
 70
     0
  9
$VISRETAIN
 70
     1
  9
$PLINEGEN
 70
     0
  9
$PSLTSCALE
 70
     1
  0
ENDSEC
  0
SECTION
  2
TABLES
  0
TABLE
  2
VPORT
 70
     2
  0
VPORT
  2
*ACTIVE
 70
     0
 10
0.0
 20
0.0
 11
1.0
 21
1.0
 12
-667.03128192487986
 22
31.135538337199609
 13
0.0
 23
0.0
 14
1.0
 24
1.0
 15
0.0
 25
0.0
 16
0.0
 26
0.0
 36
1.0
 17
0.0
 27
0.0
 37
0.0
 40
9.0000002524971556
 41
2.4144144144144142
 42
50.0
 43
0.0
 44
0.0
 50
0.0
 51
0.0
 71
     0
 72
   100
 73
     1
 74
     1
 75
     0
 76
     0
 77
     0
 78
     0
  0
ENDTAB
  0
TABLE
  2
LTYPE
 70
     9
  0
LTYPE
  2
CONTINUOUS
 70
     0
  3
Solid line
 72
    65
 73
     0
 40
0.0
  0
LTYPE
  2
BORDER
 70
     0
  3
__ __ . __ __ .
 72
    65
 73
     6
 40
22.888157894736828
 49
6.5394736842105248
 49
-3.2697368421052611
 49
6.5394736842105248
 49
-3.2697368421052611
 49
0.0
 49
-3.2697368421052611
  0
LTYPE
  2
CENTER
 70
     0
  3
____ _ ____ _
 72
    65
 73
     4
 40
26.157894736842099
 49
16.348684210526311
 49
-3.2697368421052611
 49
3.2697368421052611
 49
-3.2697368421052611
  0
LTYPE
  2
DASHDOT
 70
     0
  3
__ . __ . __ .
 72
    65
 73
     4
 40
13.07894736842105
 49
6.5394736842105248
 49
-3.2697368421052611
 49
0.0
 49
-3.2697368421052611
  0
LTYPE
  2
DASHED
 70
     0
  3
__ __ __ __ __
 72
    65
 73
     2
 40
9.8092105263157876
 49
6.5394736842105248
 49
-3.2697368421052611
  0
LTYPE
  2
DIVIDE
 70
     0
  3
__ . . __ . . 
 72
    65
 73
     6
 40
16.348684210526311
 49
6.5394736842105248
 49
-3.2697368421052611
 49
0.0
 49
-3.2697368421052611
 49
0.0
 49
-3.2697368421052611
  0
LTYPE
  2
DOT
 70
     0
  3
..............
 72
    65
 73
     4
 40
6.5394736842105248
 49
0.0
 49
-3.2697368421052611
 49
0.0
 49
-3.2697368421052611
  0
LTYPE
  2
HIDDEN
 70
     0
  3
_ _ _ _ _ _ _
 72
    65
 73
     2
 40
4.9046052631578929
 49
3.2697368421052611
 49
-1.6348684210526301
  0
LTYPE
  2
PHANTOM
 70
     0
  3
_____ _ _ _____ _ _ 
 72
    65
 73
     6
 40
32.697368421052623
 49
16.348684210526311
 49
-3.2697368421052611
 49
3.2697368421052611
 49
-3.2697368421052611
 49
3.2697368421052611
 49
-3.2697368421052611
  0
ENDTAB
  0
TABLE
  2
LAYER
 70
     2
  0
LAYER
  2
0
 70
     0
 62
     7
  6
CONTINUOUS
  0
LAYER
  2
1
 70
     0
 62
     7
  6
CONTINUOUS
  0
ENDTAB
  0
TABLE
  2
STYLE
 70
     4
  0
STYLE
  2
STANDARD
 70
     0
 40
0.0
 41
1.0
 50
0.0
 71
     0
 42
3.5
  3
txt
  4

  0
STYLE
  2
SIMPLEX
 70
     0
 40
0.0
 41
1.0
 50
0.0
 71
     0
 42
3.5
  3
simplex
  4

  0
STYLE
  2
COMPLEX
 70
     0
 40
0.0
 41
1.0
 50
0.0
 71
     0
 42
3.5
  3
complex
  4

  0
STYLE
  2
ITALIC
 70
     0
 40
0.0
 41
1.0
 50
0.0
 71
     0
 42
3.5
  3
italic
  4

  0
ENDTAB
  0
TABLE
  2
VIEW
 70
     0
  0
ENDTAB
  0
TABLE
  2
UCS
 70
     0
  0
ENDTAB
  0
TABLE
  2
APPID
 70
     1
  0
APPID
  2
ACAD
 70
     0
  0
ENDTAB
  0
TABLE
  2
DIMSTYLE
 70
     1
  0
DIMSTYLE
  2
STANDARD
 70
     0
  3

  4

  5

  6

  7

 40
1.0
 41
0.18
 42
0.0625
 43
0.38
 44
0.18
 45
0.0
 46
0.0
 47
0.0
 48
0.0
140
0.18
141
0.09
142
0.0
143
25.399999999999999
144
1.0
145
0.0
146
1.0
147
0.09
 71
     0
 72
     0
 73
     1
 74
     1
 75
     0
 76
     0
 77
     0
 78
     0
170
     0
171
     2
172
     0
173
     0
174
     0
175
     0
176
     0
177
     0
178
     0
  0
ENDTAB
  0
ENDSEC
  0
SECTION
  2
BLOCKS
  0
BLOCK
  8
0
  2
$MODEL_SPACE
 70
     0
 10
0.0
 20
0.0
 30
0.0
  3
$MODEL_SPACE
  1

  0
ENDBLK
  5
20
  8
0
  0
BLOCK
 67
     1
  8
0
  2
$PAPER_SPACE
 70
     0
 10
0.0
 20
0.0
 30
0.0
  3
$PAPER_SPACE
  1

  0
ENDBLK
  5
1C
 67
     1
  8
0
  0
ENDSEC
  0
SECTION
  2
ENTITIES
  0
LINE
  5
33
  8
1
 62
     7
 10
-418.52118214728893
 20
-46.912257584214601
 30
0.0
 11
-418.52118214728893
 21
-37.464691192718888
 31
0.0
  0
LINE
  5
34
  8
1
 62
     3
 10
-418.52118214728893
 20
-72.464691192718902
 30
0.0
 11
-421.52118214728893
 21
-72.464691192718902
 31
0.0
  0
LINE
  5
35
  8
1
 62
     3
 10
-361.52118214728898
 20
-72.464691192718902
 30
0.0
 11
-358.52118214728893
 21
-72.464691192718902
 31
0.0
  0
LINE
  5
36
  8
1
 62
     7
 10
-391.52118214728893
 20
-51.964691192718909
 30
0.0
 11
-379.22118214728891
 21
-51.964691192718909
 31
0.0
  0
LINE
  5
37
  8
1
 62
     7
 10
-364.52118214728893
 20
-45.464691192718917
 30
0.0
 11
-367.52118214728893
 21
-45.464691192718917
 31
0.0
  0
LINE
  5
38
  8
1
 62
     7
 10
-361.52118214728898
 20
-49.464691192718909
 30
0.0
 11
-379.22118214728891
 21
-49.464691192718909
 31
0.0
  0
LINE
  5
39
  8
1
 62
     7
 10
-367.52118214728893
 20
-48.864691192718922
 30
0.0
 11
-364.52118214728893
 21
-48.864691192718922
 31
0.0
  0
LINE
  5
3A
  8
1
 62
     7
 10
-364.52118214728893
 20
-45.864691192718922
 30
0.0
 11
-379.22118214728891
 21
-45.864691192718922
 31
0.0
  0
LINE
  5
3B
  8
1
 62
     7
 10
-386.52118214728898
 20
-35.464691192718917
 30
0.0
 11
-386.72118214728891
 21
-35.464691192718917
 31
0.0
  0
LINE
  5
3C
  8
1
 62
     7
 10
-391.52118214728893
 20
-52.464691192718909
 30
0.0
 11
-391.52118214728893
 21
-41.464691192718917
 31
0.0
  0
LINE
  5
3D
  8
1
 62
     7
 10
-417.02118214728893
 20
-39.964691192718917
 30
0.0
 11
-415.52118214728898
 21
-39.964691192718917
 31
0.0
  0
LINE
  5
3E
  8
1
 62
     7
 10
-417.32118214728888
 20
-53.714691192718909
 30
0.0
 11
-415.52118214728898
 21
-53.714691192718909
 31
0.0
  0
LINE
  5
3F
  8
1
 62
     7
 10
-415.52118214728898
 20
-48.627781319006807
 30
0.0
 11
-417.32118214728888
 21
-48.627781319006807
 31
0.0
  0
LINE
  5
40
  8
1
 62
     7
 10
-417.32118214728888
 20
-53.714691192718909
 30
0.0
 11
-417.32118214728888
 21
-48.627781319006807
 31
0.0
  0
LINE
  5
41
  8
1
 62
     7
 10
-403.52118214728898
 20
-52.464691192718909
 30
0.0
 11
-403.52118214728898
 21
-41.464691192718917
 31
0.0
  0
LINE
  5
42
  8
1
 62
     7
 10
-415.52118214728898
 20
-53.714691192718909
 30
0.0
 11
-415.52118214728898
 21
-39.964691192718917
 31
0.0
  0
LINE
  5
43
  8
1
 62
     7
 10
-415.52118214728898
 20
-49.82257502520752
 30
0.0
 11
-411.1711821472889
 21
-49.82257502520757
 31
0.0
  0
LINE
  5
44
  8
1
 62
     7
 10
-399.1711821472889
 20
-49.82257502520757
 30
0.0
 11
-407.87118214728889
 21
-49.82257502520757
 31
0.0
  0
LINE
  5
45
  8
1
 62
     7
 10
-417.02118214728893
 20
-44.106807360230292
 30
0.0
 11
-411.1711821472889
 21
-44.106807360230249
 31
0.0
  0
LINE
  5
46
  8
1
 62
     7
 10
-391.52118214728893
 20
-41.464691192718917
 30
0.0
 11
-415.52118214728898
 21
-41.464691192718917
 31
0.0
  0
LINE
  5
47
  8
1
 62
     7
 10
-391.52118214728893
 20
-52.464691192718909
 30
0.0
 11
-415.52118214728898
 21
-52.464691192718909
 31
0.0
  0
LINE
  5
48
  8
1
 62
     7
 10
-391.52118214728893
 20
-49.82257502520752
 30
0.0
 11
-395.87118214728889
 21
-49.82257502520757
 31
0.0
  0
LINE
  5
49
  8
1
 62
     7
 10
-391.52118214728893
 20
-44.106807360230292
 30
0.0
 11
-395.87118214728889
 21
-44.106807360230249
 31
0.0
  0
LINE
  5
4A
  8
1
 62
     7
 10
-407.87118214728889
 20
-44.106807360230249
 30
0.0
 11
-399.1711821472889
 21
-44.106807360230249
 31
0.0
  0
LINE
  5
4B
  8
1
 62
     7
 10
-364.52118214728893
 20
-47.464691192718917
 30
0.0
 11
-363.02118214728893
 21
-47.464691192718917
 31
0.0
  0
LINE
  5
4C
  8
1
 62
     7
 10
-418.52118214728893
 20
-52.464691192718909
 30
0.0
 11
-417.32118214728888
 21
-52.464691192718909
 31
0.0
  0
LINE
  5
4D
  8
1
 62
     7
 10
-363.02118214728893
 20
-45.864691192718922
 30
0.0
 11
-361.52118214728898
 21
-45.864691192718922
 31
0.0
  0
LINE
  5
4E
  8
1
 62
     7
 10
-361.52118214728898
 20
-57.464691192718909
 30
0.0
 11
-370.52118214728893
 21
-57.464691192718909
 31
0.0
  0
LINE
  5
4F
  8
1
 62
     7
 10
-376.52118214728898
 20
-56.964691192718909
 30
0.0
 11
-370.52118214728893
 21
-56.964691192718909
 31
0.0
  0
LINE
  5
50
  8
1
 62
     7
 10
-388.02118214728893
 20
-57.464691192718909
 30
0.0
 11
-376.52118214728898
 21
-57.464691192718909
 31
0.0
  0
LINE
  5
51
  8
1
 62
     7
 10
-394.02118214728893
 20
-56.964691192718909
 30
0.0
 11
-388.02118214728893
 21
-56.964691192718909
 31
0.0
  0
LINE
  5
52
  8
1
 62
     7
 10
-418.52118214728893
 20
-57.464691192718909
 30
0.0
 11
-394.02118214728893
 21
-57.464691192718909
 31
0.0
  0
LINE
  5
53
  8
1
 62
     7
 10
-394.02118214728893
 20
-56.964691192718909
 30
0.0
 11
-394.02118214728893
 21
-87.964691192718902
 31
0.0
  0
LINE
  5
54
  8
1
 62
     7
 10
-388.02118214728893
 20
-56.964691192718909
 30
0.0
 11
-388.02118214728893
 21
-87.964691192718902
 31
0.0
  0
LINE
  5
55
  8
1
 62
     7
 10
-376.52118214728898
 20
-56.964691192718909
 30
0.0
 11
-376.52118214728898
 21
-87.964691192718902
 31
0.0
  0
LINE
  5
56
  8
1
 62
     7
 10
-370.52118214728893
 20
-56.964691192718909
 30
0.0
 11
-370.52118214728893
 21
-87.964691192718902
 31
0.0
  0
LINE
  5
57
  8
1
 62
     7
 10
-385.72118214728891
 20
-22.21469119271892
 30
0.0
 11
-379.22118214728891
 21
-22.21469119271892
 31
0.0
  0
LINE
  5
58
  8
1
 62
     7
 10
-385.72118214728891
 20
-27.46469119271892
 30
0.0
 11
-385.72118214728891
 21
-22.21469119271892
 31
0.0
  0
LINE
  5
59
  8
1
 62
     7
 10
-384.72118214728891
 20
-27.46469119271892
 30
0.0
 11
-385.72118214728891
 21
-27.46469119271892
 31
0.0
  0
LINE
  5
5A
  8
1
 62
     7
 10
-384.72118214728891
 20
-44.214691192718917
 30
0.0
 11
-384.72118214728891
 21
-27.46469119271892
 31
0.0
  0
LINE
  5
5B
  8
1
 62
     7
 10
-391.02118214728898
 20
-44.214691192718917
 30
0.0
 11
-384.72118214728891
 21
-44.214691192718917
 31
0.0
  0
LINE
  5
5C
  8
1
 62
     7
 10
-391.02118214728898
 20
-49.964691192718909
 30
0.0
 11
-391.02118214728898
 21
-44.214691192718917
 31
0.0
  0
LINE
  5
5D
  8
1
 62
     7
 10
-391.52118214728893
 20
-49.964691192718909
 30
0.0
 11
-391.02118214728898
 21
-49.964691192718909
 31
0.0
  0
LINE
  5
5E
  8
1
 62
     7
 10
-364.02118214728898
 20
-21.964691192718909
 30
0.0
 11
-367.52118214728893
 21
-21.964691192718909
 31
0.0
  0
LINE
  5
5F
  8
1
 62
     7
 10
-362.51520548086057
 20
-34.22988687655733
 30
0.0
 11
-364.02118214728898
 21
-21.964691192718909
 31
0.0
  0
LINE
  5
60
  8
1
 62
     7
 10
-362.52118214728893
 20
-34.229886876557359
 30
0.0
 11
-362.52118214728893
 21
-43.464691192718917
 31
0.0
  0
LINE
  5
61
  8
1
 62
     7
 10
-364.52118214728893
 20
-43.464691192718917
 30
0.0
 11
-362.52118214728893
 21
-43.464691192718917
 31
0.0
  0
LINE
  5
62
  8
1
 62
     7
 10
-364.52118214728893
 20
-48.864691192718922
 30
0.0
 11
-364.52118214728893
 21
-43.464691192718917
 31
0.0
  0
LINE
  5
63
  8
1
 62
     7
 10
-364.52118214728893
 20
-44.077550904949113
 30
0.0
 11
-363.02118214728893
 21
-44.077550904949113
 31
0.0
  0
LINE
  5
64
  8
1
 62
     7
 10
-363.02118214728893
 20
-47.464691192718917
 30
0.0
 11
-363.02118214728893
 21
-44.077550904949113
 31
0.0
  0
LINE
  5
65
  8
1
 62
     7
 10
-379.22118214728891
 20
-16.46469119271892
 30
0.0
 11
-379.22118214728891
 21
-51.964691192718909
 31
0.0
  0
LINE
  5
66
  8
1
 62
     7
 10
-367.52118214728893
 20
-16.46469119271892
 30
0.0
 11
-367.52118214728893
 21
-49.464691192718909
 31
0.0
  0
LINE
  5
67
  8
1
 62
     7
 10
-379.22118214728891
 20
-16.46469119271892
 30
0.0
 11
-367.52118214728893
 21
-16.46469119271892
 31
0.0
  0
LINE
  5
68
  8
1
 62
     7
 10
-418.52118214728893
 20
-41.464691192718917
 30
0.0
 11
-417.02118214728893
 21
-41.464691192718917
 31
0.0
  0
LINE
  5
69
  8
1
 62
     7
 10
-380.72118214728891
 20
-21.46469119271892
 30
0.0
 11
-380.72118214728891
 21
-20.46469119271892
 31
0.0
  0
LINE
  5
6A
  8
1
 62
     7
 10
-386.72118214728891
 20
-21.46469119271892
 30
0.0
 11
-380.72118214728891
 21
-21.46469119271892
 31
0.0
  0
LINE
  5
6B
  8
1
 62
     7
 10
-385.52118214728893
 20
-43.464691192718917
 30
0.0
 11
-385.52118214728893
 21
-36.464691192718917
 31
0.0
  0
LINE
  5
6C
  8
1
 62
     7
 10
-391.52118214728893
 20
-43.464691192718917
 30
0.0
 11
-385.52118214728893
 21
-43.464691192718917
 31
0.0
  0
LINE
  5
6D
  8
1
 62
     7
 10
-417.02118214728893
 20
-44.106807360230292
 30
0.0
 11
-417.02118214728893
 21
-39.964691192718917
 31
0.0
  0
LINE
  5
6E
  8
1
 62
     7
 10
-383.72118214728891
 20
-17.46469119271892
 30
0.0
 11
-380.72118214728891
 21
-20.46469119271892
 31
0.0
  0
LINE
  5
6F
  8
1
 62
     7
 10
-386.52118214728898
 20
-35.464691192718917
 30
0.0
 11
-385.52118214728893
 21
-36.464691192718917
 31
0.0
  0
LINE
  5
70
  8
1
 62
     7
 10
-361.52118214728898
 20
-45.864691192718922
 30
0.0
 11
-361.52118214728898
 21
-99.064691192718911
 31
0.0
  0
LINE
  5
71
  8
1
 62
     7
 10
-386.72118214728891
 20
-35.464691192718917
 30
0.0
 11
-386.72118214728891
 21
-21.46469119271892
 31
0.0
  0
LINE
  5
72
  8
1
 62
     7
 10
-379.22118214728891
 20
-92.964691192718902
 30
0.0
 11
-391.52118214728893
 21
-92.964691192718902
 31
0.0
  0
LINE
  5
73
  8
1
 62
     7
 10
-367.52118214728893
 20
-99.464691192718902
 30
0.0
 11
-364.52118214728893
 21
-99.464691192718902
 31
0.0
  0
LINE
  5
74
  8
1
 62
     7
 10
-379.22118214728891
 20
-95.464691192718902
 30
0.0
 11
-361.52118214728898
 21
-95.464691192718902
 31
0.0
  0
LINE
  5
75
  8
1
 62
     7
 10
-364.52118214728893
 20
-96.064691192718925
 30
0.0
 11
-367.52118214728893
 21
-96.064691192718925
 31
0.0
  0
LINE
  5
76
  8
1
 62
     7
 10
-379.22118214728891
 20
-99.064691192718911
 30
0.0
 11
-364.52118214728893
 21
-99.064691192718911
 31
0.0
  0
LINE
  5
77
  8
1
 62
     7
 10
-386.72118214728891
 20
-109.4646911927189
 30
0.0
 11
-386.52118214728898
 21
-109.4646911927189
 31
0.0
  0
LINE
  5
78
  8
1
 62
     7
 10
-391.52118214728893
 20
-103.4646911927189
 30
0.0
 11
-391.52118214728893
 21
-92.464691192718917
 31
0.0
  0
LINE
  5
79
  8
1
 62
     7
 10
-415.52118214728898
 20
-104.9646911927188
 30
0.0
 11
-417.02118214728893
 21
-104.9646911927188
 31
0.0
  0
LINE
  5
7A
  8
1
 62
     7
 10
-415.52118214728898
 20
-91.214691192718917
 30
0.0
 11
-417.32118214728888
 21
-91.214691192718917
 31
0.0
  0
LINE
  5
7B
  8
1
 62
     7
 10
-418.52118214728893
 20
-125.4646911927189
 30
0.0
 11
-416.52118214728893
 21
-127.4646911927189
 31
0.0
  0
LINE
  5
7C
  8
1
 62
     7
 10
-418.52118214728893
 20
-125.4646911927189
 30
0.0
 11
-418.52118214728893
 21
-98.017124801223204
 31
0.0
  0
LINE
  5
7D
  8
1
  6
DASHDOT
 62
     3
 10
-233.33744013791571
 20
-90.648433202092079
 30
0.0
 11
-242.41231749477041
 21
-81.573555845237465
 31
0.0
  0
LINE
  5
7E
  8
1
  6
DASHDOT
 62
     3
 10
-251.52118214728901
 20
-67.730671709420903
 30
0.0
 11
-251.52118214728901
 21
-77.198710676016901
 31
0.0
  0
LINE
  5
7F
  8
1
  6
DASHDOT
 62
     3
 10
-246.78716266399101
 20
-72.464691192718902
 30
0.0
 11
-256.25520163058701
 21
-72.464691192718902
 31
0.0
  0
LINE
  5
80
  8
1
 62
     7
 10
-270.29584181834991
 20
0.5910998643797059
 30
0.0
 11
-271.58993704386262
 21
5.4207289958250513
 31
0.0
  0
LINE
  5
81
  8
1
 62
     7
 10
-270.10237303794258
 20
0.642939667850447
 30
0.0
 11
-271.39646826345529
 21
5.4725687992957921
 31
0.0
  0
LINE
  5
82
  8
1
 62
     7
 10
-269.4408929392884
 20
0.8201827260941312
 30
0.0
 11
-270.73498816480111
 21
5.6498118575394773
 31
0.0
  0
LINE
  5
83
  8
1
 62
     7
 10
-269.66343421954628
 20
0.760552969766396
 30
0.0
 11
-270.95752944505909
 21
5.5901821012117416
 31
0.0
  0
LINE
  5
84
  8
1
 62
     7
 10
-269.87900865231632
 20
0.7027899745969082
 30
0.0
 11
-271.17310387782902
 21
5.5324191060422541
 31
0.0
  0
LINE
  5
85
  8
1
 62
     7
 10
-272.64384981655672
 20
-0.0380469825616391
 30
0.0
 11
-273.93794504206932
 21
4.7915821488837071
 31
0.0
  0
LINE
  5
86
  8
1
 62
     7
 10
-272.38998727075898
 20
0.0299752815733336
 30
0.0
 11
-273.68408249627163
 21
4.8596044130186788
 31
0.0
  0
LINE
  5
87
  8
1
 62
     7
 10
-271.63064839905678
 20
0.233439519027511
 30
0.0
 11
-272.92474362456949
 21
5.0630686504728564
 31
0.0
  0
LINE
  5
88
  8
1
 62
     7
 10
-271.90743970258649
 20
0.1592735127747802
 30
0.0
 11
-273.20153492809908
 21
4.9889026442201256
 31
0.0
  0
LINE
  5
89
  8
1
 62
     7
 10
-272.18340790074677
 20
0.085328056941046
 30
0.0
 11
-273.47750312625942
 21
4.9149571883863912
 31
0.0
  0
LINE
  5
8A
  8
1
  6
DASHDOT
 62
     3
 10
-251.52118214728901
 20
-5.988208043692878
 30
0.0
 11
-251.52118214728901
 21
-12.941174341744929
 31
0.0
  0
LINE
  5
8B
  8
1
  6
DASHDOT
 62
     3
 10
-248.04469899826299
 20
-9.4646911927189024
 30
0.0
 11
-254.99766529631501
 21
-9.4646911927189024
 31
0.0
  0
LINE
  5
8C
  8
1
  6
DASHDOT
 62
     3
 10
-201.1076576167595
 20
-43.358429234219862
 30
0.0
 11
-209.03284669863061
 21
-47.934039284016848
 31
0.0
  0
LINE
  5
8D
  8
1
  6
DASHDOT
 62
     3
 10
-201.1076576167595
 20
-101.57095315121779
 30
0.0
 11
-209.03284669863061
 21
-96.995343101420957
 31
0.0
  0
LINE
  5
8E
  8
1
  6
DASHDOT
 62
     3
 10
-251.52118214728901
 20
-130.67721510971691
 30
0.0
 11
-251.52118214728901
 21
-121.525995010123
 31
0.0
  0
LINE
  5
8F
  8
1
  6
DASHDOT
 62
     3
 10
-301.93470667781861
 20
-101.57095315121801
 30
0.0
 11
-294.00951759594739
 21
-96.995343101420957
 31
0.0
  0
LINE
  5
90
  8
1
  6
DASHDOT
 62
     3
 10
-301.93470667781861
 20
-43.358429234219862
 30
0.0
 11
-294.00951759594739
 21
-47.934039284016848
 31
0.0
  0
LINE
  5
91
  8
1
 62
     7
 10
-643.52118214728898
 20
-5.4646911927188997
 30
0.0
 11
-643.52118214728898
 21
-28.964691192718892
 31
0.0
  0
LINE
  5
92
  8
1
 62
     7
 10
-629.52118214728887
 20
-5.4646911927189032
 30
0.0
 11
-629.52118214728887
 21
-28.964691192718892
 31
0.0
  0
LINE
  5
93
  8
1
 62
     7
 10
-641.52118214728887
 20
-3.464691192718901
 30
0.0
 11
-631.52118214728898
 21
-3.464691192718901
 31
0.0
  0
LINE
  5
94
  8
1
 62
     7
 10
-640.52118214728898
 20
-55.464691192718902
 30
0.0
 11
-632.52118214728898
 21
-55.464691192718902
 31
0.0
  0
LINE
  5
95
  8
1
 62
     7
 10
-632.52118214728898
 20
-55.464691192718902
 30
0.0
 11
-632.52118214728898
 21
-58.007858897917941
 31
0.0
  0
LINE
  5
96
  8
1
 62
     7
 10
-640.52118214728898
 20
-58.007858897917941
 30
0.0
 11
-640.52118214728898
 21
-55.464691192718902
 31
0.0
  0
LINE
  5
97
  8
1
 62
     7
 10
-418.42118214728902
 20
-3.464691192718901
 30
0.0
 11
-416.12118214728889
 21
-3.464691192718901
 31
0.0
  0
LINE
  5
98
  8
1
 62
     7
 10
-418.42118214728902
 20
-3.464691192718901
 30
0.0
 11
-418.42118214728902
 21
-37.464691192718888
 31
0.0
  0
LINE
  5
99
  8
1
 62
     7
 10
-416.12118214728889
 20
-3.464691192718901
 30
0.0
 11
-416.12118214728889
 21
-37.464691192718888
 31
0.0
  0
LINE
  5
9A
  8
1
 62
     7
 10
-418.42118214728902
 20
-6.7146911927189032
 30
0.0
 11
-416.12118214728878
 21
-6.7146911927189032
 31
0.0
  0
LINE
  5
9B
  8
1
 62
     7
 10
-418.42118214728902
 20
-12.214691192718901
 30
0.0
 11
-416.12118214728878
 21
-12.214691192718901
 31
0.0
  0
LINE
  5
9C
  8
1
  6
DASHDOT
 62
     3
 10
-420.14037403992859
 20
-9.4646911927189024
 30
0.0
 11
-414.82792799676309
 21
-9.4646911927189024
 31
0.0
  0
LINE
  5
9D
  8
1
 62
     7
 10
-418.52118214728893
 20
-37.464691192718888
 30
0.0
 11
-416.12118214728889
 21
-37.464691192718888
 31
0.0
  0
LINE
  5
9E
  8
1
 62
     7
 10
-417.32118214728888
 20
-96.301601066431004
 30
0.0
 11
-415.52118214728898
 21
-96.301601066431004
 31
0.0
  0
LINE
  5
9F
  8
1
 62
     7
 10
-417.32118214728888
 20
-96.301601066431004
 30
0.0
 11
-417.32118214728888
 21
-91.214691192718917
 31
0.0
  0
LINE
  5
A0
  8
1
 62
     7
 10
-403.52118214728898
 20
-103.4646911927189
 30
0.0
 11
-403.52118214728898
 21
-92.464691192718917
 31
0.0
  0
LINE
  5
A1
  8
1
 62
     7
 10
-415.52118214728898
 20
-104.9646911927188
 30
0.0
 11
-415.52118214728898
 21
-91.214691192718917
 31
0.0
  0
LINE
  5
A2
  8
1
 62
     7
 10
-411.1711821472889
 20
-95.106807360230235
 30
0.0
 11
-415.52118214728898
 21
-95.106807360230277
 31
0.0
  0
LINE
  5
A3
  8
1
 62
     7
 10
-407.87118214728889
 20
-95.106807360230235
 30
0.0
 11
-399.1711821472889
 21
-95.106807360230235
 31
0.0
  0
LINE
  5
A4
  8
1
 62
     7
 10
-411.1711821472889
 20
-100.8225750252075
 30
0.0
 11
-417.02118214728893
 21
-100.8225750252075
 31
0.0
  0
LINE
  5
A5
  8
1
 62
     7
 10
-415.52118214728898
 20
-103.4646911927189
 30
0.0
 11
-391.52118214728893
 21
-103.4646911927189
 31
0.0
  0
LINE
  5
A6
  8
1
 62
     7
 10
-415.52118214728898
 20
-92.464691192718917
 30
0.0
 11
-391.52118214728893
 21
-92.464691192718917
 31
0.0
  0
LINE
  5
A7
  8
1
 62
     7
 10
-395.87118214728889
 20
-95.106807360230235
 30
0.0
 11
-391.52118214728893
 21
-95.106807360230277
 31
0.0
  0
LINE
  5
A8
  8
1
 62
     7
 10
-395.87118214728889
 20
-100.8225750252075
 30
0.0
 11
-391.52118214728893
 21
-100.8225750252075
 31
0.0
  0
LINE
  5
A9
  8
1
 62
     7
 10
-399.1711821472889
 20
-100.8225750252075
 30
0.0
 11
-407.87118214728889
 21
-100.8225750252075
 31
0.0
  0
LINE
  5
AA
  8
1
 62
     7
 10
-363.02118214728893
 20
-97.464691192718917
 30
0.0
 11
-364.52118214728893
 21
-97.464691192718917
 31
0.0
  0
LINE
  5
AB
  8
1
  6
DASHDOT
 62
     3
 10
-391.02118214728898
 20
-86.830648712810614
 30
0.0
 11
-391.02118214728898
 21
-94.110815930444502
 31
0.0
  0
LINE
  5
AC
  8
1
  6
DASHDOT
 62
     3
 10
-373.52118214728893
 20
-86.981697436472487
 30
0.0
 11
-373.52118214728893
 21
-96.799864474496275
 31
0.0
  0
LINE
  5
AD
  8
1
  6
DASHED
 62
     7
 10
-392.52118214728893
 20
-87.964691192718902
 30
0.0
 11
-392.52118214728893
 21
-92.464691192718917
 31
0.0
  0
LINE
  5
AE
  8
1
  6
DASHED
 62
     7
 10
-389.52118214728893
 20
-100.7146911927188
 30
0.0
 11
-389.52118214728893
 21
-87.964691192718902
 31
0.0
  0
LINE
  5
AF
  8
1
  6
DASHED
 62
     7
 10
-375.02118214728893
 20
-87.964691192718902
 30
0.0
 11
-375.02118214728893
 21
-95.464691192718902
 31
0.0
  0
LINE
  5
B0
  8
1
  6
DASHED
 62
     7
 10
-372.02118214728898
 20
-87.964691192718902
 30
0.0
 11
-372.02118214728898
 21
-95.464691192718902
 31
0.0
  0
LINE
  5
B1
  8
1
 62
     7
 10
-417.32118214728888
 20
-92.464691192718917
 30
0.0
 11
-418.52118214728893
 21
-92.464691192718917
 31
0.0
  0
LINE
  5
B2
  8
1
 62
     7
 10
-418.52118214728893
 20
-92.464691192718917
 30
0.0
 11
-418.52118214728893
 21
-52.464691192718909
 31
0.0
  0
LINE
  5
B3
  8
1
 62
     7
 10
-361.52118214728898
 20
-99.064691192718911
 30
0.0
 11
-363.02118214728893
 21
-99.064691192718911
 31
0.0
  0
LINE
  5
B4
  8
1
 62
     7
 10
-370.52118214728893
 20
-87.464691192718917
 30
0.0
 11
-361.52118214728898
 21
-87.464691192718917
 31
0.0
  0
LINE
  5
B5
  8
1
 62
     7
 10
-370.52118214728893
 20
-87.964691192718902
 30
0.0
 11
-376.52118214728898
 21
-87.964691192718902
 31
0.0
  0
LINE
  5
B6
  8
1
 62
     7
 10
-376.52118214728898
 20
-87.464691192718917
 30
0.0
 11
-388.02118214728893
 21
-87.464691192718917
 31
0.0
  0
LINE
  5
B7
  8
1
 62
     7
 10
-388.02118214728893
 20
-87.964691192718902
 30
0.0
 11
-394.02118214728893
 21
-87.964691192718902
 31
0.0
  0
LINE
  5
B8
  8
1
 62
     7
 10
-394.02118214728893
 20
-87.464691192718917
 30
0.0
 11
-418.52118214728893
 21
-87.464691192718917
 31
0.0
  0
LINE
  5
B9
  8
1
 62
     7
 10
-379.22118214728891
 20
-122.7146911927188
 30
0.0
 11
-385.72118214728891
 21
-122.7146911927188
 31
0.0
  0
LINE
  5
BA
  8
1
 62
     7
 10
-385.72118214728891
 20
-122.7146911927188
 30
0.0
 11
-385.72118214728891
 21
-117.4646911927188
 31
0.0
  0
LINE
  5
BB
  8
1
 62
     7
 10
-385.72118214728891
 20
-117.4646911927188
 30
0.0
 11
-384.72118214728891
 21
-117.4646911927188
 31
0.0
  0
LINE
  5
BC
  8
1
 62
     7
 10
-384.72118214728891
 20
-117.4646911927188
 30
0.0
 11
-384.72118214728891
 21
-100.7146911927188
 31
0.0
  0
LINE
  5
BD
  8
1
 62
     7
 10
-384.72118214728891
 20
-100.7146911927188
 30
0.0
 11
-391.02118214728898
 21
-100.7146911927188
 31
0.0
  0
LINE
  5
BE
  8
1
 62
     7
 10
-391.02118214728898
 20
-100.7146911927188
 30
0.0
 11
-391.02118214728898
 21
-94.964691192718917
 31
0.0
  0
LINE
  5
BF
  8
1
 62
     7
 10
-391.02118214728898
 20
-94.964691192718917
 30
0.0
 11
-391.52118214728893
 21
-94.964691192718917
 31
0.0
  0
LINE
  5
C0
  8
1
 62
     7
 10
-367.52118214728893
 20
-95.464691192718902
 30
0.0
 11
-367.52118214728893
 21
-128.4646911927189
 31
0.0
  0
LINE
  5
C1
  8
1
 62
     7
 10
-367.52118214728893
 20
-122.9646911927189
 30
0.0
 11
-364.02118214728898
 21
-122.9646911927189
 31
0.0
  0
LINE
  5
C2
  8
1
 62
     7
 10
-364.02118214728898
 20
-122.9646911927189
 30
0.0
 11
-362.51520548086057
 21
-110.6994955088804
 31
0.0
  0
LINE
  5
C3
  8
1
 62
     7
 10
-362.52118214728893
 20
-101.4646911927189
 30
0.0
 11
-362.52118214728893
 21
-110.6994955088804
 31
0.0
  0
LINE
  5
C4
  8
1
 62
     7
 10
-362.52118214728893
 20
-101.4646911927189
 30
0.0
 11
-364.52118214728893
 21
-101.4646911927189
 31
0.0
  0
LINE
  5
C5
  8
1
 62
     7
 10
-364.52118214728893
 20
-101.4646911927189
 30
0.0
 11
-364.52118214728893
 21
-96.064691192718925
 31
0.0
  0
LINE
  5
C6
  8
1
 62
     7
 10
-363.02118214728893
 20
-100.8518314804887
 30
0.0
 11
-364.52118214728893
 21
-100.8518314804887
 31
0.0
  0
LINE
  5
C7
  8
1
 62
     7
 10
-363.02118214728893
 20
-100.8518314804887
 30
0.0
 11
-363.02118214728893
 21
-97.464691192718917
 31
0.0
  0
LINE
  5
C8
  8
1
 62
     7
 10
-379.22118214728891
 20
-92.964691192718902
 30
0.0
 11
-379.22118214728891
 21
-128.4646911927189
 31
0.0
  0
LINE
  5
C9
  8
1
 62
     7
 10
-367.52118214728893
 20
-128.4646911927189
 30
0.0
 11
-379.22118214728891
 21
-128.4646911927189
 31
0.0
  0
LINE
  5
CA
  8
1
 62
     7
 10
-417.02118214728893
 20
-103.4646911927189
 30
0.0
 11
-418.52118214728893
 21
-103.4646911927189
 31
0.0
  0
LINE
  5
CB
  8
1
 62
     7
 10
-380.72118214728891
 20
-124.4646911927189
 30
0.0
 11
-380.72118214728891
 21
-123.4646911927189
 31
0.0
  0
LINE
  5
CC
  8
1
 62
     7
 10
-380.72118214728891
 20
-123.4646911927189
 30
0.0
 11
-386.72118214728891
 21
-123.4646911927189
 31
0.0
  0
LINE
  5
CD
  8
1
 62
     7
 10
-385.52118214728893
 20
-108.4646911927189
 30
0.0
 11
-385.52118214728893
 21
-101.4646911927189
 31
0.0
  0
LINE
  5
CE
  8
1
 62
     7
 10
-385.52118214728893
 20
-101.4646911927189
 30
0.0
 11
-391.52118214728893
 21
-101.4646911927189
 31
0.0
  0
LINE
  5
CF
  8
1
 62
     7
 10
-417.02118214728893
 20
-104.9646911927188
 30
0.0
 11
-417.02118214728893
 21
-100.8225750252075
 31
0.0
  0
LINE
  5
D0
  8
1
 62
     7
 10
-380.72118214728891
 20
-124.4646911927189
 30
0.0
 11
-383.72118214728891
 21
-127.4646911927189
 31
0.0
  0
LINE
  5
D1
  8
1
 62
     7
 10
-385.52118214728893
 20
-108.4646911927189
 30
0.0
 11
-386.52118214728898
 21
-109.4646911927189
 31
0.0
  0
LINE
  5
D2
  8
1
 62
     7
 10
-386.72118214728891
 20
-123.4646911927189
 30
0.0
 11
-386.72118214728891
 21
-109.4646911927189
 31
0.0
  0
LINE
  5
D3
  8
1
 62
     7
 10
-383.72118214728891
 20
-127.4646911927189
 30
0.0
 11
-416.52118214728893
 21
-127.4646911927189
 31
0.0
  0
LINE
  5
D4
  8
1
 62
     7
 10
-407.57118214728888
 20
-17.464691192718892
 30
0.0
 11
-407.57118214728888
 21
0.7755208033646907
 31
0.0
  0
LINE
  5
D5
  8
1
 62
     7
 10
-409.87118214728889
 20
0.7755208033646907
 30
0.0
 11
-409.87118214728889
 21
-17.464691192718892
 31
0.0
  0
LINE
  5
D6
  8
1
 62
     7
 10
-409.87118214728889
 20
0.7755208033646907
 30
0.0
 11
-407.57118214728888
 21
0.7755208033646907
 31
0.0
  0
LINE
  5
D7
  8
1
 62
     7
 10
-407.9603393529211
 20
5.775520803364687
 30
0.0
 11
-407.9603393529211
 21
0.7755208033646907
 31
0.0
  0
LINE
  5
D8
  8
1
 62
     7
 10
-408.3282297022223
 20
5.775520803364687
 30
0.0
 11
-408.3282297022223
 21
0.7755208033646907
 31
0.0
  0
LINE
  5
D9
  8
1
 62
     7
 10
-408.72118214728891
 20
5.775520803364687
 30
0.0
 11
-408.72118214728891
 21
0.7755208033646907
 31
0.0
  0
LINE
  5
DA
  8
1
 62
     7
 10
-409.06401040082483
 20
5.775520803364687
 30
0.0
 11
-409.06401040082483
 21
0.7755208033646907
 31
0.0
  0
LINE
  5
DB
  8
1
 62
     7
 10
-409.45489389695729
 20
5.775520803364687
 30
0.0
 11
-409.45489389695729
 21
0.7755208033646907
 31
0.0
  0
LINE
  5
DC
  8
1
  6
DASHED
 62
     7
 10
-239.90708651590629
 20
-81.957466480541797
 30
0.0
 11
-233.80654347186021
 21
-88.058009524587987
 31
0.0
  0
LINE
  5
DD
  8
1
  6
DASHED
 62
     7
 10
-242.028406859466
 20
-84.078786824101456
 30
0.0
 11
-235.9278638154199
 21
-90.179329868147647
 31
0.0
  0
LINE
  5
DE
  8
1
  6
DASHED
 62
     7
 10
-263.13527777867142
 20
-81.957466480541797
 30
0.0
 11
-269.23582082271781
 21
-88.058009524587987
 31
0.0
  0
LINE
  5
DF
  8
1
  6
DASHDOT
 62
     3
 10
-260.63004679980747
 20
-81.573555845237465
 30
0.0
 11
-269.70492415666212
 21
-90.648433202092136
 31
0.0
  0
LINE
  5
E0
  8
1
  6
DASHED
 62
     7
 10
-261.01395743511188
 20
-84.078786824101456
 30
0.0
 11
-267.1145004791581
 21
-90.179329868147647
 31
0.0
  0
LINE
  5
E1
  8
1
  6
DASHED
 62
     7
 10
-261.01395743511188
 20
-60.850595561336362
 30
0.0
 11
-267.1145004791581
 21
-54.75005251729015
 31
0.0
  0
LINE
  5
E2
  8
1
  6
DASHDOT
 62
     3
 10
-260.63004679980747
 20
-63.355826540200333
 30
0.0
 11
-269.70492415666212
 21
-54.28094918334569
 31
0.0
  0
LINE
  5
E3
  8
1
  6
DASHED
 62
     7
 10
-263.13527777867142
 20
-62.971915904896022
 30
0.0
 11
-269.23582082271781
 21
-56.871372860849817
 31
0.0
  0
LINE
  5
E4
  8
1
  6
DASHED
 62
     7
 10
-239.90708651590629
 20
-62.971915904896001
 30
0.0
 11
-233.80654347186021
 21
-56.871372860849817
 31
0.0
  0
LINE
  5
E5
  8
1
  6
DASHED
 62
     7
 10
-242.028406859466
 20
-60.850595561336362
 30
0.0
 11
-235.9278638154199
 21
-54.750052517290172
 31
0.0
  0
LINE
  5
E6
  8
1
  6
DASHDOT
 62
     3
 10
-242.41231749477041
 20
-63.355826540200347
 30
0.0
 11
-233.33744013791571
 21
-54.28094918334569
 31
0.0
  0
LINE
  5
E7
  8
1
 62
     7
 10
-273.26442303628602
 20
-0.2043290756324705
 30
0.0
 11
-268.82116423535632
 21
0.9862385318391224
 31
0.0
  0
LINE
  5
E8
  8
1
 62
     7
 10
-263.78118953480532
 20
-17.82320311947873
 30
0.0
 11
-268.82116423535632
 21
0.9862385318391224
 31
0.0
  0
LINE
  5
E9
  8
1
 62
     7
 10
-271.042793635821
 20
0.3909547281033259
 30
0.0
 11
-266.01504867303021
 21
-18.372844920531051
 31
0.0
  0
LINE
  5
EA
  8
1
 62
     7
 10
-268.22444833573502
 20
-19.01377072695032
 30
0.0
 11
-273.26442303628602
 21
-0.2043290756324705
 31
0.0
  0
LINE
  5
EB
  8
1
 62
     7
 10
-258.52118214728893
 20
-16.903913660362502
 30
0.0
 11
-258.52118214728893
 21
-5.4646911927188997
 31
0.0
  0
LINE
  5
EC
  8
1
 62
     7
 10
-244.52118214728901
 20
-16.903913660362502
 30
0.0
 11
-244.52118214728901
 21
-5.4646911927189032
 31
0.0
  0
LINE
  5
ED
  8
1
 62
     7
 10
-256.52118214728893
 20
-3.464691192718901
 30
0.0
 11
-246.52118214728901
 21
-3.464691192718901
 31
0.0
  0
LINE
  5
EE
  8
1
 62
     7
 10
-255.52118214728901
 20
-55.464691192718902
 30
0.0
 11
-247.5211821472889
 21
-55.464691192718902
 31
0.0
  0
LINE
  5
EF
  8
1
 62
     7
 10
-247.5211821472889
 20
-55.464691192718902
 30
0.0
 11
-247.5211821472889
 21
-58.007858897917941
 31
0.0
  0
LINE
  5
F0
  8
1
 62
     7
 10
-255.52118214728901
 20
-58.007858897917941
 30
0.0
 11
-255.52118214728901
 21
-55.464691192718902
 31
0.0
  0
LINE
  5
F1
  8
1
 62
     7
 10
-256.52118214728893
 20
-123.9646911927189
 30
0.0
 11
-246.52118214728901
 21
-123.9646911927189
 31
0.0
  0
LINE
  5
F2
  8
1
 62
     7
 10
-246.52118214728901
 20
-123.9646911927189
 30
0.0
 11
-246.52118214728901
 21
-128.2410302622562
 31
0.0
  0
LINE
  5
F3
  8
1
 62
     7
 10
-256.52118214728893
 20
-128.2410302622562
 30
0.0
 11
-256.52118214728893
 21
-123.9646911927189
 31
0.0
  0
LINE
  5
F4
  8
1
 62
     7
 10
-209.42087385239029
 20
-102.544818211641
 30
0.0
 11
-204.4208738523904
 21
-93.884564173796704
 31
0.0
  0
LINE
  5
F5
  8
1
 62
     7
 10
-204.4208738523904
 20
-93.884564173796704
 30
0.0
 11
-200.71745558297519
 21
-96.022733708565426
 31
0.0
  0
LINE
  5
F6
  8
1
 62
     7
 10
-205.71745558297511
 20
-104.68298774640979
 30
0.0
 11
-209.42087385239029
 21
-102.544818211641
 31
0.0
  0
LINE
  5
F7
  8
1
 62
     7
 10
-204.4208738523904
 20
-51.044818211641108
 30
0.0
 11
-209.42087385239029
 21
-42.384564173796718
 31
0.0
  0
LINE
  5
F8
  8
1
 62
     7
 10
-209.42087385239029
 20
-42.384564173796718
 30
0.0
 11
-205.71745558297511
 21
-40.246394639028033
 31
0.0
  0
LINE
  5
F9
  8
1
 62
     7
 10
-200.71745558297519
 20
-48.906648676872422
 30
0.0
 11
-204.4208738523904
 21
-51.044818211641108
 31
0.0
  0
LINE
  5
FA
  8
1
 62
     7
 10
-246.52118214728901
 20
-20.964691192718899
 30
0.0
 11
-256.52118214728893
 21
-20.964691192718899
 31
0.0
  0
LINE
  5
FB
  8
1
 62
     7
 10
-246.52118214728901
 20
-16.688352123181549
 30
0.0
 11
-246.52118214728901
 21
-20.964691192718899
 31
0.0
  0
LINE
  5
FC
  8
1
 62
     7
 10
-256.52118214728893
 20
-20.964691192718899
 30
0.0
 11
-256.52118214728893
 21
-16.688352123181549
 31
0.0
  0
LINE
  5
FD
  8
1
 62
     7
 10
-298.62149044218762
 20
-51.044818211641093
 30
0.0
 11
-302.3249087116028
 21
-48.906648676872408
 31
0.0
  0
LINE
  5
FE
  8
1
 62
     7
 10
-293.62149044218762
 20
-42.384564173796697
 30
0.0
 11
-298.62149044218762
 21
-51.044818211641093
 31
0.0
  0
LINE
  5
FF
  8
1
 62
     7
 10
-293.62149044218762
 20
-42.384564173796697
 30
0.0
 11
-298.62149044218762
 21
-51.044818211641093
 31
0.0
  0
LINE
  5
100
  8
1
 62
     7
 10
-297.3249087116028
 20
-40.246394639028019
 30
0.0
 11
-293.62149044218762
 21
-42.384564173796697
 31
0.0
  0
LINE
  5
101
  8
1
 62
     7
 10
-293.62149044218762
 20
-102.544818211641
 30
0.0
 11
-297.3249087116028
 21
-104.68298774640979
 31
0.0
  0
LINE
  5
102
  8
1
 62
     7
 10
-298.62149044218762
 20
-93.884564173796704
 30
0.0
 11
-293.62149044218762
 21
-102.544818211641
 31
0.0
  0
LINE
  5
103
  8
1
 62
     7
 10
-298.62149044218762
 20
-93.884564173796704
 30
0.0
 11
-293.62149044218762
 21
-102.544818211641
 31
0.0
  0
LINE
  5
104
  8
1
 62
     7
 10
-302.3249087116028
 20
-96.022733708565355
 30
0.0
 11
-298.62149044218762
 21
-93.884564173796704
 31
0.0
  0
LINE
  5
105
  8
1
 62
     3
 10
-201.1076576167595
 20
-101.57095315121779
 30
0.0
 11
-209.03284669863061
 21
-96.995343101420957
 31
0.0
  0
LINE
  5
106
  8
1
  6
DASHDOT
 62
     3
 10
-251.52118214728901
 20
-14.25216727572082
 30
0.0
 11
-251.52118214728901
 21
-23.4033873753148
 31
0.0
  0
LINE
  5
107
  8
1
 62
     7
 10
-416.12118214728889
 20
-17.46469119271892
 30
0.0
 11
-383.72118214728891
 21
-17.46469119271892
 31
0.0
  0
LINE
  5
108
  8
1
 62
     7
 10
-408.72118214728891
 20
5.775520803364687
 30
0.0
 11
-408.72118214728891
 21
0.7755208033646907
 31
0.0
  0
LINE
  5
109
  8
1
 62
     7
 10
-418.52118214728893
 20
-55.464691192718902
 30
0.0
 11
-361.52118214728898
 21
-55.464691192718902
 31
0.0
  0
LINE
  5
10A
  8
1
 62
     3
 10
-379.22118214728891
 20
-16.46469119271892
 30
0.0
 11
-367.52118214728893
 21
-49.464691192718909
 31
0.0
  0
LINE
  5
10B
  8
1
 62
     3
 10
-367.52118214728893
 20
-16.46469119271892
 30
0.0
 11
-379.22118214728891
 21
-49.464691192718909
 31
0.0
  0
LINE
  5
10C
  8
1
 62
     3
 10
-379.22118214728891
 20
-95.464691192718902
 30
0.0
 11
-367.52118214728893
 21
-128.4646911927189
 31
0.0
  0
LINE
  5
10D
  8
1
 62
     3
 10
-367.52118214728893
 20
-95.464691192718902
 30
0.0
 11
-379.22118214728891
 21
-128.4646911927189
 31
0.0
  0
LINE
  5
10E
  8
1
 62
     3
 10
-530.52118214728887
 20
-72.464691192718902
 30
0.0
 11
-533.52118214728887
 21
-72.464691192718902
 31
0.0
  0
LINE
  5
10F
  8
1
 62
     3
 10
-473.52118214728898
 20
-72.464691192718902
 30
0.0
 11
-470.52118214728893
 21
-72.464691192718902
 31
0.0
  0
LINE
  5
110
  8
1
 62
     7
 10
-530.52118214728887
 20
-125.4646911927189
 30
0.0
 11
-528.52118214728898
 21
-127.4646911927189
 31
0.0
  0
LINE
  5
111
  8
1
 62
     7
 10
-530.42118214728885
 20
-3.464691192718901
 30
0.0
 11
-528.12118214728901
 21
-3.464691192718901
 31
0.0
  0
LINE
  5
112
  8
1
 62
     7
 10
-530.42118214728885
 20
-3.464691192718901
 30
0.0
 11
-530.42118214728885
 21
-19.36469119271889
 31
0.0
  0
LINE
  5
113
  8
1
 62
     7
 10
-528.12118214728901
 20
-3.464691192718901
 30
0.0
 11
-528.12118214728901
 21
-17.464691192718892
 31
0.0
  0
LINE
  5
114
  8
1
  6
DASHDOT
 62
     3
 10
-532.14037403992859
 20
-9.4646911927189024
 30
0.0
 11
-526.82792799676315
 21
-9.4646911927189024
 31
0.0
  0
LINE
  5
115
  8
1
 62
     7
 10
-473.52118214728898
 20
-99.064691192718911
 30
0.0
 11
-474.52118214728898
 21
-99.064691192718911
 31
0.0
  0
LINE
  5
116
  8
1
 62
     7
 10
-491.22118214728891
 20
-123.2146911927189
 30
0.0
 11
-492.72118214728891
 21
-123.2146911927189
 31
0.0
  0
LINE
  5
117
  8
1
 62
     7
 10
-479.52118214728893
 20
-122.9646911927189
 30
0.0
 11
-476.02118214728893
 21
-122.9646911927189
 31
0.0
  0
LINE
  5
118
  8
1
 62
     7
 10
-476.02118214728893
 20
-122.9646911927189
 30
0.0
 11
-474.51520548086057
 21
-110.6994955088804
 31
0.0
  0
LINE
  5
119
  8
1
 62
     7
 10
-474.52118214728898
 20
-110.6994955088804
 30
0.0
 11
-474.52118214728898
 21
-34.229886876557323
 31
0.0
  0
LINE
  5
11A
  8
1
 62
     7
 10
-479.52118214728893
 20
-128.4646911927189
 30
0.0
 11
-479.52118214728893
 21
-16.464691192718931
 31
0.0
  0
LINE
  5
11B
  8
1
 62
     7
 10
-479.52118214728893
 20
-128.4646911927189
 30
0.0
 11
-491.22118214728891
 21
-128.4646911927189
 31
0.0
  0
LINE
  5
11C
  8
1
 62
     7
 10
-492.72118214728891
 20
-124.4646911927189
 30
0.0
 11
-495.72118214728891
 21
-127.4646911927189
 31
0.0
  0
LINE
  5
11D
  8
1
 62
     7
 10
-495.72118214728891
 20
-127.4646911927189
 30
0.0
 11
-528.52118214728898
 21
-127.4646911927189
 31
0.0
  0
LINE
  5
11E
  8
1
 62
     7
 10
-519.57118214728894
 20
-17.464691192718892
 30
0.0
 11
-519.57118214728894
 21
0.7755208033646907
 31
0.0
  0
LINE
  5
11F
  8
1
 62
     7
 10
-521.87118214728901
 20
0.7755208033646907
 30
0.0
 11
-521.87118214728901
 21
-17.464691192718892
 31
0.0
  0
LINE
  5
120
  8
1
 62
     7
 10
-521.87118214728901
 20
0.7755208033646907
 30
0.0
 11
-519.57118214728894
 21
0.7755208033646907
 31
0.0
  0
LINE
  5
121
  8
1
 62
     7
 10
-519.96033935292098
 20
5.775520803364687
 30
0.0
 11
-519.96033935292098
 21
0.7755208033646907
 31
0.0
  0
LINE
  5
122
  8
1
 62
     7
 10
-520.32822970222242
 20
5.775520803364687
 30
0.0
 11
-520.32822970222242
 21
0.7755208033646907
 31
0.0
  0
LINE
  5
123
  8
1
 62
     7
 10
-520.7211821472888
 20
5.775520803364687
 30
0.0
 11
-520.7211821472888
 21
0.7755208033646907
 31
0.0
  0
LINE
  5
124
  8
1
 62
     7
 10
-521.06401040082471
 20
5.775520803364687
 30
0.0
 11
-521.06401040082471
 21
0.7755208033646907
 31
0.0
  0
LINE
  5
125
  8
1
 62
     7
 10
-521.45489389695729
 20
5.775520803364687
 30
0.0
 11
-521.45489389695729
 21
0.7755208033646907
 31
0.0
  0
LINE
  5
126
  8
1
 62
     7
 10
-520.7211821472888
 20
5.775520803364687
 30
0.0
 11
-520.7211821472888
 21
0.7755208033646907
 31
0.0
  0
LINE
  5
127
  8
1
 62
     7
 10
-530.52118214728887
 20
-19.46469119271892
 30
0.0
 11
-530.52118214728887
 21
-125.4646911927189
 31
0.0
  0
LINE
  5
128
  8
1
 62
     7
 10
-474.52118214728898
 20
-45.864691192718887
 30
0.0
 11
-473.52118214728898
 21
-45.864691192718929
 31
0.0
  0
LINE
  5
129
  8
1
 62
     7
 10
-492.72118214728891
 20
-21.714691192718931
 30
0.0
 11
-491.22118214728891
 21
-21.714691192718931
 31
0.0
  0
LINE
  5
12A
  8
1
 62
     7
 10
-476.02118214728893
 20
-21.964691192718931
 30
0.0
 11
-479.52118214728893
 21
-21.964691192718931
 31
0.0
  0
LINE
  5
12B
  8
1
 62
     7
 10
-474.51520548086057
 20
-34.22988687655733
 30
0.0
 11
-476.02118214728893
 21
-21.964691192718931
 31
0.0
  0
LINE
  5
12C
  8
1
 62
     7
 10
-491.22118214728891
 20
-16.464691192718931
 30
0.0
 11
-491.22118214728891
 21
-128.4646911927189
 31
0.0
  0
LINE
  5
12D
  8
1
 62
     7
 10
-491.22118214728891
 20
-16.464691192718931
 30
0.0
 11
-479.52118214728893
 21
-16.464691192718931
 31
0.0
  0
LINE
  5
12E
  8
1
 62
     7
 10
-492.72118214728891
 20
-20.464691192718931
 30
0.0
 11
-492.72118214728891
 21
-124.4646911927189
 31
0.0
  0
LINE
  5
12F
  8
1
 62
     7
 10
-495.72118214728891
 20
-17.464691192718931
 30
0.0
 11
-492.72118214728891
 21
-20.464691192718931
 31
0.0
  0
LINE
  5
130
  8
1
 62
     7
 10
-473.52118214728898
 20
-45.864691192718929
 30
0.0
 11
-473.52118214728898
 21
-99.064691192718911
 31
0.0
  0
LINE
  5
131
  8
1
 62
     7
 10
-495.72118214728891
 20
-17.464691192718931
 30
0.0
 11
-495.72118214728891
 21
-127.4646911927189
 31
0.0
  0
LINE
  5
132
  8
1
 62
     7
 10
-476.02118214728893
 20
-21.964691192718931
 30
0.0
 11
-476.02118214728893
 21
-122.9646911927189
 31
0.0
  0
LINE
  5
133
  8
1
 62
     7
 10
-495.72118214728891
 20
-17.464691192718931
 30
0.0
 11
-528.52118214728898
 21
-17.46469119271892
 31
0.0
  0
LINE
  5
134
  8
1
 62
     7
 10
-528.52118214728898
 20
-17.46469119271892
 30
0.0
 11
-530.52118214728887
 21
-19.46469119271892
 31
0.0
  0
LINE
  5
135
  8
1
 62
     7
 10
-528.52118214728898
 20
-17.46469119271892
 30
0.0
 11
-528.52118214728898
 21
-127.4646911927189
 31
0.0
  0
LINE
  5
136
  8
1
 62
     3
 10
-491.22118214728891
 20
-16.464691192718931
 30
0.0
 11
-479.52118214728893
 21
-128.4646911927189
 31
0.0
  0
LINE
  5
137
  8
1
 62
     3
 10
-479.52118214728893
 20
-16.464691192718931
 30
0.0
 11
-491.22118214728891
 21
-128.4646911927189
 31
0.0
  0
LINE
  5
138
  8
1
 62
     7
 10
-682.32490871160269
 20
-40.246394639027969
 30
0.0
 11
-681.4553470498148
 21
-40.748436298538351
 31
0.0
  0
LINE
  5
139
  8
1
 62
     7
 10
-686.45534704981469
 20
-49.40869033638274
 30
0.0
 11
-687.3249087116028
 21
-48.906648676872322
 31
0.0
  0
LINE
  5
13A
  8
1
 62
     7
 10
-687.3249087116028
 20
-96.022733708565269
 30
0.0
 11
-686.45534704981469
 21
-95.520692049054915
 31
0.0
  0
LINE
  5
13B
  8
1
 62
     7
 10
-681.4553470498148
 20
-104.1809460868992
 30
0.0
 11
-682.32490871160269
 21
-104.68298774640959
 31
0.0
  0
LINE
  5
13C
  8
1
 62
     7
 10
-641.52118214728887
 20
-128.241030262256
 30
0.0
 11
-641.52118214728887
 21
-127.2369469432353
 31
0.0
  0
LINE
  5
13D
  8
1
 62
     7
 10
-631.52118214728898
 20
-127.2369469432353
 30
0.0
 11
-631.5211821472891
 21
-128.241030262256
 31
0.0
  0
LINE
  5
13E
  8
1
 62
     7
 10
-590.71745558297528
 20
-104.68298774640969
 30
0.0
 11
-591.58701724476327
 21
-104.1809460868992
 31
0.0
  0
LINE
  5
13F
  8
1
 62
     7
 10
-586.58701724476339
 20
-95.520692049054915
 30
0.0
 11
-585.71745558297516
 21
-96.022733708565426
 31
0.0
  0
LINE
  5
140
  8
1
 62
     7
 10
-585.71745558297516
 20
-48.906648676872457
 30
0.0
 11
-586.58701724476339
 21
-49.408690336382818
 31
0.0
  0
LINE
  5
141
  8
1
 62
     7
 10
-591.58701724476327
 20
-40.748436298538422
 30
0.0
 11
-590.71745558297528
 21
-40.246394639028033
 31
0.0
  0
LINE
  5
142
  8
1
  6
DASHDOT
 62
     3
 10
-636.52118214728898
 20
-67.730671709420903
 30
0.0
 11
-636.52118214728898
 21
-77.198710676016901
 31
0.0
  0
LINE
  5
143
  8
1
  6
DASHDOT
 62
     3
 10
-631.7871626639909
 20
-72.464691192718902
 30
0.0
 11
-641.25520163058695
 21
-72.464691192718902
 31
0.0
  0
LINE
  5
144
  8
1
  6
DASHDOT
 62
     3
 10
-633.04469899826302
 20
-9.4646911927189024
 30
0.0
 11
-639.99766529631506
 21
-9.4646911927189024
 31
0.0
  0
LINE
  5
145
  8
1
  6
DASHDOT
 62
     3
 10
-636.52118214728898
 20
-5.988208043692878
 30
0.0
 11
-636.52118214728898
 21
-12.941174341744929
 31
0.0
  0
LINE
  5
146
  8
1
 62
     7
 10
-616.25261884128565
 20
0.1908095918269715
 30
0.0
 11
-614.95852361577329
 21
5.0204387232723677
 31
0.0
  0
LINE
  5
147
  8
1
 62
     7
 10
-616.05915006087832
 20
0.1389697883562183
 30
0.0
 11
-614.76505483536585
 21
4.9685989198015577
 31
0.0
  0
LINE
  5
148
  8
1
 62
     7
 10
-615.3976699622242
 20
-0.0382732698874251
 30
0.0
 11
-614.10357473671161
 21
4.791355861557915
 31
0.0
  0
LINE
  5
149
  8
1
 62
     7
 10
-615.62021124248213
 20
0.0213564864402446
 30
0.0
 11
-614.32611601696965
 21
4.850985617885641
 31
0.0
  0
LINE
  5
14A
  8
1
 62
     7
 10
-615.83578567525205
 20
0.0791194816097537
 30
0.0
 11
-614.54169044973958
 21
4.9087486130551499
 31
0.0
  0
LINE
  5
14B
  8
1
 62
     7
 10
-618.60062683949229
 20
0.8199564387682634
 30
0.0
 11
-617.3065316139797
 21
5.6495855702136044
 31
0.0
  0
LINE
  5
14C
  8
1
 62
     7
 10
-618.34676429369472
 20
0.751934174633298
 30
0.0
 11
-617.05266906818224
 21
5.581563306078638
 31
0.0
  0
LINE
  5
14D
  8
1
 62
     7
 10
-617.58742542199263
 20
0.5484699371791459
 30
0.0
 11
-616.29333019647993
 21
5.3780990686244872
 31
0.0
  0
LINE
  5
14E
  8
1
 62
     7
 10
-617.86421672552217
 20
0.6226359434318698
 30
0.0
 11
-616.5701215000098
 21
5.4522650748772099
 31
0.0
  0
LINE
  5
14F
  8
1
 62
     7
 10
-618.14018492368245
 20
0.6965813992655217
 30
0.0
 11
-616.84608969816998
 21
5.5262105307109737
 31
0.0
  0
LINE
  5
150
  8
1
 62
     7
 10
-619.2212000592217
 20
0.9862385318391224
 30
0.0
 11
-614.777941258292
 21
-0.204329075632467
 31
0.0
  0
LINE
  5
151
  8
1
 62
     7
 10
-619.81791595884295
 20
-19.01377072695032
 30
0.0
 11
-614.777941258292
 21
-0.204329075632467
 31
0.0
  0
LINE
  5
152
  8
1
 62
     7
 10
-616.99957065875685
 20
0.3909547281033277
 30
0.0
 11
-622.02731562154781
 21
-18.372844920531051
 31
0.0
  0
LINE
  5
153
  8
1
 62
     7
 10
-624.26117475977264
 20
-17.82320311947873
 30
0.0
 11
-619.2212000592217
 21
0.9862385318391224
 31
0.0
  0
ARC
  5
154
  8
1
 62
     7
 10
-641.52118214728887
 20
-5.4646911927189032
 30
0.0
 40
2.0
 50
90.0
 51
180.0
  0
ARC
  5
155
  8
1
 62
     7
 10
-631.52118214728898
 20
-5.4646911927189032
 30
0.0
 40
2.0
 50
0.0
 51
90.0
  0
ARC
  5
156
  8
1
 62
     7
 10
-256.52118214728893
 20
-5.4646911927189032
 30
0.0
 40
2.0
 50
90.0
 51
180.0
  0
ARC
  5
157
  8
1
 62
     7
 10
-246.52118214728901
 20
-5.4646911927189032
 30
0.0
 40
2.0
 50
0.0
 51
90.0
  0
ARC
  5
158
  8
1
 62
     7
 10
-636.52118214728898
 20
-72.464691192718902
 30
0.0
 40
15.0
 50
105.4660099534206
 51
74.533990046579461
  0
ARC
  5
159
  8
1
 62
     7
 10
-251.52118214728901
 20
-72.464691192718902
 30
0.0
 40
55.0
 50
204.78409142954581
 51
215.21590857045399
  0
ARC
  5
15A
  8
1
 62
     7
 10
-251.52118214728901
 20
-72.464691192718902
 30
0.0
 40
54.999999999999979
 50
144.78409142954581
 51
155.2159085704541
  0
ARC
  5
15B
  8
1
 62
     7
 10
-251.52118214728901
 20
-72.464691192718902
 30
0.0
 40
55.0
 50
84.784091429545867
 51
95.215908570454076
  0
ARC
  5
15C
  8
1
 62
     7
 10
-251.52118214728901
 20
-72.464691192718902
 30
0.0
 40
55.0
 50
24.78409142954586
 51
35.215908570454097
  0
ARC
  5
15D
  8
1
 62
     7
 10
-251.52118214728901
 20
-72.464691192718902
 30
0.0
 40
55.0
 50
324.78409142954581
 51
335.21590857045408
  0
ARC
  5
15E
  8
1
 62
     7
 10
-251.52118214728901
 20
-72.464691192718902
 30
0.0
 40
54.999999999999972
 50
264.78409142954598
 51
275.21590857045402
  0
ARC
  5
15F
  8
1
 62
     7
 10
-251.52118214728901
 20
-72.464691192718902
 30
0.0
 40
56.000000000000043
 50
155.12251609978091
 51
204.87748390021909
  0
ARC
  5
160
  8
1
 62
     7
 10
-251.52118214728901
 20
-72.464691192718902
 30
0.0
 40
55.999999999999993
 50
95.122516099780853
 51
144.8774839002192
  0
ARC
  5
161
  8
1
 62
     7
 10
-251.52118214728901
 20
-72.464691192718902
 30
0.0
 40
55.999999999999957
 50
35.122516099780917
 51
84.87748390021909
  0
ARC
  5
162
  8
1
 62
     7
 10
-251.52118214728901
 20
-72.464691192718902
 30
0.0
 40
55.999999999999972
 50
335.12251609978091
 51
24.877483900219101
  0
ARC
  5
163
  8
1
 62
     7
 10
-251.52118214728901
 20
-72.464691192718902
 30
0.0
 40
56.000000000000007
 50
275.12251609978091
 51
324.87748390021898
  0
ARC
  5
164
  8
1
 62
     7
 10
-251.52118214728901
 20
-72.464691192718902
 30
0.0
 40
15.0
 50
105.4660099534206
 51
74.533990046579461
  0
ARC
  5
165
  8
1
 62
     7
 10
-251.52118214728901
 20
-72.464691192718902
 30
0.0
 40
56.000000000000043
 50
215.12251609978091
 51
264.8774839002192
  0
ARC
  5
166
  8
1
 62
     7
 10
-636.52118214728898
 20
-28.964691192718892
 30
0.0
 40
7.0
 50
180.0
 51
0.0
  0
ARC
  5
167
  8
1
 62
     7
 10
-636.52118214728898
 20
-72.464691192718902
 30
0.0
 40
56.0
 50
97.180755781458302
 51
144.877483900219
  0
ARC
  5
168
  8
1
 62
     7
 10
-636.52118214728898
 20
-72.464691192718902
 30
0.0
 40
56.000000000000007
 50
155.1225160997808
 51
204.877483900219
  0
ARC
  5
169
  8
1
 62
     7
 10
-636.52118214728898
 20
-72.464691192718902
 30
0.0
 40
55.999999999999872
 50
215.1225160997808
 51
264.87748390021892
  0
ARC
  5
16A
  8
1
 62
     7
 10
-636.52118214728898
 20
-72.464691192718902
 30
0.0
 40
55.999999999999808
 50
275.1225160997808
 51
324.87748390021898
  0
ARC
  5
16B
  8
1
 62
     7
 10
-636.52118214728898
 20
-72.464691192718902
 30
0.0
 40
55.999999999999872
 50
335.12251609978091
 51
24.877483900219119
  0
ARC
  5
16C
  8
1
 62
     7
 10
-636.52118214728898
 20
-72.464691192718902
 30
0.0
 40
55.999999999999957
 50
35.122516099780917
 51
82.819244218541684
  0
ARC
  5
16D
  8
1
 62
     7
 10
-636.52118214728898
 20
-72.464691192718902
 30
0.0
 40
55.0
 50
97.312021926266937
 51
82.687978073733078
  0
ARC
  5
16E
  8
1
 62
     7
 10
-636.52118214728898
 20
-72.464691192718902
 30
0.0
 40
53.0
 50
97.589542391858004
 51
82.410457608141982
  0
CIRCLE
  5
16F
  8
1
 62
     7
 10
-409.52118214728893
 20
-46.964691192718917
 30
0.0
 40
3.299999999999955
  0
CIRCLE
  5
170
  8
1
 62
     7
 10
-397.52118214728893
 20
-46.964691192718917
 30
0.0
 40
3.299999999999955
  0
CIRCLE
  5
171
  8
1
 62
     7
 10
-251.52118214728901
 20
-72.464691192718902
 30
0.0
 40
38.234804316161501
  0
CIRCLE
  5
172
  8
1
 62
     7
 10
-636.52118214728898
 20
-9.4646911927189024
 30
0.0
 40
2.75
  0
CIRCLE
  5
173
  8
1
 62
     7
 10
-409.52118214728893
 20
-97.964691192718902
 30
0.0
 40
3.299999999999955
  0
CIRCLE
  5
174
  8
1
 62
     7
 10
-397.52118214728893
 20
-97.964691192718902
 30
0.0
 40
3.299999999999955
  0
CIRCLE
  5
175
  8
1
 62
     7
 10
-251.52118214728901
 20
-72.464691192718902
 30
0.0
 40
23.600000000000019
  0
CIRCLE
  5
176
  8
1
  6
DASHDOT
 62
     3
 10
-251.52118214728901
 20
-72.464691192718902
 30
0.0
 40
25.0
  0
CIRCLE
  5
177
  8
1
 62
     7
 10
-251.52118214728901
 20
-72.464691192718902
 30
0.0
 40
26.600000000000009
  0
CIRCLE
  5
178
  8
1
 62
     7
 10
-251.52118214728901
 20
-72.464691192718902
 30
0.0
 40
29.0
  0
CIRCLE
  5
179
  8
1
 62
     7
 10
-251.52118214728901
 20
-72.464691192718902
 30
0.0
 40
50.5
  0
CIRCLE
  5
17A
  8
1
 62
     7
 10
-251.52118214728901
 20
-9.4646911927189024
 30
0.0
 40
2.75
  0
CIRCLE
  5
17B
  8
1
 62
     7
 10
-636.52118214728898
 20
-72.464691192718902
 30
0.0
 40
31.0
  0
CIRCLE
  5
17C
  8
1
 62
     7
 10
-636.52118214728898
 20
-72.464691192718902
 30
0.0
 40
20.0
  0
TEXT
  5
17E
  8
1
 62
     7
 10
-688.18487743597575
 20
38.046551779546903
 30
0.0
 40
6.0
  1
MWC 5
 41
0.9
  7
SIMPLEX
  0
ENDSEC
  0
EOF
