  0
SECTION
  2
HEADER
  9
$ACADVER
  1
AC1009
  9
$INSBASE
 10
0.0
 20
0.0
 30
0.0
  9
$EXTMIN
 10
-536.90499218051275
 20
-77.151393158333192
 30
0.0
  9
$EXTMAX
 10
555.59500781948702
 20
308.47452409618199
 30
0.0
  9
$LIMMIN
 10
-536.90499218051275
 20
-77.151393158333192
  9
$LIMMAX
 10
555.59500781948702
 20
308.47452409618199
  9
$ORTHOMODE
 70
     0
  9
$REGENMODE
 70
     1
  9
$FILLMODE
 70
     1
  9
$QTEXTMODE
 70
     0
  9
$MIRRTEXT
 70
     1
  9
$DRAGMODE
 70
     2
  9
$LTSCALE
 40
1.0
  9
$OSMODE
 70
    37
  9
$ATTMODE
 70
     1
  9
$TEXTSIZE
 40
3.5
  9
$TRACEWID
 40
0.5
  9
$TEXTSTYLE
  7
STANDARD
  9
$CLAYER
  8
0
  9
$CELTYPE
  6
BYLAYER
  9
$CECOLOR
 62
   256
  9
$DIMSCALE
 40
1.0
  9
$DIMASZ
 40
0.18
  9
$DIMEXO
 40
0.0625
  9
$DIMDLI
 40
0.38
  9
$DIMRND
 40
0.0
  9
$DIMDLE
 40
0.0
  9
$DIMEXE
 40
0.18
  9
$DIMTP
 40
0.0
  9
$DIMTM
 40
0.0
  9
$DIMTXT
 40
0.18
  9
$DIMCEN
 40
0.09
  9
$DIMTSZ
 40
0.0
  9
$DIMTOL
 70
     0
  9
$DIMLIM
 70
     0
  9
$DIMTIH
 70
     1
  9
$DIMTOH
 70
     1
  9
$DIMSE1
 70
     0
  9
$DIMSE2
 70
     0
  9
$DIMTAD
 70
     0
  9
$DIMZIN
 70
     0
  9
$DIMBLK
  1

  9
$DIMASO
 70
     1
  9
$DIMSHO
 70
     1
  9
$DIMPOST
  1

  9
$DIMAPOST
  1

  9
$DIMALT
 70
     0
  9
$DIMALTD
 70
     2
  9
$DIMALTF
 40
25.399999999999999
  9
$DIMLFAC
 40
1.0
  9
$DIMTOFL
 70
     0
  9
$DIMTVP
 40
0.0
  9
$DIMTIX
 70
     0
  9
$DIMSOXD
 70
     0
  9
$DIMSAH
 70
     0
  9
$DIMBLK1
  1

  9
$DIMBLK2
  1

  9
$DIMSTYLE
  2
STANDARD
  9
$DIMCLRD
 70
     0
  9
$DIMCLRE
 70
     0
  9
$DIMCLRT
 70
     0
  9
$DIMTFAC
 40
1.0
  9
$DIMGAP
 40
0.09
  9
$LUNITS
 70
     2
  9
$LUPREC
 70
     4
  9
$SKETCHINC
 40
0.1
  9
$FILLETRAD
 40
2.0
  9
$AUNITS
 70
     0
  9
$AUPREC
 70
     0
  9
$MENU
  1
ACAD
  9
$ELEVATION
 40
0.0
  9
$PELEVATION
 40
0.0
  9
$THICKNESS
 40
0.0
  9
$LIMCHECK
 70
     0
  9
$BLIPMODE
 70
     0
  9
$CHAMFERA
 40
0.0
  9
$CHAMFERB
 40
0.0
  9
$SKPOLY
 70
     0
  9
$TDCREATE
 40
2452095.0414045141
  9
$TDUPDATE
 40
2452095.0425538188
  9
$TDINDWG
 40
0.0011678241
  9
$TDUSRTIMER
 40
0.0011678241
  9
$USRTIMER
 70
     1
  9
$ANGBASE
 50
0.0
  9
$ANGDIR
 70
     0
  9
$PDMODE
 70
     0
  9
$PDSIZE
 40
0.0
  9
$PLINEWID
 40
0.0
  9
$COORDS
 70
     1
  9
$SPLFRAME
 70
     0
  9
$SPLINETYPE
 70
     6
  9
$SPLINESEGS
 70
     8
  9
$ATTDIA
 70
     0
  9
$ATTREQ
 70
     1
  9
$HANDLING
 70
 10241
  9
$HANDSEED
  5
1D9
  9
$SURFTAB1
 70
     6
  9
$SURFTAB2
 70
     6
  9
$SURFTYPE
 70
     6
  9
$SURFU
 70
     6
  9
$SURFV
 70
     6
  9
$UCSNAME
  2

  9
$UCSORG
 10
0.0
 20
0.0
 30
0.0
  9
$UCSXDIR
 10
1.0
 20
0.0
 30
0.0
  9
$UCSYDIR
 10
0.0
 20
1.0
 30
0.0
  9
$PUCSNAME
  2

  9
$PUCSORG
 10
0.0
 20
0.0
 30
0.0
  9
$PUCSXDIR
 10
1.0
 20
0.0
 30
0.0
  9
$PUCSYDIR
 10
0.0
 20
1.0
 30
0.0
  9
$USERI1
 70
     0
  9
$USERI2
 70
     0
  9
$USERI3
 70
     0
  9
$USERI4
 70
     0
  9
$USERI5
 70
     0
  9
$USERR1
 40
0.0
  9
$USERR2
 40
0.0
  9
$USERR3
 40
0.0
  9
$USERR4
 40
0.0
  9
$USERR5
 40
0.0
  9
$WORLDVIEW
 70
     1
  9
$SHADEDGE
 70
     3
  9
$SHADEDIF
 70
    70
  9
$TILEMODE
 70
     1
  9
$MAXACTVP
 70
    64
  9
$PLIMCHECK
 70
     0
  9
$PEXTMIN
 10
1.0000000000000000E+020
 20
1.0000000000000000E+020
 30
1.0000000000000000E+020
  9
$PEXTMAX
 10
-1.0000000000000000E+020
 20
-1.0000000000000000E+020
 30
-1.0000000000000000E+020
  9
$PLIMMIN
 10
0.0
 20
0.0
  9
$PLIMMAX
 10
12.0
 20
9.0
  9
$UNITMODE
 70
     0
  9
$VISRETAIN
 70
     1
  9
$PLINEGEN
 70
     0
  9
$PSLTSCALE
 70
     1
  0
ENDSEC
  0
SECTION
  2
TABLES
  0
TABLE
  2
VPORT
 70
     2
  0
VPORT
  2
*ACTIVE
 70
     0
 10
0.0
 20
0.0
 11
1.0
 21
1.0
 12
-450.95794363311762
 22
304.2166754756347
 13
0.0
 23
0.0
 14
1.0
 24
1.0
 15
0.0
 25
0.0
 16
0.0
 26
0.0
 36
1.0
 17
0.0
 27
0.0
 37
0.0
 40
9.0000005373098002
 41
2.4144144144144142
 42
50.0
 43
0.0
 44
0.0
 50
0.0
 51
0.0
 71
     0
 72
   100
 73
     1
 74
     1
 75
     0
 76
     0
 77
     0
 78
     0
  0
ENDTAB
  0
TABLE
  2
LTYPE
 70
     9
  0
LTYPE
  2
CONTINUOUS
 70
     0
  3
Solid line
 72
    65
 73
     0
 40
0.0
  0
LTYPE
  2
BORDER
 70
     0
  3
__ __ . __ __ .
 72
    65
 73
     6
 40
50.3125
 49
14.375
 49
-7.1875
 49
14.375
 49
-7.1875
 49
0.0
 49
-7.1875
  0
LTYPE
  2
CENTER
 70
     0
  3
____ _ ____ _
 72
    65
 73
     4
 40
57.5
 49
35.9375
 49
-7.1875
 49
7.1875
 49
-7.1875
  0
LTYPE
  2
DASHDOT
 70
     0
  3
__ . __ . __ .
 72
    65
 73
     4
 40
28.75
 49
14.375
 49
-7.1875
 49
0.0
 49
-7.1875
  0
LTYPE
  2
DASHED
 70
     0
  3
__ __ __ __ __
 72
    65
 73
     2
 40
21.5625
 49
14.375
 49
-7.1875
  0
LTYPE
  2
DIVIDE
 70
     0
  3
__ . . __ . . 
 72
    65
 73
     6
 40
35.9375
 49
14.375
 49
-7.1875
 49
0.0
 49
-7.1875
 49
0.0
 49
-7.1875
  0
LTYPE
  2
DOT
 70
     0
  3
..............
 72
    65
 73
     4
 40
14.375
 49
0.0
 49
-7.1875
 49
0.0
 49
-7.1875
  0
LTYPE
  2
HIDDEN
 70
     0
  3
_ _ _ _ _ _ _
 72
    65
 73
     2
 40
10.78125
 49
7.1875
 49
-3.59375
  0
LTYPE
  2
PHANTOM
 70
     0
  3
_____ _ _ _____ _ _ 
 72
    65
 73
     6
 40
71.875
 49
35.9375
 49
-7.1875
 49
7.1875
 49
-7.1875
 49
7.1875
 49
-7.1875
  0
ENDTAB
  0
TABLE
  2
LAYER
 70
     2
  0
LAYER
  2
0
 70
     0
 62
     7
  6
CONTINUOUS
  0
LAYER
  2
1
 70
     0
 62
     7
  6
CONTINUOUS
  0
ENDTAB
  0
TABLE
  2
STYLE
 70
     4
  0
STYLE
  2
STANDARD
 70
     0
 40
0.0
 41
1.0
 50
0.0
 71
     0
 42
3.5
  3
txt
  4

  0
STYLE
  2
SIMPLEX
 70
     0
 40
0.0
 41
1.0
 50
0.0
 71
     0
 42
3.5
  3
simplex
  4

  0
STYLE
  2
COMPLEX
 70
     0
 40
0.0
 41
1.0
 50
0.0
 71
     0
 42
3.5
  3
complex
  4

  0
STYLE
  2
ITALIC
 70
     0
 40
0.0
 41
1.0
 50
0.0
 71
     0
 42
3.5
  3
italic
  4

  0
ENDTAB
  0
TABLE
  2
VIEW
 70
     0
  0
ENDTAB
  0
TABLE
  2
UCS
 70
     0
  0
ENDTAB
  0
TABLE
  2
APPID
 70
     1
  0
APPID
  2
ACAD
 70
     0
  0
ENDTAB
  0
TABLE
  2
DIMSTYLE
 70
     1
  0
DIMSTYLE
  2
STANDARD
 70
     0
  3

  4

  5

  6

  7

 40
1.0
 41
0.18
 42
0.0625
 43
0.38
 44
0.18
 45
0.0
 46
0.0
 47
0.0
 48
0.0
140
0.18
141
0.09
142
0.0
143
25.399999999999999
144
1.0
145
0.0
146
1.0
147
0.09
 71
     0
 72
     0
 73
     1
 74
     1
 75
     0
 76
     0
 77
     0
 78
     0
170
     0
171
     2
172
     0
173
     0
174
     0
175
     0
176
     0
177
     0
178
     0
  0
ENDTAB
  0
ENDSEC
  0
SECTION
  2
BLOCKS
  0
BLOCK
  8
0
  2
$MODEL_SPACE
 70
     0
 10
0.0
 20
0.0
 30
0.0
  3
$MODEL_SPACE
  1

  0
ENDBLK
  5
20
  8
0
  0
BLOCK
 67
     1
  8
0
  2
$PAPER_SPACE
 70
     0
 10
0.0
 20
0.0
 30
0.0
  3
$PAPER_SPACE
  1

  0
ENDBLK
  5
1C
 67
     1
  8
0
  0
ENDSEC
  0
SECTION
  2
ENTITIES
  0
LINE
  5
33
  8
1
 62
     7
 10
82.095007819487023
 20
-70.593525179856144
 30
0.0
 11
82.095007819487023
 21
-39.093525179856101
 31
0.0
  0
LINE
  5
34
  8
1
 62
     7
 10
-178.40499218051301
 20
137.65647482014381
 30
0.0
 11
-178.40499218051301
 21
146.1564748201439
 31
0.0
  0
LINE
  5
35
  8
1
 62
     7
 10
-173.7049921805129
 20
146.1564748201439
 30
0.0
 11
-173.7049921805129
 21
137.65647482014381
 31
0.0
  0
LINE
  5
36
  8
1
 62
     7
 10
-178.40499218051301
 20
146.1564748201439
 30
0.0
 11
-173.7049921805129
 21
146.1564748201439
 31
0.0
  0
LINE
  5
37
  8
1
 62
     7
 10
-178.7049921805129
 20
145.6368595778732
 30
0.0
 11
-178.40499218051301
 21
146.1564748201439
 31
0.0
  0
LINE
  5
38
  8
1
 62
     7
 10
-178.7049921805129
 20
138.1760900624146
 30
0.0
 11
-178.7049921805129
 21
145.6368595778732
 31
0.0
  0
LINE
  5
39
  8
1
 62
     7
 10
-178.40499218051301
 20
137.65647482014381
 30
0.0
 11
-178.7049921805129
 21
138.1760900624146
 31
0.0
  0
LINE
  5
3A
  8
1
 62
     7
 10
-173.7049921805129
 20
137.65647482014381
 30
0.0
 11
-178.40499218051301
 21
137.65647482014381
 31
0.0
  0
LINE
  5
3B
  8
1
 62
     7
 10
-172.40499218051301
 20
146.50647482014389
 30
0.0
 11
-172.40499218051301
 21
137.3064748201439
 31
0.0
  0
LINE
  5
3C
  8
1
 62
     7
 10
-173.7049921805129
 20
146.50647482014389
 30
0.0
 11
-172.40499218051301
 21
146.50647482014389
 31
0.0
  0
LINE
  5
3D
  8
1
 62
     7
 10
-173.7049921805129
 20
137.3064748201439
 30
0.0
 11
-173.7049921805129
 21
146.50647482014389
 31
0.0
  0
LINE
  5
3E
  8
1
 62
     7
 10
-172.40499218051301
 20
137.3064748201439
 30
0.0
 11
-173.7049921805129
 21
137.3064748201439
 31
0.0
  0
LINE
  5
3F
  8
1
 62
     7
 10
-172.40499218051301
 20
143.20647482014391
 30
0.0
 11
-173.7049921805129
 21
141.90647482014381
 31
0.0
  0
LINE
  5
40
  8
1
 62
     7
 10
-172.40499218051301
 20
141.90647482014381
 30
0.0
 11
-173.7049921805129
 21
140.60647482014389
 31
0.0
  0
LINE
  5
41
  8
1
 62
     7
 10
-183.40499218051301
 20
92.006474820144049
 30
0.0
 11
-182.40499218051301
 21
92.006474820144049
 31
0.0
  0
LINE
  5
42
  8
1
 62
     7
 10
-49.404992180512963
 20
100.9064748201439
 30
0.0
 11
-50.40499218051297
 21
101.9064748201439
 31
0.0
  0
LINE
  5
43
  8
1
 62
     7
 10
-183.40499218051301
 20
92.006474820144049
 30
0.0
 11
-184.40499218051301
 21
91.006474820144049
 31
0.0
  0
LINE
  5
44
  8
1
 62
     7
 10
-54.404992180512963
 20
154.4064748201439
 30
0.0
 11
-66.404992180512977
 21
154.4064748201439
 31
0.0
  0
LINE
  5
45
  8
1
 62
     7
 10
-51.40499218051297
 20
151.4064748201439
 30
0.0
 11
-54.404992180512963
 21
154.4064748201439
 31
0.0
  0
LINE
  5
46
  8
1
 62
     7
 10
-170.40499218051301
 20
164.40647482014401
 30
0.0
 11
-100.40499218051291
 21
164.40647482014401
 31
0.0
  0
LINE
  5
47
  8
1
 62
     7
 10
-93.404992180512977
 20
157.40647482014381
 30
0.0
 11
-100.40499218051291
 21
164.40647482014401
 31
0.0
  0
LINE
  5
48
  8
1
 62
     7
 10
-170.40499218051301
 20
132.9064748201439
 30
0.0
 11
-182.40499218051301
 21
132.9064748201439
 31
0.0
  0
LINE
  5
49
  8
1
 62
     7
 10
-89.404992180512977
 20
164.40647482014401
 30
0.0
 11
-66.404992180512977
 21
164.40647482014401
 31
0.0
  0
LINE
  5
4A
  8
1
 62
     7
 10
-50.40499218051297
 20
101.9064748201439
 30
0.0
 11
-51.40499218051297
 21
101.9064748201439
 31
0.0
  0
LINE
  5
4B
  8
1
 62
     3
 10
-66.404992180512977
 20
46.906474820143899
 30
0.0
 11
-89.404992180512977
 21
164.40647482014401
 31
0.0
  0
LINE
  5
4C
  8
1
 62
     3
 10
-66.404992180512977
 20
164.40647482014401
 30
0.0
 11
-89.404992180512977
 21
46.906474820143899
 31
0.0
  0
LINE
  5
4D
  8
1
 62
     7
 10
-93.404992180512977
 20
154.4064748201439
 30
0.0
 11
-89.404992180512977
 21
154.4064748201439
 31
0.0
  0
LINE
  5
4E
  8
1
 62
     7
 10
202.09500781948699
 20
-8.0935251798561012
 30
0.0
 11
200.19500781948699
 21
-8.0935251798561012
 31
0.0
  0
LINE
  5
4F
  8
1
 62
     7
 10
200.19500781948699
 20
-8.0935251798561012
 30
0.0
 11
200.19500781948699
 21
-6.0935251798561012
 31
0.0
  0
LINE
  5
50
  8
1
 62
     7
 10
200.19500781948699
 20
-6.0935251798561012
 30
0.0
 11
195.995007819487
 21
-6.0935251798561012
 31
0.0
  0
LINE
  5
51
  8
1
 62
     7
 10
195.995007819487
 20
-6.0935251798561012
 30
0.0
 11
195.995007819487
 21
-12.49352517985597
 31
0.0
  0
LINE
  5
52
  8
1
 62
     7
 10
195.995007819487
 20
-12.49352517985597
 30
0.0
 11
163.09500781948699
 21
-12.49352517985597
 31
0.0
  0
LINE
  5
53
  8
1
 62
     7
 10
163.09500781948699
 20
-70.593525179856144
 30
0.0
 11
163.09500781948699
 21
-0.5935251798561012
 31
0.0
  0
LINE
  5
54
  8
1
 62
     7
 10
163.09500781948699
 20
-0.5935251798561012
 30
0.0
 11
129.09500781948691
 21
-0.5935251798561012
 31
0.0
  0
LINE
  5
55
  8
1
 62
     7
 10
129.09500781948691
 20
-0.5935251798561012
 30
0.0
 11
129.09500781948691
 21
1.806474820143932
 31
0.0
  0
LINE
  5
56
  8
1
 62
     7
 10
129.09500781948691
 20
1.806474820143932
 30
0.0
 11
80.095007819487023
 21
1.806474820143932
 31
0.0
  0
LINE
  5
57
  8
1
 62
     7
 10
77.095007819487023
 20
1.806474820143932
 30
0.0
 11
68.095007819487023
 21
1.806474820143932
 31
0.0
  0
LINE
  5
58
  8
1
 62
     7
 10
177.09500781948691
 20
10.906474820143901
 30
0.0
 11
169.09500781948699
 21
10.906474820143901
 31
0.0
  0
LINE
  5
59
  8
1
 62
     7
 10
169.09500781948699
 20
11.906474820143901
 30
0.0
 11
133.09500781948691
 21
11.906474820143901
 31
0.0
  0
LINE
  5
5A
  8
1
 62
     7
 10
133.09500781948691
 20
10.906474820143901
 30
0.0
 11
125.0950078194869
 21
10.906474820143901
 31
0.0
  0
LINE
  5
5B
  8
1
 62
     7
 10
125.0950078194869
 20
11.906474820143901
 30
0.0
 11
68.095007819487023
 21
11.906474820143901
 31
0.0
  0
LINE
  5
5C
  8
1
 62
     7
 10
203.09500781948691
 20
11.906474820143901
 30
0.0
 11
177.09500781948691
 21
11.906474820143901
 31
0.0
  0
LINE
  5
5D
  8
1
 62
     7
 10
203.09500781948691
 20
-7.0935251798561012
 30
0.0
 11
200.19500781948699
 21
-7.0935251798561012
 31
0.0
  0
LINE
  5
5E
  8
1
 62
     7
 10
195.995007819487
 20
-7.0935251798561012
 30
0.0
 11
163.09500781948699
 21
-7.0935251798561012
 31
0.0
  0
LINE
  5
5F
  8
1
 62
     7
 10
202.09500781948699
 20
-8.0935251798561012
 30
0.0
 11
203.09500781948691
 21
-7.0935251798561012
 31
0.0
  0
LINE
  5
60
  8
1
 62
     7
 10
196.1950078194869
 20
-14.99352517985597
 30
0.0
 11
200.19500781948699
 21
-14.99352517985611
 31
0.0
  0
LINE
  5
61
  8
1
 62
     7
 10
200.19500781948699
 20
-14.99352517985611
 30
0.0
 11
200.19500781948699
 21
-6.0935251798561012
 31
0.0
  0
LINE
  5
62
  8
1
 62
     7
 10
196.1950078194869
 20
-6.0935251798561012
 30
0.0
 11
196.1950078194869
 21
-20.093525179856101
 31
0.0
  0
LINE
  5
63
  8
1
 62
     7
 10
196.1950078194869
 20
-20.093525179856101
 30
0.0
 11
201.09500781948691
 21
-20.093525179856101
 31
0.0
  0
LINE
  5
64
  8
1
 62
     7
 10
201.09500781948691
 20
-17.35892107487507
 30
0.0
 11
201.09500781948691
 21
-57.593525179856101
 31
0.0
  0
LINE
  5
65
  8
1
 62
     7
 10
198.09500781948691
 20
-60.593525179856101
 30
0.0
 11
186.09500781948699
 21
-60.593525179856101
 31
0.0
  0
LINE
  5
66
  8
1
 62
     7
 10
186.09500781948699
 20
-60.593525179856101
 30
0.0
 11
186.09500781948699
 21
-7.0935251798561012
 31
0.0
  0
LINE
  5
67
  8
1
 62
     7
 10
186.09500781948699
 20
-7.9935251798559648
 30
0.0
 11
196.1950078194869
 21
-7.9935251798559648
 31
0.0
  0
LINE
  5
68
  8
1
 62
     7
 10
196.1950078194869
 20
-13.093525179856099
 30
0.0
 11
186.09500781948699
 21
-13.093525179856099
 31
0.0
  0
LINE
  5
69
  8
1
 62
     7
 10
198.09500781948691
 20
-60.593525179856101
 30
0.0
 11
201.09500781948691
 21
-57.593525179856101
 31
0.0
  0
LINE
  5
6A
  8
1
 62
     7
 10
162.59500781948691
 20
-60.493525179855958
 30
0.0
 11
146.59500781948691
 21
-60.493525179855958
 31
0.0
  0
LINE
  5
6B
  8
1
 62
     7
 10
146.09500781948691
 20
-59.993525179855958
 30
0.0
 11
146.09500781948691
 21
-49.093525179856101
 31
0.0
  0
LINE
  5
6C
  8
1
 62
     7
 10
146.09500781948691
 20
-49.093525179856101
 30
0.0
 11
186.09500781948699
 21
-49.093525179856101
 31
0.0
  0
LINE
  5
6D
  8
1
 62
     7
 10
148.09500781948691
 20
-49.093525179856101
 30
0.0
 11
148.09500781948691
 21
-17.493525179855968
 31
0.0
  0
LINE
  5
6E
  8
1
 62
     7
 10
148.09500781948691
 20
-17.493525179855968
 30
0.0
 11
130.09500781948691
 21
-17.493525179855968
 31
0.0
  0
LINE
  5
6F
  8
1
 62
     7
 10
129.09500781948691
 20
-16.493525179855968
 30
0.0
 11
129.09500781948691
 21
-6.5935251798561012
 31
0.0
  0
LINE
  5
70
  8
1
 62
     7
 10
129.09500781948691
 20
-6.5935251798561012
 30
0.0
 11
128.09500781948691
 21
-6.5935251798561012
 31
0.0
  0
LINE
  5
71
  8
1
 62
     7
 10
186.09500781948699
 20
-35.093525179856101
 30
0.0
 11
148.09500781948691
 21
-35.093525179856101
 31
0.0
  0
LINE
  5
72
  8
1
 62
     7
 10
128.09500781948691
 20
-18.093525179856101
 30
0.0
 11
147.09500781948691
 21
-18.093525179856101
 31
0.0
  0
LINE
  5
73
  8
1
 62
     7
 10
147.09500781948691
 20
-40.093525179856101
 30
0.0
 11
145.09500781948691
 21
-40.093525179856101
 31
0.0
  0
LINE
  5
74
  8
1
 62
     7
 10
129.09500781948691
 20
-16.493525179855968
 30
0.0
 11
130.09500781948691
 21
-17.493525179855968
 31
0.0
  0
LINE
  5
75
  8
1
 62
     7
 10
162.59500781948691
 20
-60.493525179855958
 30
0.0
 11
163.09500781948699
 21
-59.993525179855958
 31
0.0
  0
LINE
  5
76
  8
1
 62
     7
 10
146.09500781948691
 20
-59.993525179855958
 30
0.0
 11
146.59500781948691
 21
-60.493525179855958
 31
0.0
  0
LINE
  5
77
  8
1
 62
     7
 10
159.09500781948691
 20
-61.093525179856101
 30
0.0
 11
159.09500781948691
 21
-63.593525179856101
 31
0.0
  0
LINE
  5
78
  8
1
 62
     7
 10
152.09500781948691
 20
-70.593525179856144
 30
0.0
 11
82.095007819487023
 21
-70.593525179856144
 31
0.0
  0
LINE
  5
79
  8
1
 62
     7
 10
152.09500781948691
 20
-70.593525179856144
 30
0.0
 11
159.09500781948691
 21
-63.593525179856101
 31
0.0
  0
LINE
  5
7A
  8
1
 62
     7
 10
147.09500781948691
 20
-40.093525179856101
 30
0.0
 11
147.09500781948691
 21
-18.093525179856101
 31
0.0
  0
LINE
  5
7B
  8
1
 62
     7
 10
112.360007819487
 20
-17.112734946125901
 30
0.0
 11
95.830007819486994
 21
-17.112734946125901
 31
0.0
  0
LINE
  5
7C
  8
1
 62
     7
 10
119.83000781948699
 20
-17.112734946125901
 30
0.0
 11
128.09500781948691
 21
-17.11273494612567
 31
0.0
  0
LINE
  5
7D
  8
1
 62
     7
 10
119.83000781948699
 20
-4.174315413586271
 30
0.0
 11
128.09500781948691
 21
-4.1743154135863838
 31
0.0
  0
LINE
  5
7E
  8
1
 62
     7
 10
112.360007819487
 20
-4.174315413586271
 30
0.0
 11
95.830007819486994
 21
-4.174315413586271
 31
0.0
  0
LINE
  5
7F
  8
1
 62
     3
 10
124.31200781948689
 20
-10.643525179856001
 30
0.0
 11
107.8780078194869
 21
-10.643525179856001
 31
0.0
  0
LINE
  5
80
  8
1
 62
     3
 10
116.09500781948699
 20
-18.860525179856101
 30
0.0
 11
116.09500781948699
 21
-2.4265251798559571
 31
0.0
  0
LINE
  5
81
  8
1
 62
     7
 10
70.095007819487023
 20
-39.093525179856101
 30
0.0
 11
70.095007819487023
 21
1.806474820143932
 31
0.0
  0
LINE
  5
82
  8
1
 62
     7
 10
70.095007819487023
 20
-39.093525179856101
 30
0.0
 11
82.095007819487023
 21
-39.093525179856101
 31
0.0
  0
LINE
  5
83
  8
1
 62
     7
 10
145.09500781948691
 20
-40.093525179856101
 30
0.0
 11
145.09500781948691
 21
-61.093525179856101
 31
0.0
  0
LINE
  5
84
  8
1
 62
     7
 10
186.09500781948699
 20
-59.593525179856101
 30
0.0
 11
186.09500781948699
 21
-70.593525179856144
 31
0.0
  0
LINE
  5
85
  8
1
 62
     7
 10
186.09500781948699
 20
-70.593525179856144
 30
0.0
 11
163.09500781948699
 21
-70.593525179856144
 31
0.0
  0
LINE
  5
86
  8
1
 62
     3
 10
186.09500781948699
 20
-70.593525179856144
 30
0.0
 11
163.09500781948699
 21
-7.0935251798561012
 31
0.0
  0
LINE
  5
87
  8
1
 62
     3
 10
163.09500781948699
 20
-70.593525179856144
 30
0.0
 11
186.09500781948699
 21
-7.0935251798561012
 31
0.0
  0
LINE
  5
88
  8
1
 62
     7
 10
177.09500781948691
 20
10.906474820143901
 30
0.0
 11
169.09500781948699
 21
10.906474820143901
 31
0.0
  0
LINE
  5
89
  8
1
 62
     7
 10
177.09500781948691
 20
10.906474820143901
 30
0.0
 11
169.09500781948699
 21
10.906474820143901
 31
0.0
  0
LINE
  5
8A
  8
1
 62
     7
 10
131.09500781948691
 20
-17.493525179855968
 30
0.0
 11
131.09500781948691
 21
10.906474820143901
 31
0.0
  0
LINE
  5
8B
  8
1
 62
     7
 10
175.09500781948691
 20
-7.0935251798561012
 30
0.0
 11
175.09500781948691
 21
10.906474820143901
 31
0.0
  0
LINE
  5
8C
  8
1
 62
     7
 10
171.09500781948691
 20
-7.0935251798561012
 30
0.0
 11
171.09500781948691
 21
10.906474820143901
 31
0.0
  0
LINE
  5
8D
  8
1
 62
     3
 10
173.09500781948691
 20
-8.4327506340250675
 30
0.0
 11
173.09500781948691
 21
12.709931421769101
 31
0.0
  0
LINE
  5
8E
  8
1
 62
     7
 10
127.0950078194869
 20
1.806474820143932
 30
0.0
 11
127.0950078194869
 21
10.906474820143901
 31
0.0
  0
LINE
  5
8F
  8
1
 62
     3
 10
129.09500781948691
 20
-2.3811508203506819
 30
0.0
 11
129.09500781948691
 21
12.9007817918329
 31
0.0
  0
LINE
  5
90
  8
1
 62
     7
 10
88.360007819487024
 20
-17.112734946125901
 30
0.0
 11
80.095007819487023
 21
-17.11273494612567
 31
0.0
  0
LINE
  5
91
  8
1
 62
     7
 10
88.360007819487024
 20
-4.174315413586271
 30
0.0
 11
80.095007819487023
 21
-4.1743154135863838
 31
0.0
  0
LINE
  5
92
  8
1
 62
     3
 10
100.31200781948689
 20
-10.643525179856001
 30
0.0
 11
83.878007819487024
 21
-10.643525179856001
 31
0.0
  0
LINE
  5
93
  8
1
 62
     3
 10
92.095007819487023
 20
-18.860525179856101
 30
0.0
 11
92.095007819487023
 21
-2.4265251798559571
 31
0.0
  0
LINE
  5
94
  8
1
 62
     7
 10
76.095007819487023
 20
-26.593525179856101
 30
0.0
 11
80.095007819487023
 21
-26.593525179856101
 31
0.0
  0
LINE
  5
95
  8
1
 62
     7
 10
80.095007819487023
 20
-15.79352517985609
 30
0.0
 11
76.095007819487023
 21
-15.79352517985609
 31
0.0
  0
LINE
  5
96
  8
1
 62
     7
 10
77.095007819487023
 20
-4.3435251798561012
 30
0.0
 11
80.095007819487023
 21
-4.3435251798561012
 31
0.0
  0
LINE
  5
97
  8
1
 62
     7
 10
80.095007819487023
 20
3.6564748201438979
 30
0.0
 11
77.095007819487023
 21
3.6564748201438979
 31
0.0
  0
LINE
  5
98
  8
1
 62
     7
 10
77.095007819487023
 20
3.6564748201438979
 30
0.0
 11
77.095007819487023
 21
-4.3435251798561012
 31
0.0
  0
LINE
  5
99
  8
1
 62
     7
 10
76.095007819487023
 20
-4.3851157038523629
 30
0.0
 11
76.095007819487023
 21
-26.593525179856101
 31
0.0
  0
LINE
  5
9A
  8
1
 62
     7
 10
76.095007819487023
 20
-23.093525179856101
 30
0.0
 11
70.095007819487023
 21
-23.093525179856101
 31
0.0
  0
LINE
  5
9B
  8
1
 62
     7
 10
80.095007819487023
 20
-23.093525179856101
 30
0.0
 11
128.09500781948691
 21
-23.093525179856101
 31
0.0
  0
LINE
  5
9C
  8
1
 62
     7
 10
80.095007819487023
 20
3.6564748201438979
 30
0.0
 11
80.095007819487023
 21
-26.593525179856101
 31
0.0
  0
LINE
  5
9D
  8
1
 62
     7
 10
104.0950078194869
 20
-23.093525179856101
 30
0.0
 11
104.0950078194869
 21
1.806474820143932
 31
0.0
  0
LINE
  5
9E
  8
1
 62
     7
 10
128.09500781948691
 20
1.806474820143932
 30
0.0
 11
128.09500781948691
 21
-23.093525179856101
 31
0.0
  0
LINE
  5
9F
  8
1
 62
     7
 10
203.09500781948691
 20
100.9064748201439
 30
0.0
 11
203.09500781948691
 21
-7.0935251798561012
 31
0.0
  0
LINE
  5
A0
  8
1
 62
     7
 10
200.19500781948699
 20
101.9064748201439
 30
0.0
 11
202.09500781948699
 21
101.9064748201439
 31
0.0
  0
LINE
  5
A1
  8
1
 62
     7
 10
200.19500781948699
 20
99.906474820143913
 30
0.0
 11
200.19500781948699
 21
101.9064748201439
 31
0.0
  0
LINE
  5
A2
  8
1
 62
     7
 10
195.995007819487
 20
99.906474820143913
 30
0.0
 11
200.19500781948699
 21
99.906474820143913
 31
0.0
  0
LINE
  5
A3
  8
1
 62
     7
 10
195.995007819487
 20
106.30647482014371
 30
0.0
 11
195.995007819487
 21
99.906474820143913
 31
0.0
  0
LINE
  5
A4
  8
1
 62
     7
 10
163.09500781948699
 20
106.30647482014371
 30
0.0
 11
195.995007819487
 21
106.30647482014371
 31
0.0
  0
LINE
  5
A5
  8
1
 62
     7
 10
163.09500781948699
 20
94.406474820143913
 30
0.0
 11
163.09500781948699
 21
164.40647482014381
 31
0.0
  0
LINE
  5
A6
  8
1
 62
     7
 10
129.09500781948691
 20
94.406474820143913
 30
0.0
 11
163.09500781948699
 21
94.406474820143913
 31
0.0
  0
LINE
  5
A7
  8
1
 62
     7
 10
129.09500781948691
 20
92.006474820143865
 30
0.0
 11
129.09500781948691
 21
94.406474820143913
 31
0.0
  0
LINE
  5
A8
  8
1
 62
     7
 10
80.095007819487023
 20
92.006474820143865
 30
0.0
 11
129.09500781948691
 21
92.006474820143865
 31
0.0
  0
LINE
  5
A9
  8
1
 62
     7
 10
68.095007819487023
 20
92.006474820143865
 30
0.0
 11
77.095007819487023
 21
92.006474820143865
 31
0.0
  0
LINE
  5
AA
  8
1
 62
     7
 10
169.09500781948699
 20
82.906474820143899
 30
0.0
 11
177.09500781948691
 21
82.906474820143899
 31
0.0
  0
LINE
  5
AB
  8
1
 62
     7
 10
133.09500781948691
 20
81.906474820143913
 30
0.0
 11
169.09500781948699
 21
81.906474820143913
 31
0.0
  0
LINE
  5
AC
  8
1
 62
     7
 10
125.0950078194869
 20
82.906474820143899
 30
0.0
 11
133.09500781948691
 21
82.906474820143899
 31
0.0
  0
LINE
  5
AD
  8
1
 62
     7
 10
68.095007819487023
 20
81.906474820143913
 30
0.0
 11
125.0950078194869
 21
81.906474820143913
 31
0.0
  0
LINE
  5
AE
  8
1
 62
     7
 10
133.09500781948691
 20
10.906474820143901
 30
0.0
 11
133.09500781948691
 21
82.906474820143899
 31
0.0
  0
LINE
  5
AF
  8
1
 62
     7
 10
125.0950078194869
 20
10.906474820143901
 30
0.0
 11
125.0950078194869
 21
82.906474820143899
 31
0.0
  0
LINE
  5
B0
  8
1
 62
     7
 10
169.09500781948699
 20
10.906474820143901
 30
0.0
 11
169.09500781948699
 21
82.906474820143899
 31
0.0
  0
LINE
  5
B1
  8
1
 62
     7
 10
177.09500781948691
 20
81.906474820143913
 30
0.0
 11
203.09500781948691
 21
81.906474820143913
 31
0.0
  0
LINE
  5
B2
  8
1
 62
     7
 10
200.19500781948699
 20
100.9064748201439
 30
0.0
 11
203.09500781948691
 21
100.9064748201439
 31
0.0
  0
LINE
  5
B3
  8
1
 62
     7
 10
163.09500781948699
 20
100.9064748201439
 30
0.0
 11
195.995007819487
 21
100.9064748201439
 31
0.0
  0
LINE
  5
B4
  8
1
 62
     7
 10
203.09500781948691
 20
100.9064748201439
 30
0.0
 11
202.09500781948699
 21
101.9064748201439
 31
0.0
  0
LINE
  5
B5
  8
1
 62
     7
 10
68.095007819487023
 20
92.006474820143865
 30
0.0
 11
68.095007819487023
 21
1.806474820143932
 31
0.0
  0
LINE
  5
B6
  8
1
 62
     7
 10
200.19500781948699
 20
108.8064748201439
 30
0.0
 11
196.1950078194869
 21
108.80647482014371
 31
0.0
  0
LINE
  5
B7
  8
1
 62
     7
 10
200.19500781948699
 20
99.906474820143913
 30
0.0
 11
200.19500781948699
 21
108.8064748201439
 31
0.0
  0
LINE
  5
B8
  8
1
 62
     7
 10
196.1950078194869
 20
113.9064748201439
 30
0.0
 11
196.1950078194869
 21
99.906474820143913
 31
0.0
  0
LINE
  5
B9
  8
1
 62
     7
 10
201.09500781948691
 20
113.9064748201439
 30
0.0
 11
196.1950078194869
 21
113.9064748201439
 31
0.0
  0
LINE
  5
BA
  8
1
 62
     7
 10
201.09500781948691
 20
151.4064748201439
 30
0.0
 11
201.09500781948691
 21
111.1718707151629
 31
0.0
  0
LINE
  5
BB
  8
1
 62
     7
 10
186.09500781948699
 20
154.4064748201439
 30
0.0
 11
198.09500781948691
 21
154.4064748201439
 31
0.0
  0
LINE
  5
BC
  8
1
 62
     7
 10
186.09500781948699
 20
100.9064748201439
 30
0.0
 11
186.09500781948699
 21
154.4064748201439
 31
0.0
  0
LINE
  5
BD
  8
1
 62
     7
 10
196.1950078194869
 20
101.80647482014371
 30
0.0
 11
186.09500781948699
 21
101.80647482014371
 31
0.0
  0
LINE
  5
BE
  8
1
 62
     7
 10
186.09500781948699
 20
106.9064748201439
 30
0.0
 11
196.1950078194869
 21
106.9064748201439
 31
0.0
  0
LINE
  5
BF
  8
1
 62
     7
 10
201.09500781948691
 20
151.4064748201439
 30
0.0
 11
198.09500781948691
 21
154.4064748201439
 31
0.0
  0
LINE
  5
C0
  8
1
 62
     7
 10
146.59500781948691
 20
154.30647482014379
 30
0.0
 11
162.59500781948691
 21
154.30647482014379
 31
0.0
  0
LINE
  5
C1
  8
1
 62
     7
 10
146.09500781948691
 20
142.90647482014381
 30
0.0
 11
146.09500781948691
 21
153.80647482014379
 31
0.0
  0
LINE
  5
C2
  8
1
 62
     7
 10
186.09500781948699
 20
142.90647482014381
 30
0.0
 11
146.09500781948691
 21
142.90647482014381
 31
0.0
  0
LINE
  5
C3
  8
1
 62
     7
 10
148.09500781948691
 20
111.30647482014371
 30
0.0
 11
148.09500781948691
 21
142.90647482014381
 31
0.0
  0
LINE
  5
C4
  8
1
 62
     7
 10
130.09500781948691
 20
111.30647482014371
 30
0.0
 11
148.09500781948691
 21
111.30647482014371
 31
0.0
  0
LINE
  5
C5
  8
1
 62
     7
 10
129.09500781948691
 20
100.4064748201439
 30
0.0
 11
129.09500781948691
 21
110.30647482014371
 31
0.0
  0
LINE
  5
C6
  8
1
 62
     7
 10
128.09500781948691
 20
100.4064748201439
 30
0.0
 11
129.09500781948691
 21
100.4064748201439
 31
0.0
  0
LINE
  5
C7
  8
1
 62
     7
 10
148.09500781948691
 20
128.9064748201439
 30
0.0
 11
186.09500781948699
 21
128.9064748201439
 31
0.0
  0
LINE
  5
C8
  8
1
 62
     7
 10
147.09500781948691
 20
111.9064748201439
 30
0.0
 11
128.09500781948691
 21
111.9064748201439
 31
0.0
  0
LINE
  5
C9
  8
1
 62
     7
 10
147.09500781948691
 20
133.9064748201439
 30
0.0
 11
147.09500781948691
 21
111.9064748201439
 31
0.0
  0
LINE
  5
CA
  8
1
 62
     7
 10
130.09500781948691
 20
111.30647482014371
 30
0.0
 11
129.09500781948691
 21
110.30647482014371
 31
0.0
  0
LINE
  5
CB
  8
1
 62
     7
 10
163.09500781948699
 20
153.80647482014379
 30
0.0
 11
162.59500781948691
 21
154.30647482014379
 31
0.0
  0
LINE
  5
CC
  8
1
 62
     7
 10
146.59500781948691
 20
154.30647482014379
 30
0.0
 11
146.09500781948691
 21
153.80647482014379
 31
0.0
  0
LINE
  5
CD
  8
1
 62
     7
 10
159.09500781948691
 20
154.9064748201439
 30
0.0
 11
145.09500781948691
 21
154.9064748201439
 31
0.0
  0
LINE
  5
CE
  8
1
 62
     7
 10
159.09500781948691
 20
157.40647482014381
 30
0.0
 11
159.09500781948691
 21
154.9064748201439
 31
0.0
  0
LINE
  5
CF
  8
1
 62
     7
 10
82.095007819487023
 20
164.40647482014381
 30
0.0
 11
152.09500781948691
 21
164.40647482014381
 31
0.0
  0
LINE
  5
D0
  8
1
 62
     7
 10
159.09500781948691
 20
157.40647482014381
 30
0.0
 11
152.09500781948691
 21
164.40647482014381
 31
0.0
  0
LINE
  5
D1
  8
1
 62
     7
 10
95.830007819486994
 20
110.92568458641369
 30
0.0
 11
112.360007819487
 21
110.92568458641369
 31
0.0
  0
LINE
  5
D2
  8
1
 62
     7
 10
128.09500781948691
 20
110.9256845864134
 30
0.0
 11
119.83000781948699
 21
110.92568458641369
 31
0.0
  0
LINE
  5
D3
  8
1
 62
     7
 10
128.09500781948691
 20
97.987265053874196
 30
0.0
 11
119.83000781948699
 21
97.987265053874054
 31
0.0
  0
LINE
  5
D4
  8
1
 62
     7
 10
95.830007819486994
 20
97.987265053874054
 30
0.0
 11
112.360007819487
 21
97.987265053874054
 31
0.0
  0
LINE
  5
D5
  8
1
 62
     3
 10
107.8780078194869
 20
104.4564748201437
 30
0.0
 11
124.31200781948689
 21
104.4564748201437
 31
0.0
  0
LINE
  5
D6
  8
1
 62
     3
 10
116.09500781948699
 20
96.239474820143755
 30
0.0
 11
116.09500781948699
 21
112.67347482014389
 31
0.0
  0
LINE
  5
D7
  8
1
 62
     7
 10
70.095007819487023
 20
92.006474820143865
 30
0.0
 11
70.095007819487023
 21
132.9064748201439
 31
0.0
  0
LINE
  5
D8
  8
1
 62
     7
 10
82.095007819487051
 20
132.9064748201439
 30
0.0
 11
70.095007819487023
 21
132.9064748201439
 31
0.0
  0
LINE
  5
D9
  8
1
 62
     7
 10
145.09500781948691
 20
154.9064748201439
 30
0.0
 11
145.09500781948691
 21
133.9064748201439
 31
0.0
  0
LINE
  5
DA
  8
1
 62
     7
 10
186.09500781948699
 20
164.40647482014381
 30
0.0
 11
186.09500781948699
 21
153.4064748201439
 31
0.0
  0
LINE
  5
DB
  8
1
 62
     7
 10
163.09500781948699
 20
164.40647482014381
 30
0.0
 11
186.09500781948699
 21
164.40647482014381
 31
0.0
  0
LINE
  5
DC
  8
1
 62
     3
 10
163.09500781948699
 20
100.9064748201439
 30
0.0
 11
186.09500781948699
 21
164.40647482014381
 31
0.0
  0
LINE
  5
DD
  8
1
 62
     3
 10
186.09500781948699
 20
100.9064748201439
 30
0.0
 11
163.09500781948699
 21
164.40647482014381
 31
0.0
  0
LINE
  5
DE
  8
1
 62
     7
 10
169.09500781948699
 20
82.906474820143899
 30
0.0
 11
177.09500781948691
 21
82.906474820143899
 31
0.0
  0
LINE
  5
DF
  8
1
 62
     7
 10
169.09500781948699
 20
82.906474820143899
 30
0.0
 11
177.09500781948691
 21
82.906474820143899
 31
0.0
  0
LINE
  5
E0
  8
1
 62
     7
 10
203.09500781948691
 20
86.906474820143913
 30
0.0
 11
68.095007819487023
 21
86.906474820143913
 31
0.0
  0
LINE
  5
E1
  8
1
 62
     7
 10
177.09500781948691
 20
10.906474820143901
 30
0.0
 11
177.09500781948691
 21
82.906474820143899
 31
0.0
  0
LINE
  5
E2
  8
1
 62
     7
 10
80.095007819487023
 20
110.9256845864134
 30
0.0
 11
88.360007819487024
 21
110.92568458641369
 31
0.0
  0
LINE
  5
E3
  8
1
 62
     7
 10
80.095007819487023
 20
97.987265053874196
 30
0.0
 11
88.360007819487024
 21
97.987265053874054
 31
0.0
  0
LINE
  5
E4
  8
1
 62
     3
 10
83.878007819487024
 20
104.4564748201437
 30
0.0
 11
100.31200781948689
 21
104.4564748201437
 31
0.0
  0
LINE
  5
E5
  8
1
 62
     3
 10
92.095007819487023
 20
96.239474820143755
 30
0.0
 11
92.095007819487023
 21
112.67347482014389
 31
0.0
  0
LINE
  5
E6
  8
1
 62
     7
 10
80.095007819487023
 20
120.4064748201439
 30
0.0
 11
76.095007819487023
 21
120.4064748201439
 31
0.0
  0
LINE
  5
E7
  8
1
 62
     7
 10
76.095007819487023
 20
109.6064748201439
 30
0.0
 11
80.095007819487023
 21
109.6064748201439
 31
0.0
  0
LINE
  5
E8
  8
1
 62
     7
 10
80.095007819487023
 20
98.156474820143913
 30
0.0
 11
77.095007819487023
 21
98.156474820143913
 31
0.0
  0
LINE
  5
E9
  8
1
 62
     7
 10
77.095007819487023
 20
90.156474820143913
 30
0.0
 11
80.095007819487023
 21
90.156474820143913
 31
0.0
  0
LINE
  5
EA
  8
1
 62
     7
 10
77.095007819487023
 20
98.156474820143913
 30
0.0
 11
77.095007819487023
 21
90.156474820143913
 31
0.0
  0
LINE
  5
EB
  8
1
 62
     7
 10
76.095007819487023
 20
120.4064748201439
 30
0.0
 11
76.095007819487023
 21
98.198065344140147
 31
0.0
  0
LINE
  5
EC
  8
1
 62
     7
 10
70.095007819487023
 20
116.9064748201439
 30
0.0
 11
76.095007819487023
 21
116.9064748201439
 31
0.0
  0
LINE
  5
ED
  8
1
 62
     7
 10
128.09500781948691
 20
116.9064748201439
 30
0.0
 11
80.095007819487023
 21
116.9064748201439
 31
0.0
  0
LINE
  5
EE
  8
1
 62
     7
 10
-170.40499218051301
 20
132.9064748201439
 30
0.0
 11
-170.40499218051301
 21
206.9064748201439
 31
0.0
  0
LINE
  5
EF
  8
1
 62
     7
 10
-49.404992180512963
 20
100.9064748201439
 30
0.0
 11
-49.404992180512963
 21
-7.0935251798561012
 31
0.0
  0
LINE
  5
F0
  8
1
 62
     7
 10
-182.40499218051301
 20
1.8064748201437619
 30
0.0
 11
-183.40499218051301
 21
1.8064748201437619
 31
0.0
  0
LINE
  5
F1
  8
1
 62
     7
 10
-184.40499218051301
 20
2.806474820143761
 30
0.0
 11
-184.40499218051301
 21
91.006474820144049
 31
0.0
  0
LINE
  5
F2
  8
1
 62
     7
 10
-50.40499218051297
 20
-8.0935251798561012
 30
0.0
 11
-49.404992180512963
 21
-7.0935251798561012
 31
0.0
  0
LINE
  5
F3
  8
1
 62
     7
 10
-184.40499218051301
 20
2.806474820143761
 30
0.0
 11
-183.40499218051301
 21
1.8064748201437619
 31
0.0
  0
LINE
  5
F4
  8
1
 62
     7
 10
-66.404992180512977
 20
-60.593525179856101
 30
0.0
 11
-54.404992180512963
 21
-60.593525179856101
 31
0.0
  0
LINE
  5
F5
  8
1
 62
     7
 10
-54.404992180512963
 20
-60.593525179856101
 30
0.0
 11
-51.40499218051297
 21
-57.593525179856101
 31
0.0
  0
LINE
  5
F6
  8
1
 62
     7
 10
-100.40499218051291
 20
-70.593525179856144
 30
0.0
 11
-170.40499218051301
 21
-70.593525179856144
 31
0.0
  0
LINE
  5
F7
  8
1
 62
     7
 10
-100.40499218051291
 20
-70.593525179856144
 30
0.0
 11
-93.404992180512977
 21
-63.593525179856101
 31
0.0
  0
LINE
  5
F8
  8
1
 62
     7
 10
-182.40499218051301
 20
132.9064748201439
 30
0.0
 11
-182.40499218051301
 21
-39.093525179856101
 31
0.0
  0
LINE
  5
F9
  8
1
 62
     7
 10
-182.40499218051301
 20
-39.093525179856101
 30
0.0
 11
-170.40499218051301
 21
-39.093525179856101
 31
0.0
  0
LINE
  5
FA
  8
1
 62
     7
 10
-66.404992180512977
 20
-70.593525179856144
 30
0.0
 11
-89.404992180512977
 21
-70.593525179856144
 31
0.0
  0
LINE
  5
FB
  8
1
 62
     7
 10
-50.40499218051297
 20
101.9064748201439
 30
0.0
 11
-50.40499218051297
 21
-8.0935251798561012
 31
0.0
  0
LINE
  5
FC
  8
1
 62
     7
 10
-54.404992180512963
 20
154.4064748201439
 30
0.0
 11
-54.404992180512963
 21
-60.593525179856101
 31
0.0
  0
LINE
  5
FD
  8
1
 62
     7
 10
-51.40499218051297
 20
-8.0935251798561012
 30
0.0
 11
-50.40499218051297
 21
-8.0935251798561012
 31
0.0
  0
LINE
  5
FE
  8
1
 62
     7
 10
-51.40499218051297
 20
151.4064748201439
 30
0.0
 11
-51.40499218051297
 21
-57.593525179856101
 31
0.0
  0
LINE
  5
FF
  8
1
 62
     7
 10
-66.404992180512977
 20
-70.593525179856144
 30
0.0
 11
-66.404992180512977
 21
164.40647482014401
 31
0.0
  0
LINE
  5
100
  8
1
 62
     3
 10
-89.404992180512977
 20
-70.593525179856144
 30
0.0
 11
-66.404992180512977
 21
46.906474820143899
 31
0.0
  0
LINE
  5
101
  8
1
 62
     3
 10
-89.404992180512977
 20
46.906474820143899
 30
0.0
 11
-66.404992180512977
 21
-70.593525179856144
 31
0.0
  0
LINE
  5
102
  8
1
 62
     7
 10
-100.40499218051291
 20
164.40647482014401
 30
0.0
 11
-100.40499218051291
 21
-70.593525179856144
 31
0.0
  0
LINE
  5
103
  8
1
 62
     7
 10
-89.404992180512977
 20
-60.593525179856101
 30
0.0
 11
-93.404992180512977
 21
-60.593525179856101
 31
0.0
  0
LINE
  5
104
  8
1
 62
     7
 10
-93.404992180512977
 20
-63.593525179856101
 30
0.0
 11
-93.404992180512977
 21
157.40647482014381
 31
0.0
  0
LINE
  5
105
  8
1
 62
     7
 10
-89.404992180512977
 20
-70.593525179856144
 30
0.0
 11
-89.404992180512977
 21
164.40647482014401
 31
0.0
  0
LINE
  5
106
  8
1
 62
     7
 10
-174.08999218051301
 20
227.14999999999989
 30
0.0
 11
-174.08999218051301
 21
206.9064748201439
 31
0.0
  0
LINE
  5
107
  8
1
 62
     7
 10
-176.71999218051289
 20
206.9064748201439
 30
0.0
 11
-176.71999218051289
 21
227.14999999999989
 31
0.0
  0
LINE
  5
108
  8
1
 62
     7
 10
-180.40499218051301
 20
206.9064748201439
 30
0.0
 11
-170.40499218051301
 21
206.9064748201439
 31
0.0
  0
LINE
  5
109
  8
1
 62
     7
 10
-180.40499218051301
 20
135.9064748201439
 30
0.0
 11
-170.40499218051301
 21
135.9064748201439
 31
0.0
  0
LINE
  5
10A
  8
1
 62
     7
 10
-172.40499218051301
 20
152.9064748201439
 30
0.0
 11
-170.40499218051301
 21
152.9064748201439
 31
0.0
  0
LINE
  5
10B
  8
1
 62
     7
 10
-172.40499218051301
 20
135.9064748201439
 30
0.0
 11
-172.40499218051301
 21
152.9064748201439
 31
0.0
  0
LINE
  5
10C
  8
1
 62
     7
 10
-180.40499218051301
 20
135.9064748201439
 30
0.0
 11
-180.40499218051301
 21
206.9064748201439
 31
0.0
  0
LINE
  5
10D
  8
1
 62
     7
 10
-170.40499218051301
 20
164.40647482014401
 30
0.0
 11
-170.40499218051301
 21
-70.593525179856144
 31
0.0
  0
LINE
  5
10E
  8
1
 62
     7
 10
80.095007819487023
 20
120.4064748201439
 30
0.0
 11
80.095007819487023
 21
90.156474820143913
 31
0.0
  0
LINE
  5
10F
  8
1
 62
     7
 10
104.0950078194869
 20
92.006474820143865
 30
0.0
 11
104.0950078194869
 21
116.9064748201439
 31
0.0
  0
LINE
  5
110
  8
1
 62
     7
 10
128.09500781948691
 20
116.9064748201439
 30
0.0
 11
128.09500781948691
 21
92.006474820143865
 31
0.0
  0
LINE
  5
111
  8
1
 62
     7
 10
82.095007819487051
 20
206.9064748201439
 30
0.0
 11
82.095007819487051
 21
132.9064748201439
 31
0.0
  0
LINE
  5
112
  8
1
 62
     7
 10
76.211990823595997
 20
219.07732105004899
 30
0.0
 11
76.211990823595997
 21
224.07732105004899
 31
0.0
  0
LINE
  5
113
  8
1
 62
     7
 10
76.641208793349605
 20
219.07732105004899
 30
0.0
 11
76.641208793349605
 21
224.07732105004899
 31
0.0
  0
LINE
  5
114
  8
1
 62
     7
 10
77.904335961481465
 20
219.07732105004899
 30
0.0
 11
77.904335961481465
 21
224.07732105004899
 31
0.0
  0
LINE
  5
115
  8
1
 62
     7
 10
77.511908103421106
 20
219.07732105004899
 30
0.0
 11
77.511908103421106
 21
224.07732105004899
 31
0.0
  0
LINE
  5
116
  8
1
 62
     7
 10
77.095007819487023
 20
219.07732105004899
 30
0.0
 11
77.095007819487023
 21
224.07732105004899
 31
0.0
  0
LINE
  5
117
  8
1
 62
     7
 10
75.780007819487054
 20
219.07732105004899
 30
0.0
 11
78.410007819487021
 21
219.07732105004899
 31
0.0
  0
LINE
  5
118
  8
1
 62
     7
 10
75.780007819487054
 20
219.07732105004899
 30
0.0
 11
75.780007819487054
 21
153.2214748201439
 31
0.0
  0
LINE
  5
119
  8
1
 62
     7
 10
72.095007819487051
 20
135.9064748201439
 30
0.0
 11
72.095007819487051
 21
206.9064748201439
 31
0.0
  0
LINE
  5
11A
  8
1
 62
     7
 10
82.095007819487051
 20
206.9064748201439
 30
0.0
 11
78.410007819487049
 21
206.9064748201439
 31
0.0
  0
LINE
  5
11B
  8
1
 62
     7
 10
72.095007819487051
 20
135.9064748201439
 30
0.0
 11
82.095007819487023
 21
135.9064748201439
 31
0.0
  0
LINE
  5
11C
  8
1
 62
     7
 10
74.095007819487051
 20
135.9064748201439
 30
0.0
 11
74.095007819487051
 21
206.9064748201439
 31
0.0
  0
LINE
  5
11D
  8
1
 62
     7
 10
81.410007819487035
 20
150.22147482014381
 30
0.0
 11
82.095007819487051
 21
150.22147482014381
 31
0.0
  0
LINE
  5
11E
  8
1
 62
     7
 10
81.410007819487035
 20
147.59147482014379
 30
0.0
 11
82.095007819487051
 21
147.59147482014379
 31
0.0
  0
LINE
  5
11F
  8
1
 62
     7
 10
78.410007819487049
 20
153.2214748201439
 30
0.0
 11
78.410007819487021
 21
219.07732105004899
 31
0.0
  0
LINE
  5
120
  8
1
 62
     7
 10
75.780007819487054
 20
206.9064748201439
 30
0.0
 11
72.095007819487051
 21
206.9064748201439
 31
0.0
  0
LINE
  5
121
  8
1
 62
     7
 10
-419.40499218051292
 20
206.9064748201439
 30
0.0
 11
-419.40499218051292
 21
219.07732105004899
 31
0.0
  0
LINE
  5
122
  8
1
 62
     7
 10
-416.77499218051292
 20
206.9064748201439
 30
0.0
 11
-416.77499218051292
 21
219.07732105004899
 31
0.0
  0
LINE
  5
123
  8
1
 62
     7
 10
-421.37559311788198
 20
219.07732105004899
 30
0.0
 11
-421.37559311788198
 21
224.07732105004899
 31
0.0
  0
LINE
  5
124
  8
1
 62
     7
 10
-421.03335226222703
 20
219.07732105004899
 30
0.0
 11
-421.03335226222703
 21
224.07732105004899
 31
0.0
  0
LINE
  5
125
  8
1
 62
     7
 10
-420.06366983786899
 20
219.07732105004899
 30
0.0
 11
-420.06366983786899
 21
224.07732105004899
 31
0.0
  0
LINE
  5
126
  8
1
 62
     7
 10
-420.4059106935249
 20
219.07732105004899
 30
0.0
 11
-420.4059106935249
 21
224.07732105004899
 31
0.0
  0
LINE
  5
127
  8
1
 62
     7
 10
-420.71999218051297
 20
219.07732105004899
 30
0.0
 11
-420.71999218051297
 21
224.07732105004899
 31
0.0
  0
LINE
  5
128
  8
1
 62
     7
 10
-418.81829339090012
 20
219.07732105004899
 30
0.0
 11
-418.81829339090012
 21
224.07732105004899
 31
0.0
  0
LINE
  5
129
  8
1
 62
     7
 10
-418.4665458448099
 20
219.07732105004899
 30
0.0
 11
-418.4665458448099
 21
224.07732105004899
 31
0.0
  0
LINE
  5
12A
  8
1
 62
     7
 10
-417.28771623088483
 20
219.07732105004899
 30
0.0
 11
-417.28771623088483
 21
224.07732105004899
 31
0.0
  0
LINE
  5
12B
  8
1
 62
     7
 10
-417.69650391958498
 20
219.07732105004899
 30
0.0
 11
-417.69650391958498
 21
224.07732105004899
 31
0.0
  0
LINE
  5
12C
  8
1
 62
     7
 10
-418.08999218051281
 20
219.07732105004899
 30
0.0
 11
-418.08999218051281
 21
224.07732105004899
 31
0.0
  0
LINE
  5
12D
  8
1
 62
     7
 10
-422.03499218051292
 20
219.07732105004899
 30
0.0
 11
-416.77499218051292
 21
219.07732105004899
 31
0.0
  0
LINE
  5
12E
  8
1
 62
     7
 10
-422.03499218051292
 20
219.07732105004899
 30
0.0
 11
-422.03499218051292
 21
206.9064748201439
 31
0.0
  0
LINE
  5
12F
  8
1
  6
DASHDOT
 62
     3
 10
350.13960946644079
 20
97.687547735956073
 30
0.0
 11
330.6577426107898
 21
108.93540880938249
 31
0.0
  0
LINE
  5
130
  8
1
  6
DASHDOT
 62
     3
 10
438.09500781948708
 20
148.46862065176799
 30
0.0
 11
438.09500781948702
 21
164.40647482014381
 31
0.0
  0
LINE
  5
131
  8
1
  6
DASHDOT
 62
     3
 10
526.05040617253337
 20
97.687547735955789
 30
0.0
 11
545.53227302818425
 21
108.9354088093823
 31
0.0
  0
LINE
  5
132
  8
1
  6
DASHDOT
 62
     3
 10
526.05040617253337
 20
-3.8745980956682731
 30
0.0
 11
545.53227302818414
 21
-15.12245916909475
 31
0.0
  0
LINE
  5
133
  8
1
  6
DASHDOT
 62
     3
 10
438.0950078194868
 20
-54.655671011480209
 30
0.0
 11
438.09500781948702
 21
-77.151393158333192
 31
0.0
  0
LINE
  5
134
  8
1
 62
     7
 10
436.12440688211791
 20
219.07732105004899
 30
0.0
 11
436.12440688211791
 21
224.07732105004899
 31
0.0
  0
LINE
  5
135
  8
1
 62
     7
 10
436.46664773777292
 20
219.07732105004899
 30
0.0
 11
436.46664773777292
 21
224.07732105004899
 31
0.0
  0
LINE
  5
136
  8
1
 62
     7
 10
437.4363301621309
 20
219.07732105004899
 30
0.0
 11
437.4363301621309
 21
224.07732105004899
 31
0.0
  0
LINE
  5
137
  8
1
 62
     7
 10
437.09408930647498
 20
219.07732105004899
 30
0.0
 11
437.09408930647498
 21
224.07732105004899
 31
0.0
  0
LINE
  5
138
  8
1
 62
     7
 10
436.78000781948703
 20
219.07732105004899
 30
0.0
 11
436.78000781948703
 21
224.07732105004899
 31
0.0
  0
LINE
  5
139
  8
1
 62
     7
 10
438.68170660909999
 20
219.07732105004899
 30
0.0
 11
438.68170660909999
 21
224.07732105004899
 31
0.0
  0
LINE
  5
13A
  8
1
 62
     7
 10
439.03345415518999
 20
219.07732105004899
 30
0.0
 11
439.03345415518999
 21
224.07732105004899
 31
0.0
  0
LINE
  5
13B
  8
1
 62
     7
 10
440.212283769115
 20
219.07732105004899
 30
0.0
 11
440.212283769115
 21
224.07732105004899
 31
0.0
  0
LINE
  5
13C
  8
1
 62
     7
 10
439.80349608041502
 20
219.07732105004899
 30
0.0
 11
439.80349608041502
 21
224.07732105004899
 31
0.0
  0
LINE
  5
13D
  8
1
 62
     7
 10
439.41000781948702
 20
219.07732105004899
 30
0.0
 11
439.41000781948702
 21
224.07732105004899
 31
0.0
  0
LINE
  5
13E
  8
1
 62
     7
 10
435.46500781948703
 20
219.07732105004899
 30
0.0
 11
440.72500781948702
 21
219.07732105004899
 31
0.0
  0
LINE
  5
13F
  8
1
  6
DASHDOT
 62
     3
 10
68.095007819487023
 20
46.906474820143899
 30
0.0
 11
65.095007819487023
 21
46.906474820143899
 31
0.0
  0
LINE
  5
140
  8
1
  6
DASHDOT
 62
     3
 10
203.09500781948691
 20
46.906474820143899
 30
0.0
 11
206.09500781948699
 21
46.906474820143899
 31
0.0
  0
LINE
  5
141
  8
1
  6
DASHDOT
 62
     3
 10
-419.40499218051292
 20
56.906474820143899
 30
0.0
 11
-419.40499218051292
 21
36.906474820143892
 31
0.0
  0
LINE
  5
142
  8
1
  6
DASHDOT
 62
     3
 10
-409.40499218051298
 20
46.906474820143899
 30
0.0
 11
-429.40499218051298
 21
46.906474820143899
 31
0.0
  0
LINE
  5
143
  8
1
  6
DASHDOT
 62
     3
 10
438.09500781948702
 20
56.906474820143899
 30
0.0
 11
438.09500781948702
 21
36.906474820143892
 31
0.0
  0
LINE
  5
144
  8
1
  6
DASHDOT
 62
     3
 10
448.09500781948702
 20
46.906474820143899
 30
0.0
 11
428.09500781948691
 21
46.906474820143899
 31
0.0
  0
LINE
  5
145
  8
1
 62
     7
 10
-409.40499218051298
 20
206.9064748201439
 30
0.0
 11
-409.40499218051298
 21
135.144500541344
 31
0.0
  0
LINE
  5
146
  8
1
 62
     7
 10
-395.40499218051292
 20
139.6201750518772
 30
0.0
 11
-395.40499218051292
 21
145.5569870457725
 31
0.0
  0
LINE
  5
147
  8
1
 62
     7
 10
-409.40499218051298
 20
206.9064748201439
 30
0.0
 11
-429.40499218051298
 21
206.9064748201439
 31
0.0
  0
LINE
  5
148
  8
1
 62
     7
 10
-404.71439325727152
 20
141.90647482014381
 30
0.0
 11
-403.55969271889222
 21
139.9064748201439
 31
0.0
  0
LINE
  5
149
  8
1
 62
     7
 10
-403.55969271889222
 20
139.9064748201439
 30
0.0
 11
-401.25029164213367
 21
139.9064748201439
 31
0.0
  0
LINE
  5
14A
  8
1
 62
     7
 10
-401.25029164213367
 20
139.9064748201439
 30
0.0
 11
-400.09559110375449
 21
141.90647482014381
 31
0.0
  0
LINE
  5
14B
  8
1
 62
     7
 10
-400.09559110375449
 20
141.90647482014381
 30
0.0
 11
-401.25029164213367
 21
143.90647482014381
 31
0.0
  0
LINE
  5
14C
  8
1
 62
     7
 10
-401.25029164213367
 20
143.90647482014381
 30
0.0
 11
-403.55969271889222
 21
143.90647482014381
 31
0.0
  0
LINE
  5
14D
  8
1
 62
     7
 10
-403.55969271889222
 20
143.90647482014381
 30
0.0
 11
-404.71439325727152
 21
141.90647482014381
 31
0.0
  0
LINE
  5
14E
  8
1
 62
     7
 10
-429.40499218051298
 20
135.144500541344
 30
0.0
 11
-429.40499218051298
 21
206.9064748201439
 31
0.0
  0
LINE
  5
14F
  8
1
 62
     7
 10
-443.40499218051292
 20
145.5569870457725
 30
0.0
 11
-443.40499218051292
 21
139.6201750518772
 31
0.0
  0
LINE
  5
150
  8
1
 62
     7
 10
-435.25029164213367
 20
139.9064748201439
 30
0.0
 11
-434.09559110375449
 21
141.90647482014381
 31
0.0
  0
LINE
  5
151
  8
1
 62
     7
 10
-437.55969271889222
 20
139.9064748201439
 30
0.0
 11
-435.25029164213367
 21
139.9064748201439
 31
0.0
  0
LINE
  5
152
  8
1
 62
     7
 10
-438.71439325727152
 20
141.90647482014381
 30
0.0
 11
-437.55969271889222
 21
139.9064748201439
 31
0.0
  0
LINE
  5
153
  8
1
 62
     7
 10
-437.55969271889222
 20
143.90647482014381
 30
0.0
 11
-438.71439325727152
 21
141.90647482014381
 31
0.0
  0
LINE
  5
154
  8
1
 62
     7
 10
-435.25029164213367
 20
143.90647482014381
 30
0.0
 11
-437.55969271889222
 21
143.90647482014381
 31
0.0
  0
LINE
  5
155
  8
1
 62
     7
 10
-434.09559110375449
 20
141.90647482014381
 30
0.0
 11
-435.25029164213367
 21
143.90647482014381
 31
0.0
  0
LINE
  5
156
  8
1
 62
     7
 10
-429.4049921805132
 20
86.906474820143913
 30
0.0
 11
-429.40499218051298
 21
80.447494482640735
 31
0.0
  0
LINE
  5
157
  8
1
 62
     7
 10
-409.40499218051298
 20
86.906474820143913
 30
0.0
 11
-409.40499218051298
 21
80.447494482640735
 31
0.0
  0
LINE
  5
158
  8
1
 62
     7
 10
-429.4049921805132
 20
86.906474820143913
 30
0.0
 11
-409.40499218051298
 21
86.906474820143913
 31
0.0
  0
LINE
  5
159
  8
1
  6
DASHDOT
 62
     3
 10
-46.40499218051297
 20
46.906474820143899
 30
0.0
 11
-49.404992180512963
 21
46.906474820143899
 31
0.0
  0
LINE
  5
15A
  8
1
  6
DASHDOT
 62
     3
 10
-187.40499218051301
 20
46.906474820143899
 30
0.0
 11
-184.40499218051301
 21
46.906474820143892
 31
0.0
  0
LINE
  5
15B
  8
1
 62
     7
 10
440.72500781948679
 20
206.9064748201439
 30
0.0
 11
448.09500781948702
 21
206.9064748201439
 31
0.0
  0
LINE
  5
15C
  8
1
 62
     7
 10
438.09500781948702
 20
164.40647482014381
 30
0.0
 11
438.09500781948702
 21
219.07732105004899
 31
0.0
  0
LINE
  5
15D
  8
1
 62
     7
 10
440.72500781948702
 20
164.37703751565499
 30
0.0
 11
440.72500781948702
 21
219.07732105004899
 31
0.0
  0
LINE
  5
15E
  8
1
 62
     7
 10
435.46500781948703
 20
219.07732105004899
 30
0.0
 11
435.46500781948703
 21
164.37703751565499
 31
0.0
  0
LINE
  5
15F
  8
1
 62
     7
 10
428.09500781948691
 20
206.9064748201439
 30
0.0
 11
435.46500781948703
 21
206.9064748201439
 31
0.0
  0
LINE
  5
160
  8
1
 62
     7
 10
428.09500781948691
 20
163.89044808144141
 30
0.0
 11
428.09500781948691
 21
206.9064748201439
 31
0.0
  0
LINE
  5
161
  8
1
 62
     7
 10
430.09500781948702
 20
164.13381804688419
 30
0.0
 11
430.09500781948702
 21
206.9064748201439
 31
0.0
  0
LINE
  5
162
  8
1
 62
     7
 10
448.09500781948702
 20
206.9064748201439
 30
0.0
 11
448.09500781948702
 21
163.89044808144141
 31
0.0
  0
LINE
  5
163
  8
1
 62
     7
 10
446.09500781948702
 20
206.9064748201439
 30
0.0
 11
446.09500781948702
 21
164.13381804688419
 31
0.0
  0
LINE
  5
164
  8
1
  6
DASHED
 62
     7
 10
464.21751958307169
 20
23.612390181305319
 30
0.0
 11
478.37437286747758
 21
9.4555368968994298
 31
0.0
  0
LINE
  5
165
  8
1
  6
DASHED
 62
     7
 10
414.80092318064851
 20
20.78396305655906
 30
0.0
 11
400.64406989624263
 21
6.6271097721531822
 31
0.0
  0
LINE
  5
166
  8
1
  6
DASHED
 62
     7
 10
411.97249605590218
 20
70.200559458982411
 30
0.0
 11
397.8156427714963
 21
84.357412743388295
 31
0.0
  0
LINE
  5
167
  8
1
  6
DASHED
 62
     7
 10
475.54594574273142
 20
6.6271097721532168
 30
0.0
 11
461.38909245832559
 21
20.78396305655912
 31
0.0
  0
LINE
  5
168
  8
1
  6
DASHED
 62
     7
 10
397.8156427714963
 20
9.4555368968993836
 30
0.0
 11
411.97249605590241
 21
23.61239018130528
 31
0.0
  0
LINE
  5
169
  8
1
  6
DASHED
 62
     7
 10
400.64406989624251
 20
87.185839868134522
 30
0.0
 11
414.80092318064828
 21
73.028986583728596
 31
0.0
  0
LINE
  5
16A
  8
1
  6
DASHDOT
 62
     3
 10
460.34158583487027
 20
24.659896804760631
 30
0.0
 11
479.22088447631779
 21
5.7805981633130852
 31
0.0
  0
LINE
  5
16B
  8
1
  6
DASHDOT
 62
     3
 10
415.84842980410372
 20
24.659896804760582
 30
0.0
 11
396.96913116265631
 21
5.7805981633130363
 31
0.0
  0
LINE
  5
16C
  8
1
  6
DASHDOT
 62
     3
 10
415.8484298041036
 20
69.153052835527092
 30
0.0
 11
396.96913116265631
 21
88.032351476974625
 31
0.0
  0
LINE
  5
16D
  8
1
  6
DASHDOT
 62
     3
 10
460.34158583487022
 20
69.153052835527149
 30
0.0
 11
479.22088447631779
 21
88.032351476974696
 31
0.0
  0
LINE
  5
16E
  8
1
  6
DASHED
 62
     7
 10
478.37437286747758
 20
84.357412743388366
 30
0.0
 11
464.21751958307158
 21
70.200559458982454
 31
0.0
  0
LINE
  5
16F
  8
1
  6
DASHED
 62
     7
 10
461.38909245832559
 20
73.028986583728681
 30
0.0
 11
475.54594574273131
 21
87.185839868134536
 31
0.0
  0
LINE
  5
170
  8
1
 62
     7
 10
428.09500781948691
 20
86.906474820143913
 30
0.0
 11
428.09500781948691
 21
80.447494482640735
 31
0.0
  0
LINE
  5
171
  8
1
 62
     7
 10
448.09500781948702
 20
86.906474820143913
 30
0.0
 11
448.09500781948702
 21
80.447494482640735
 31
0.0
  0
LINE
  5
172
  8
1
 62
     7
 10
428.09500781948691
 20
86.906474820143913
 30
0.0
 11
448.09500781948702
 21
86.906474820143913
 31
0.0
  0
LINE
  5
173
  8
1
  6
DASHDOT
 62
     3
 10
350.13960946644062
 20
-3.8745980956680879
 30
0.0
 11
330.6577426107898
 21
-15.122459169094579
 31
0.0
  0
LINE
  5
174
  8
1
 62
     7
 10
544.90610049941029
 20
95.872182009163765
 30
0.0
 11
537.99177683199071
 21
91.880195378514912
 31
0.0
  0
LINE
  5
175
  8
1
 62
     7
 10
526.99177683199082
 20
110.9327542617726
 30
0.0
 11
533.90610049941017
 21
114.9247408924213
 31
0.0
  0
LINE
  5
176
  8
1
 62
     7
 10
526.99177683199082
 20
110.9327542617726
 30
0.0
 11
537.99177683199071
 21
91.880195378514912
 31
0.0
  0
LINE
  5
177
  8
1
 62
     7
 10
533.90610049940994
 20
-21.11179125213382
 30
0.0
 11
526.99177683199059
 21
-17.119804621484992
 31
0.0
  0
LINE
  5
178
  8
1
 62
     7
 10
537.99177683199071
 20
1.9327542617726401
 30
0.0
 11
544.90610049941029
 21
-2.0592323688761871
 31
0.0
  0
LINE
  5
179
  8
1
 62
     7
 10
537.99177683199071
 20
1.9327542617726401
 30
0.0
 11
526.99177683199059
 21
-17.119804621484992
 31
0.0
  0
LINE
  5
17A
  8
1
 62
     7
 10
427.0950078194868
 20
-70.077498441153722
 30
0.0
 11
427.0950078194868
 21
-62.093525179856073
 31
0.0
  0
LINE
  5
17B
  8
1
 62
     7
 10
449.09500781948691
 20
-62.09352517985608
 30
0.0
 11
449.09500781948691
 21
-70.077498441153722
 31
0.0
  0
LINE
  5
17C
  8
1
 62
     7
 10
449.09500781948691
 20
-62.09352517985608
 30
0.0
 11
427.0950078194868
 21
-62.093525179856073
 31
0.0
  0
LINE
  5
17D
  8
1
 62
     7
 10
331.28391513956382
 20
-2.0592323688760348
 30
0.0
 11
338.19823880698311
 21
1.9327542617727871
 31
0.0
  0
LINE
  5
17E
  8
1
 62
     7
 10
349.19823880698311
 20
-17.11980462148486
 30
0.0
 11
342.28391513956382
 21
-21.111791252133688
 31
0.0
  0
LINE
  5
17F
  8
1
 62
     7
 10
349.19823880698311
 20
-17.11980462148486
 30
0.0
 11
338.19823880698311
 21
1.9327542617727871
 31
0.0
  0
LINE
  5
180
  8
1
 62
     7
 10
342.28391513956382
 20
114.9247408924215
 30
0.0
 11
349.19823880698311
 21
110.9327542617728
 31
0.0
  0
LINE
  5
181
  8
1
 62
     7
 10
338.19823880698311
 20
91.880195378515126
 30
0.0
 11
331.28391513956382
 21
95.872182009163936
 31
0.0
  0
LINE
  5
182
  8
1
 62
     7
 10
338.19823880698311
 20
91.880195378515126
 30
0.0
 11
349.19823880698311
 21
110.9327542617728
 31
0.0
  0
LINE
  5
183
  8
1
 62
     7
 10
449.09500781948691
 20
163.89044808144141
 30
0.0
 11
449.09500781948691
 21
155.90647482014381
 31
0.0
  0
LINE
  5
184
  8
1
 62
     7
 10
427.09500781948702
 20
155.90647482014381
 30
0.0
 11
427.09500781948702
 21
163.89044808144141
 31
0.0
  0
LINE
  5
185
  8
1
 62
     7
 10
427.09500781948702
 20
155.90647482014381
 30
0.0
 11
449.09500781948691
 21
155.90647482014381
 31
0.0
  0
LINE
  5
186
  8
1
 62
     7
 10
145.09500781948691
 20
-61.093525179856101
 30
0.0
 11
159.09500781948691
 21
-61.093525179856101
 31
0.0
  0
LINE
  5
187
  8
1
 62
     7
 10
145.09500781948691
 20
154.9064748201439
 30
0.0
 11
145.09500781948691
 21
133.9064748201439
 31
0.0
  0
LINE
  5
188
  8
1
 62
     7
 10
145.09500781948691
 20
133.9064748201439
 30
0.0
 11
147.09500781948691
 21
133.9064748201439
 31
0.0
  0
ARC
  5
189
  8
1
 62
     7
 10
81.410007819487035
 20
153.2214748201439
 30
0.0
 40
3.0
 50
180.0
 51
270.0
  0
ARC
  5
18A
  8
1
 62
     7
 10
81.410007819487035
 20
153.2214748201439
 30
0.0
 40
5.6299999999999963
 50
180.0
 51
270.0
  0
ARC
  5
18B
  8
1
 62
     7
 10
-404.40499218051298
 20
156.61864236311331
 30
0.0
 40
5.0
 50
180.0
 51
260.18575166706711
  0
ARC
  5
18C
  8
1
 62
     7
 10
-401.40499218051292
 20
139.6201750518772
 30
0.0
 40
6.0000000000000799
 50
255.5224878140703
 51
0.0
  0
ARC
  5
18D
  8
1
 62
     7
 10
-400.40499218051298
 20
145.5569870457725
 30
0.0
 40
5.0
 50
0.0
 51
75.901492729187225
  0
ARC
  5
18E
  8
1
 62
     7
 10
-434.40499218051298
 20
156.61864236311331
 30
0.0
 40
4.9999999999999343
 50
279.8142483329334
 51
0.0
  0
ARC
  5
18F
  8
1
 62
     7
 10
-437.40499218051298
 20
139.6201750518772
 30
0.0
 40
6.0
 50
180.0
 51
284.4775121859301
  0
ARC
  5
190
  8
1
 62
     7
 10
-438.40499218051298
 20
145.5569870457725
 30
0.0
 40
5.0000000000001394
 50
104.09850727081179
 51
180.0
  0
ARC
  5
191
  8
1
 62
     7
 10
-419.40499218051292
 20
46.906474820143892
 30
0.0
 40
117.4999999999998
 50
94.882142332473094
 51
85.117857667526891
  0
ARC
  5
192
  8
1
 62
     7
 10
-419.40499218051292
 20
46.906474820143892
 30
0.0
 40
110.0
 50
95.217383687320122
 51
84.78261631267992
  0
ARC
  5
193
  8
1
 62
     7
 10
-419.40499218051428
 20
69.906474820146499
 30
0.0
 40
82.999999999997826
 50
75.901492729186543
 51
80.185751667066455
  0
ARC
  5
194
  8
1
 62
     7
 10
-419.40499218051428
 20
69.906474820146499
 30
0.0
 40
82.999999999997243
 50
99.814248332931768
 51
104.0985072708115
  0
ARC
  5
195
  8
1
 62
     7
 10
-419.40499218051292
 20
69.906474820143899
 30
0.0
 40
65.999999999999829
 50
75.522487814070047
 51
104.4775121859299
  0
ARC
  5
196
  8
1
 62
     7
 10
-419.40499218051292
 20
46.906474820143892
 30
0.0
 40
35.0
 50
106.6015495990201
 51
73.398450400979755
  0
ARC
  5
197
  8
1
 62
     7
 10
438.09500781948702
 20
46.906474820143899
 30
0.0
 40
34.999999999999993
 50
106.6015495990203
 51
73.398450400979755
  0
CIRCLE
  5
198
  8
1
 62
     7
 10
116.09500781948699
 20
-10.643525179856001
 30
0.0
 40
7.469999999999998
  0
CIRCLE
  5
199
  8
1
 62
     7
 10
92.095007819487023
 20
-10.643525179856001
 30
0.0
 40
7.469999999999998
  0
CIRCLE
  5
19A
  8
1
 62
     7
 10
116.09500781948699
 20
104.4564748201437
 30
0.0
 40
7.469999999999998
  0
CIRCLE
  5
19B
  8
1
 62
     7
 10
92.095007819487023
 20
104.4564748201437
 30
0.0
 40
7.469999999999998
  0
CIRCLE
  5
19C
  8
1
 62
     7
 10
438.09500781948702
 20
46.906474820143899
 30
0.0
 40
59.400000000000098
  0
CIRCLE
  5
19D
  8
1
 62
     7
 10
438.09500781948702
 20
46.906474820143899
 30
0.0
 40
54.0
  0
CIRCLE
  5
19E
  8
1
 62
     7
 10
-419.40499218051292
 20
46.906474820143892
 30
0.0
 40
45.0
  0
CIRCLE
  5
19F
  8
1
 62
     7
 10
-402.40499218051292
 20
141.90647482014381
 30
0.0
 40
4.25
  0
CIRCLE
  5
1A0
  8
1
 62
     7
 10
-436.40499218051292
 20
141.90647482014381
 30
0.0
 40
4.25
  0
CIRCLE
  5
1A1
  8
1
 62
     7
 10
-419.40499218051292
 20
46.906474820143892
 30
0.0
 40
86.0
  0
CIRCLE
  5
1A2
  8
1
 62
     7
 10
-419.40499218051292
 20
46.906474820143892
 30
0.0
 40
70.0
  0
CIRCLE
  5
1A3
  8
1
 62
     7
 10
438.09500781948702
 20
46.906474820143899
 30
0.0
 40
117.5
  0
CIRCLE
  5
1A4
  8
1
 62
     7
 10
438.09500781948702
 20
46.906474820143899
 30
0.0
 40
107.4999999999999
  0
CIRCLE
  5
1A5
  8
1
 62
     7
 10
438.09500781948702
 20
46.906474820143899
 30
0.0
 40
104.4999999999999
  0
CIRCLE
  5
1A6
  8
1
 62
     7
 10
438.09500781948702
 20
46.906474820143899
 30
0.0
 40
67.0
  0
POLYLINE
  5
1A7
  8
1
 62
     3
 66
     1
 10
0.0
 20
0.0
 30
0.0
  0
VERTEX
  5
1C5
  8
1
 62
     3
 10
-174.08999218051301
 20
227.14999999999989
 30
0.0
 42
0.0063916949402094
  0
VERTEX
  5
1C6
  8
1
 62
     3
 10
-174.33453621806771
 20
227.2648711871455
 30
0.0
 42
0.0205086040894032
  0
VERTEX
  5
1C7
  8
1
 62
     3
 10
-174.5726231975631
 20
227.36144633593739
 30
0.0
 42
0.0420235121407623
  0
VERTEX
  5
1C8
  8
1
 62
     3
 10
-174.79779606094061
 20
227.42142940802131
 30
0.0
 42
0.0759414247345324
  0
VERTEX
  5
1C9
  8
1
 62
     3
 10
-175.0035977501409
 20
227.42652436504341
 30
0.0
 42
0.1504722164956979
  0
VERTEX
  5
1CA
  8
1
 62
     3
 10
-175.22762220310881
 20
227.3249878617184
 30
0.0
 42
0.0062452148315254
  0
VERTEX
  5
1CB
  8
1
 62
     3
 10
-175.27052704660429
 20
227.2860678144929
 30
0.0
 42
0.0181944823664884
  0
VERTEX
  5
1CC
  8
1
 62
     3
 10
-175.31354848943869
 20
227.2430279038681
 30
0.0
 42
0.0000440398574302
  0
VERTEX
  5
1CD
  8
1
 62
     3
 10
-175.35794928345919
 20
227.1972210067388
 30
0.0
 42
-0.0067461264547403
  0
VERTEX
  5
1CE
  8
1
 62
     3
 10
-175.40499218051301
 20
227.14999999999989
 30
0.0
 42
-0.0349386899911541
  0
VERTEX
  5
1CF
  8
1
 62
     3
 10
-175.62591944235879
 20
226.96457706629761
 30
0.0
 42
-0.0362856895184285
  0
VERTEX
  5
1D0
  8
1
 62
     3
 10
-175.88006257482641
 20
226.8052538940444
 30
0.0
 42
-0.0517979469459467
  0
VERTEX
  5
1D1
  8
1
 62
     3
 10
-176.13846240734759
 20
226.69910522242631
 30
0.0
 42
-0.0947807728670717
  0
VERTEX
  5
1D2
  8
1
 62
     3
 10
-176.3721597693536
 20
226.67320579062911
 30
0.0
 42
-0.2438632038809353
  0
VERTEX
  5
1D3
  8
1
 62
     3
 10
-176.5981764886383
 20
226.81349803904749
 30
0.0
 42
-0.0364054648617379
  0
VERTEX
  5
1D4
  8
1
 62
     3
 10
-176.6358763801239
 20
226.8858365610717
 30
0.0
 42
-0.0222134000453583
  0
VERTEX
  5
1D5
  8
1
 62
     3
 10
-176.66736544145209
 20
226.96827819870791
 30
0.0
 42
-0.0119283588317921
  0
VERTEX
  5
1D6
  8
1
 62
     3
 10
-176.694713949342
 20
227.0574552467518
 30
0.0
 42
-0.0037584302244935
  0
VERTEX
  5
1D7
  8
1
 62
     3
 10
-176.71999218051289
 20
227.14999999999989
 30
0.0
  0
SEQEND
  5
1D8
  8
1
 62
     3
  0
TEXT
  5
1BD
  8
1
 62
     7
 10
-529.98003694354406
 20
294.47452409618199
 30
0.0
 40
14.0
  1
MWC 80
 41
0.9
  7
SIMPLEX
  0
ENDSEC
  0
EOF
