  0
SECTION
  2
HEADER
  9
$ACADVER
  1
AC1009
  9
$INSBASE
 10
0.0
 20
0.0
 30
0.0
  9
$EXTMIN
 10
-79.875075313739401
 20
-67.499999999999986
 30
0.0
  9
$EXTMAX
 10
160.36182700038091
 20
79.203471171076501
 30
0.0
  9
$LIMMIN
 10
-79.875075313739401
 20
-67.499999999999986
  9
$LIMMAX
 10
160.3618270003808
 20
79.203471171076501
  9
$ORTHOMODE
 70
     0
  9
$REGENMODE
 70
     1
  9
$FILLMODE
 70
     1
  9
$QTEXTMODE
 70
     0
  9
$MIRRTEXT
 70
     1
  9
$DRAGMODE
 70
     2
  9
$LTSCALE
 40
1.0
  9
$OSMODE
 70
    37
  9
$ATTMODE
 70
     1
  9
$TEXTSIZE
 40
3.5
  9
$TRACEWID
 40
0.5
  9
$TEXTSTYLE
  7
STANDARD
  9
$CLAYER
  8
0
  9
$CELTYPE
  6
BYLAYER
  9
$CECOLOR
 62
   256
  9
$DIMSCALE
 40
1.0
  9
$DIMASZ
 40
0.18
  9
$DIMEXO
 40
0.0625
  9
$DIMDLI
 40
0.38
  9
$DIMRND
 40
0.0
  9
$DIMDLE
 40
0.0
  9
$DIMEXE
 40
0.18
  9
$DIMTP
 40
0.0
  9
$DIMTM
 40
0.0
  9
$DIMTXT
 40
0.18
  9
$DIMCEN
 40
0.09
  9
$DIMTSZ
 40
0.0
  9
$DIMTOL
 70
     0
  9
$DIMLIM
 70
     0
  9
$DIMTIH
 70
     1
  9
$DIMTOH
 70
     1
  9
$DIMSE1
 70
     0
  9
$DIMSE2
 70
     0
  9
$DIMTAD
 70
     0
  9
$DIMZIN
 70
     0
  9
$DIMBLK
  1

  9
$DIMASO
 70
     1
  9
$DIMSHO
 70
     1
  9
$DIMPOST
  1

  9
$DIMAPOST
  1

  9
$DIMALT
 70
     0
  9
$DIMALTD
 70
     2
  9
$DIMALTF
 40
25.399999999999999
  9
$DIMLFAC
 40
1.0
  9
$DIMTOFL
 70
     0
  9
$DIMTVP
 40
0.0
  9
$DIMTIX
 70
     0
  9
$DIMSOXD
 70
     0
  9
$DIMSAH
 70
     0
  9
$DIMBLK1
  1

  9
$DIMBLK2
  1

  9
$DIMSTYLE
  2
STANDARD
  9
$DIMCLRD
 70
     0
  9
$DIMCLRE
 70
     0
  9
$DIMCLRT
 70
     0
  9
$DIMTFAC
 40
1.0
  9
$DIMGAP
 40
0.09
  9
$LUNITS
 70
     2
  9
$LUPREC
 70
     4
  9
$SKETCHINC
 40
0.1
  9
$FILLETRAD
 40
2.0
  9
$AUNITS
 70
     0
  9
$AUPREC
 70
     0
  9
$MENU
  1
ACAD
  9
$ELEVATION
 40
0.0
  9
$PELEVATION
 40
0.0
  9
$THICKNESS
 40
0.0
  9
$LIMCHECK
 70
     0
  9
$BLIPMODE
 70
     0
  9
$CHAMFERA
 40
0.0
  9
$CHAMFERB
 40
0.0
  9
$SKPOLY
 70
     0
  9
$TDCREATE
 40
2452094.9712924762
  9
$TDUPDATE
 40
2452094.9724373841
  9
$TDINDWG
 40
0.0011556713
  9
$TDUSRTIMER
 40
0.0011556713
  9
$USRTIMER
 70
     1
  9
$ANGBASE
 50
0.0
  9
$ANGDIR
 70
     0
  9
$PDMODE
 70
     0
  9
$PDSIZE
 40
0.0
  9
$PLINEWID
 40
0.0
  9
$COORDS
 70
     1
  9
$SPLFRAME
 70
     0
  9
$SPLINETYPE
 70
     6
  9
$SPLINESEGS
 70
     8
  9
$ATTDIA
 70
     0
  9
$ATTREQ
 70
     1
  9
$HANDLING
 70
 10241
  9
$HANDSEED
  5
10E
  9
$SURFTAB1
 70
     6
  9
$SURFTAB2
 70
     6
  9
$SURFTYPE
 70
     6
  9
$SURFU
 70
     6
  9
$SURFV
 70
     6
  9
$UCSNAME
  2

  9
$UCSORG
 10
0.0
 20
0.0
 30
0.0
  9
$UCSXDIR
 10
1.0
 20
0.0
 30
0.0
  9
$UCSYDIR
 10
0.0
 20
1.0
 30
0.0
  9
$PUCSNAME
  2

  9
$PUCSORG
 10
0.0
 20
0.0
 30
0.0
  9
$PUCSXDIR
 10
1.0
 20
0.0
 30
0.0
  9
$PUCSYDIR
 10
0.0
 20
1.0
 30
0.0
  9
$USERI1
 70
     0
  9
$USERI2
 70
     0
  9
$USERI3
 70
     0
  9
$USERI4
 70
     0
  9
$USERI5
 70
     0
  9
$USERR1
 40
0.0
  9
$USERR2
 40
0.0
  9
$USERR3
 40
0.0
  9
$USERR4
 40
0.0
  9
$USERR5
 40
0.0
  9
$WORLDVIEW
 70
     1
  9
$SHADEDGE
 70
     3
  9
$SHADEDIF
 70
    70
  9
$TILEMODE
 70
     1
  9
$MAXACTVP
 70
    64
  9
$PLIMCHECK
 70
     0
  9
$PEXTMIN
 10
1.0000000000000000E+020
 20
1.0000000000000000E+020
 30
1.0000000000000000E+020
  9
$PEXTMAX
 10
-1.0000000000000000E+020
 20
-1.0000000000000000E+020
 30
-1.0000000000000000E+020
  9
$PLIMMIN
 10
0.0
 20
0.0
  9
$PLIMMAX
 10
12.0
 20
9.0
  9
$UNITMODE
 70
     0
  9
$VISRETAIN
 70
     1
  9
$PLINEGEN
 70
     0
  9
$PSLTSCALE
 70
     1
  0
ENDSEC
  0
SECTION
  2
TABLES
  0
TABLE
  2
VPORT
 70
     2
  0
VPORT
  2
*ACTIVE
 70
     0
 10
0.0
 20
0.0
 11
1.0
 21
1.0
 12
-61.70249565020481
 22
73.475506788411849
 13
0.0
 23
0.0
 14
1.0
 24
1.0
 15
0.0
 25
0.0
 16
0.0
 26
0.0
 36
1.0
 17
0.0
 27
0.0
 37
0.0
 40
9.0000002971744415
 41
2.4144144144144142
 42
50.0
 43
0.0
 44
0.0
 50
0.0
 51
0.0
 71
     0
 72
   100
 73
     1
 74
     1
 75
     0
 76
     0
 77
     0
 78
     0
  0
ENDTAB
  0
TABLE
  2
LTYPE
 70
     9
  0
LTYPE
  2
CONTINUOUS
 70
     0
  3
Solid line
 72
    65
 73
     0
 40
0.0
  0
LTYPE
  2
BORDER
 70
     0
  3
__ __ . __ __ .
 72
    65
 73
     6
 40
11.06354155393975
 49
3.161011872554214
 49
-1.580505936277107
 49
3.161011872554214
 49
-1.580505936277107
 49
0.0
 49
-1.580505936277107
  0
LTYPE
  2
CENTER
 70
     0
  3
____ _ ____ _
 72
    65
 73
     4
 40
12.644047490216851
 49
7.902529681385535
 49
-1.580505936277107
 49
1.580505936277107
 49
-1.580505936277107
  0
LTYPE
  2
DASHDOT
 70
     0
  3
__ . __ . __ .
 72
    65
 73
     4
 40
6.322023745108428
 49
3.161011872554214
 49
-1.580505936277107
 49
0.0
 49
-1.580505936277107
  0
LTYPE
  2
DASHED
 70
     0
  3
__ __ __ __ __
 72
    65
 73
     2
 40
4.741517808831321
 49
3.161011872554214
 49
-1.580505936277107
  0
LTYPE
  2
DIVIDE
 70
     0
  3
__ . . __ . . 
 72
    65
 73
     6
 40
7.902529681385535
 49
3.161011872554214
 49
-1.580505936277107
 49
0.0
 49
-1.580505936277107
 49
0.0
 49
-1.580505936277107
  0
LTYPE
  2
DOT
 70
     0
  3
..............
 72
    65
 73
     4
 40
3.161011872554214
 49
0.0
 49
-1.580505936277107
 49
0.0
 49
-1.580505936277107
  0
LTYPE
  2
HIDDEN
 70
     0
  3
_ _ _ _ _ _ _
 72
    65
 73
     2
 40
2.3707589044156601
 49
1.580505936277107
 49
-0.7902529681385536
  0
LTYPE
  2
PHANTOM
 70
     0
  3
_____ _ _ _____ _ _ 
 72
    65
 73
     6
 40
15.80505936277107
 49
7.902529681385535
 49
-1.580505936277107
 49
1.580505936277107
 49
-1.580505936277107
 49
1.580505936277107
 49
-1.580505936277107
  0
ENDTAB
  0
TABLE
  2
LAYER
 70
     2
  0
LAYER
  2
0
 70
     0
 62
     7
  6
CONTINUOUS
  0
LAYER
  2
1
 70
     0
 62
     7
  6
CONTINUOUS
  0
ENDTAB
  0
TABLE
  2
STYLE
 70
     4
  0
STYLE
  2
STANDARD
 70
     0
 40
0.0
 41
1.0
 50
0.0
 71
     0
 42
3.5
  3
txt
  4

  0
STYLE
  2
SIMPLEX
 70
     0
 40
0.0
 41
1.0
 50
0.0
 71
     0
 42
3.5
  3
simplex
  4

  0
STYLE
  2
COMPLEX
 70
     0
 40
0.0
 41
1.0
 50
0.0
 71
     0
 42
3.5
  3
complex
  4

  0
STYLE
  2
ITALIC
 70
     0
 40
0.0
 41
1.0
 50
0.0
 71
     0
 42
3.5
  3
italic
  4

  0
ENDTAB
  0
TABLE
  2
VIEW
 70
     0
  0
ENDTAB
  0
TABLE
  2
UCS
 70
     0
  0
ENDTAB
  0
TABLE
  2
APPID
 70
     1
  0
APPID
  2
ACAD
 70
     0
  0
ENDTAB
  0
TABLE
  2
DIMSTYLE
 70
     1
  0
DIMSTYLE
  2
STANDARD
 70
     0
  3

  4

  5

  6

  7

 40
1.0
 41
0.18
 42
0.0625
 43
0.38
 44
0.18
 45
0.0
 46
0.0
 47
0.0
 48
0.0
140
0.18
141
0.09
142
0.0
143
25.399999999999999
144
1.0
145
0.0
146
1.0
147
0.09
 71
     0
 72
     0
 73
     1
 74
     1
 75
     0
 76
     0
 77
     0
 78
     0
170
     0
171
     2
172
     0
173
     0
174
     0
175
     0
176
     0
177
     0
178
     0
  0
ENDTAB
  0
ENDSEC
  0
SECTION
  2
BLOCKS
  0
BLOCK
  8
0
  2
$MODEL_SPACE
 70
     0
 10
0.0
 20
0.0
 30
0.0
  3
$MODEL_SPACE
  1

  0
ENDBLK
  5
20
  8
0
  0
BLOCK
 67
     1
  8
0
  2
$PAPER_SPACE
 70
     0
 10
0.0
 20
0.0
 30
0.0
  3
$PAPER_SPACE
  1

  0
ENDBLK
  5
1C
 67
     1
  8
0
  0
ENDSEC
  0
SECTION
  2
ENTITIES
  0
LINE
  5
33
  8
1
 62
     7
 10
-58.375075313739387
 20
40.499999999999993
 30
0.0
 11
-58.875075313739387
 21
40.499999999999993
 31
0.0
  0
LINE
  5
34
  8
1
 62
     7
 10
-55.07507531373939
 20
33.5
 30
0.0
 11
-49.97507531373931
 21
33.5
 31
0.0
  0
LINE
  5
35
  8
1
 62
     7
 10
-55.07507531373939
 20
-31.0
 30
0.0
 11
-49.97507531373931
 21
-31.0
 31
0.0
  0
LINE
  5
36
  8
1
 62
     7
 10
-53.675075313739413
 20
-31.0
 30
0.0
 11
-53.675075313739413
 21
31.0
 31
0.0
  0
LINE
  5
37
  8
1
 62
     7
 10
-47.375075313739387
 20
14.849999999999991
 30
0.0
 11
-46.875075313739387
 21
14.849999999999991
 31
0.0
  0
LINE
  5
38
  8
1
 62
     7
 10
-49.97507531373931
 20
31.0
 30
0.0
 11
-55.07507531373939
 21
31.0
 31
0.0
  0
LINE
  5
39
  8
1
 62
     7
 10
-51.2750753137394
 20
31.0
 30
0.0
 11
-51.2750753137394
 21
-31.0
 31
0.0
  0
LINE
  5
3A
  8
1
 62
     7
 10
-46.875075313739387
 20
-14.849999999999991
 30
0.0
 11
-47.375075313739387
 21
-14.849999999999991
 31
0.0
  0
LINE
  5
3B
  8
1
 62
     7
 10
-46.875075313739387
 20
-14.849999999999991
 30
0.0
 11
-46.875075313739387
 21
14.849999999999991
 31
0.0
  0
LINE
  5
3C
  8
1
 62
     7
 10
-58.375075313739387
 20
42.5
 30
0.0
 11
-58.375075313739387
 21
-42.499999999999993
 31
0.0
  0
LINE
  5
3D
  8
1
 62
     7
 10
-58.875075313739387
 20
33.5
 30
0.0
 11
-58.375075313739387
 21
33.5
 31
0.0
  0
LINE
  5
3E
  8
1
 62
     7
 10
-49.97507531373931
 20
40.499999999999993
 30
0.0
 11
-55.07507531373939
 21
40.499999999999993
 31
0.0
  0
LINE
  5
3F
  8
1
 62
     7
 10
-49.97507531373931
 20
-42.499999999999993
 30
0.0
 11
-49.97507531373931
 21
42.5
 31
0.0
  0
LINE
  5
40
  8
1
 62
     7
 10
-47.375075313739387
 20
-31.5
 30
0.0
 11
-49.97507531373931
 21
-31.5
 31
0.0
  0
LINE
  5
41
  8
1
 62
     7
 10
-47.375075313739387
 20
-42.499999999999993
 30
0.0
 11
-47.375075313739387
 21
42.5
 31
0.0
  0
LINE
  5
42
  8
1
 62
     7
 10
-47.375075313739387
 20
42.5
 30
0.0
 11
-49.97507531373931
 21
42.5
 31
0.0
  0
LINE
  5
43
  8
1
 62
     7
 10
-49.97507531373931
 20
-42.499999999999993
 30
0.0
 11
-47.375075313739387
 21
-42.499999999999993
 31
0.0
  0
LINE
  5
44
  8
1
 62
     7
 10
-58.375075313739387
 20
-31.5
 30
0.0
 11
-55.07507531373939
 21
-31.5
 31
0.0
  0
LINE
  5
45
  8
1
 62
     7
 10
-55.07507531373939
 20
42.5
 30
0.0
 11
-58.375075313739387
 21
42.5
 31
0.0
  0
LINE
  5
46
  8
1
 62
     7
 10
-58.375075313739387
 20
-42.499999999999993
 30
0.0
 11
-55.07507531373939
 21
-42.499999999999993
 31
0.0
  0
LINE
  5
47
  8
1
 62
     7
 10
-55.07507531373939
 20
-42.499999999999993
 30
0.0
 11
-55.07507531373939
 21
42.5
 31
0.0
  0
LINE
  5
48
  8
1
 62
     3
 10
-79.875075313739401
 20
0.0
 30
0.0
 11
-74.875075313739401
 21
0.0
 31
0.0
  0
LINE
  5
49
  8
1
 62
     7
 10
-74.875075313739401
 20
42.5
 30
0.0
 11
-58.875075313739387
 21
42.5
 31
0.0
  0
LINE
  5
4A
  8
1
 62
     7
 10
-66.975075313739396
 20
-62.5
 30
0.0
 11
-66.975075313739396
 21
-67.499999999999986
 31
0.0
  0
LINE
  5
4B
  8
1
 62
     7
 10
-67.175075313739384
 20
-67.499999999999986
 30
0.0
 11
-67.175075313739384
 21
-62.5
 31
0.0
  0
LINE
  5
4C
  8
1
 62
     7
 10
-67.375075313739401
 20
-62.5
 30
0.0
 11
-67.375075313739401
 21
-67.499999999999986
 31
0.0
  0
LINE
  5
4D
  8
1
 62
     7
 10
-67.57507531373939
 20
-67.499999999999986
 30
0.0
 11
-67.57507531373939
 21
-62.5
 31
0.0
  0
LINE
  5
4E
  8
1
 62
     7
 10
-68.375075313739401
 20
-62.5
 30
0.0
 11
-66.375075313739401
 21
-62.5
 31
0.0
  0
LINE
  5
4F
  8
1
 62
     7
 10
-67.775075313739393
 20
-62.5
 30
0.0
 11
-67.775075313739393
 21
-67.499999999999986
 31
0.0
  0
LINE
  5
50
  8
1
 62
     7
 10
-66.375075313739401
 20
-62.5
 30
0.0
 11
-66.375075313739401
 21
-42.499999999999993
 31
0.0
  0
LINE
  5
51
  8
1
 62
     7
 10
-68.375075313739401
 20
-42.499999999999993
 30
0.0
 11
-68.375075313739401
 21
-62.5
 31
0.0
  0
LINE
  5
52
  8
1
 62
     7
 10
-74.875075313739401
 20
-42.499999999999993
 30
0.0
 11
-74.875075313739401
 21
42.5
 31
0.0
  0
LINE
  5
53
  8
1
 62
     7
 10
-74.875075313739401
 20
-42.499999999999993
 30
0.0
 11
-58.875075313739387
 21
-42.499999999999993
 31
0.0
  0
LINE
  5
54
  8
1
 62
     7
 10
-45.396050987990108
 20
33.5
 30
0.0
 11
-46.07507531373939
 21
33.5
 31
0.0
  0
LINE
  5
55
  8
1
 62
     7
 10
-46.07507531373939
 20
40.499999999999993
 30
0.0
 11
-45.396050987990108
 21
40.499999999999993
 31
0.0
  0
LINE
  5
56
  8
1
 62
     7
 10
-46.375075313739387
 20
37.0
 30
0.0
 11
-47.375075313739387
 21
36.0
 31
0.0
  0
LINE
  5
57
  8
1
 62
     7
 10
-46.375075313739387
 20
38.0
 30
0.0
 11
-47.375075313739387
 21
37.0
 31
0.0
  0
LINE
  5
58
  8
1
 62
     7
 10
-47.375075313739387
 20
33.5
 30
0.0
 11
-46.375075313739387
 21
33.5
 31
0.0
  0
LINE
  5
59
  8
1
 62
     7
 10
-46.375075313739387
 20
33.5
 30
0.0
 11
-46.375075313739387
 21
40.499999999999993
 31
0.0
  0
LINE
  5
5A
  8
1
 62
     7
 10
-46.375075313739387
 20
40.499999999999993
 30
0.0
 11
-47.375075313739387
 21
40.499999999999993
 31
0.0
  0
LINE
  5
5B
  8
1
 62
     7
 10
-58.875075313739387
 20
-42.499999999999993
 30
0.0
 11
-58.875075313739387
 21
42.5
 31
0.0
  0
LINE
  5
5C
  8
1
 62
     3
 10
-46.875075313739387
 20
0.0
 30
0.0
 11
-41.875075313739401
 21
0.0
 31
0.0
  0
LINE
  5
5D
  8
1
 62
     7
 10
28.0
 20
6.0
 30
0.0
 11
16.0
 21
6.0
 31
0.0
  0
LINE
  5
5E
  8
1
 62
     7
 10
23.600000000000001
 20
13.200000000000021
 30
0.0
 11
23.600000000000001
 21
31.0
 31
0.0
  0
LINE
  5
5F
  8
1
 62
     7
 10
21.199999999999999
 20
-13.19999999999999
 30
0.0
 11
21.199999999999982
 21
-31.0
 31
0.0
  0
LINE
  5
60
  8
1
 62
     7
 10
20.999999999999989
 20
14.849999999999991
 30
0.0
 11
28.0
 21
14.849999999999991
 31
0.0
  0
LINE
  5
61
  8
1
 62
     7
 10
16.0
 20
9.0
 30
0.0
 11
21.0
 21
9.0
 31
0.0
  0
LINE
  5
62
  8
1
 62
     7
 10
21.0
 20
-9.0
 30
0.0
 11
16.0
 21
-9.0
 31
0.0
  0
LINE
  5
63
  8
1
 62
     7
 10
28.0
 20
-14.849999999999991
 30
0.0
 11
20.999999999999989
 21
-14.849999999999991
 31
0.0
  0
LINE
  5
64
  8
1
 62
     7
 10
16.0
 20
-6.0
 30
0.0
 11
28.0
 21
-6.0
 31
0.0
  0
LINE
  5
65
  8
1
 62
     7
 10
16.0
 20
7.5
 30
0.0
 11
28.0
 21
7.5
 31
0.0
  0
LINE
  5
66
  8
1
 62
     7
 10
21.0
 20
9.0
 30
0.0
 11
20.999999999999989
 21
14.849999999999991
 31
0.0
  0
LINE
  5
67
  8
1
 62
     7
 10
20.999999999999989
 20
-13.19999999999999
 30
0.0
 11
20.999999999999989
 21
-14.849999999999991
 31
0.0
  0
LINE
  5
68
  8
1
 62
     7
 10
20.999999999999989
 20
13.200000000000021
 30
0.0
 11
28.0
 21
13.200000000000021
 31
0.0
  0
LINE
  5
69
  8
1
 62
     7
 10
20.999999999999989
 20
-13.19999999999999
 30
0.0
 11
28.0
 21
-13.19999999999999
 31
0.0
  0
LINE
  5
6A
  8
1
 62
     7
 10
28.0
 20
-14.849999999999991
 30
0.0
 11
28.0
 21
14.849999999999991
 31
0.0
  0
LINE
  5
6B
  8
1
 62
     7
 10
21.0
 20
-9.0
 30
0.0
 11
20.999999999999989
 21
-13.19999999999999
 31
0.0
  0
LINE
  5
6C
  8
1
 62
     7
 10
16.5
 20
40.499999999999993
 30
0.0
 11
16.5
 21
42.5
 31
0.0
  0
LINE
  5
6D
  8
1
 62
     7
 10
24.900000000000102
 20
31.0
 30
0.0
 11
24.900000000000102
 21
42.5
 31
0.0
  0
LINE
  5
6E
  8
1
 62
     7
 10
16.0
 20
33.5
 30
0.0
 11
24.900000000000102
 21
33.5
 31
0.0
  0
LINE
  5
6F
  8
1
 62
     7
 10
24.900000000000091
 20
40.499999999999993
 30
0.0
 11
16.0
 21
40.499999999999993
 31
0.0
  0
LINE
  5
70
  8
1
 62
     7
 10
25.400000000000109
 20
25.0
 30
0.0
 11
25.400000000000109
 21
31.0
 31
0.0
  0
LINE
  5
71
  8
1
 62
     7
 10
24.900000000000102
 20
-42.499999999999993
 30
0.0
 11
24.900000000000102
 21
-31.0
 31
0.0
  0
LINE
  5
72
  8
1
 62
     7
 10
27.5
 20
-31.5
 30
0.0
 11
24.900000000000102
 21
-31.5
 31
0.0
  0
LINE
  5
73
  8
1
 62
     7
 10
27.5
 20
14.849999999999991
 30
0.0
 11
27.5
 21
42.5
 31
0.0
  0
LINE
  5
74
  8
1
 62
     7
 10
24.900000000000102
 20
-25.0
 30
0.0
 11
24.900000000000102
 21
-14.849999999999991
 31
0.0
  0
LINE
  5
75
  8
1
 62
     7
 10
24.900000000000102
 20
14.849999999999991
 30
0.0
 11
24.900000000000102
 21
25.0
 31
0.0
  0
LINE
  5
76
  8
1
 62
     7
 10
24.900000000000102
 20
-19.0
 30
0.0
 11
27.5
 21
-19.0
 31
0.0
  0
LINE
  5
77
  8
1
 62
     7
 10
27.5
 20
-14.849999999999991
 30
0.0
 11
27.5
 21
-42.499999999999993
 31
0.0
  0
LINE
  5
78
  8
1
 62
     7
 10
24.900000000000102
 20
19.0
 30
0.0
 11
27.5
 21
19.0
 31
0.0
  0
LINE
  5
79
  8
1
 62
     7
 10
27.5
 20
42.5
 30
0.0
 11
24.900000000000102
 21
42.5
 31
0.0
  0
LINE
  5
7A
  8
1
 62
     7
 10
24.900000000000102
 20
-42.499999999999993
 30
0.0
 11
27.5
 21
-42.499999999999993
 31
0.0
  0
LINE
  5
7B
  8
1
 62
     7
 10
25.400000000000109
 20
31.0
 30
0.0
 11
19.399999999999981
 21
31.0
 31
0.0
  0
LINE
  5
7C
  8
1
 62
     7
 10
23.600000000000001
 20
25.0
 30
0.0
 11
25.400000000000109
 21
25.0
 31
0.0
  0
LINE
  5
7D
  8
1
 62
     7
 10
23.600000000000001
 20
-25.0
 30
0.0
 11
25.400000000000109
 21
-25.0
 31
0.0
  0
LINE
  5
7E
  8
1
 62
     7
 10
25.400000000000109
 20
-31.0
 30
0.0
 11
25.400000000000109
 21
-25.0
 31
0.0
  0
LINE
  5
7F
  8
1
 62
     7
 10
23.600000000000001
 20
-31.0
 30
0.0
 11
23.600000000000001
 21
-13.19999999999999
 31
0.0
  0
LINE
  5
80
  8
1
 62
     7
 10
23.600000000000001
 20
-31.0
 30
0.0
 11
23.600000000000001
 21
-15.299999999999979
 31
0.0
  0
LINE
  5
81
  8
1
 62
     7
 10
21.199999999999999
 20
13.5
 30
0.0
 11
23.600000000000001
 21
13.5
 31
0.0
  0
LINE
  5
82
  8
1
 62
     7
 10
21.199999999999999
 20
-13.5
 30
0.0
 11
23.600000000000001
 21
-13.5
 31
0.0
  0
LINE
  5
83
  8
1
 62
     7
 10
21.199999999999999
 20
-13.5
 30
0.0
 11
21.199999999999999
 21
-15.299999999999979
 31
0.0
  0
LINE
  5
84
  8
1
 62
     7
 10
21.199999999999999
 20
-15.299999999999979
 30
0.0
 11
23.600000000000001
 21
-15.299999999999979
 31
0.0
  0
LINE
  5
85
  8
1
 62
     7
 10
21.199999999999999
 20
-15.299999999999979
 30
0.0
 11
21.199999999999982
 21
-31.0
 31
0.0
  0
LINE
  5
86
  8
1
 62
     7
 10
23.600000000000001
 20
-15.299999999999979
 30
0.0
 11
23.600000000000001
 21
-13.5
 31
0.0
  0
LINE
  5
87
  8
1
 62
     7
 10
21.199999999999999
 20
15.30000000000001
 30
0.0
 11
23.600000000000001
 21
15.30000000000001
 31
0.0
  0
LINE
  5
88
  8
1
 62
     7
 10
21.199999999999982
 20
31.0
 30
0.0
 11
21.199999999999999
 21
13.200000000000021
 31
0.0
  0
LINE
  5
89
  8
1
 62
     7
 10
19.399999999999981
 20
25.0
 30
0.0
 11
21.199999999999999
 21
25.0
 31
0.0
  0
LINE
  5
8A
  8
1
 62
     7
 10
19.399999999999981
 20
31.0
 30
0.0
 11
19.399999999999981
 21
25.0
 31
0.0
  0
LINE
  5
8B
  8
1
 62
     7
 10
19.399999999999981
 20
-25.0
 30
0.0
 11
19.399999999999981
 21
-31.0
 31
0.0
  0
LINE
  5
8C
  8
1
 62
     7
 10
19.399999999999981
 20
-25.0
 30
0.0
 11
21.199999999999999
 21
-25.0
 31
0.0
  0
LINE
  5
8D
  8
1
 62
     7
 10
19.399999999999981
 20
-31.0
 30
0.0
 11
25.400000000000109
 21
-31.0
 31
0.0
  0
LINE
  5
8E
  8
1
 62
     7
 10
19.800000000000001
 20
-42.499999999999993
 30
0.0
 11
19.800000000000001
 21
-31.0
 31
0.0
  0
LINE
  5
8F
  8
1
 62
     7
 10
16.5
 20
-42.499999999999993
 30
0.0
 11
16.5
 21
-9.0
 31
0.0
  0
LINE
  5
90
  8
1
 62
     7
 10
16.5
 20
-31.5
 30
0.0
 11
19.800000000000001
 21
-31.5
 31
0.0
  0
LINE
  5
91
  8
1
 62
     7
 10
19.800000000000001
 20
31.0
 30
0.0
 11
19.800000000000001
 21
33.5
 31
0.0
  0
LINE
  5
92
  8
1
 62
     7
 10
16.5
 20
33.200000000000017
 30
0.0
 11
19.800000000000001
 21
33.200000000000017
 31
0.0
  0
LINE
  5
93
  8
1
 62
     7
 10
19.800000000000001
 20
42.5
 30
0.0
 11
19.800000000000001
 21
40.499999999999993
 31
0.0
  0
LINE
  5
94
  8
1
 62
     7
 10
16.5
 20
-10.0
 30
0.0
 11
19.800000000000001
 21
-10.0
 31
0.0
  0
LINE
  5
95
  8
1
 62
     7
 10
19.800000000000001
 20
10.0
 30
0.0
 11
16.5
 21
10.0
 31
0.0
  0
LINE
  5
96
  8
1
 62
     7
 10
19.800000000000001
 20
42.5
 30
0.0
 11
16.5
 21
42.5
 31
0.0
  0
LINE
  5
97
  8
1
 62
     7
 10
16.5
 20
-42.499999999999993
 30
0.0
 11
19.800000000000001
 21
-42.499999999999993
 31
0.0
  0
LINE
  5
98
  8
1
 62
     7
 10
19.800000000000001
 20
25.0
 30
0.0
 11
19.800000000000001
 21
9.0
 31
0.0
  0
LINE
  5
99
  8
1
 62
     7
 10
19.800000000000001
 20
-25.0
 30
0.0
 11
19.800000000000001
 21
-9.0
 31
0.0
  0
LINE
  5
9A
  8
1
 62
     3
 10
-5.0
 20
0.0
 30
0.0
 11
0.0
 21
0.0
 31
0.0
  0
LINE
  5
9B
  8
1
 62
     7
 10
140.82033535507711
 20
-35.765302936328389
 30
0.0
 11
150.84387780794961
 21
-53.126587736527391
 31
0.0
  0
LINE
  5
9C
  8
1
 62
     7
 10
115.8618270003809
 20
7.5
 30
0.0
 11
115.8618270003809
 21
5.6568542494923966
 31
0.0
  0
LINE
  5
9D
  8
1
 62
     7
 10
119.8618270003809
 20
7.5
 30
0.0
 11
115.8618270003809
 21
7.5
 31
0.0
  0
LINE
  5
9E
  8
1
 62
     7
 10
119.8618270003809
 20
5.6568542494923966
 30
0.0
 11
119.8618270003809
 21
7.5
 31
0.0
  0
LINE
  5
9F
  8
1
 62
     7
 10
0.0
 20
42.5
 30
0.0
 11
16.0
 21
42.5
 31
0.0
  0
LINE
  5
A0
  8
1
 62
     7
 10
7.9000000000000048
 20
-62.5
 30
0.0
 11
7.9000000000000048
 21
-67.499999999999986
 31
0.0
  0
LINE
  5
A1
  8
1
 62
     7
 10
7.7000000000000011
 20
-67.499999999999986
 30
0.0
 11
7.7000000000000011
 21
-62.5
 31
0.0
  0
LINE
  5
A2
  8
1
 62
     7
 10
7.5
 20
-62.5
 30
0.0
 11
7.5
 21
-67.499999999999986
 31
0.0
  0
LINE
  5
A3
  8
1
 62
     7
 10
7.299999999999998
 20
-67.499999999999986
 30
0.0
 11
7.299999999999998
 21
-62.5
 31
0.0
  0
LINE
  5
A4
  8
1
 62
     7
 10
6.5
 20
-62.5
 30
0.0
 11
8.5
 21
-62.5
 31
0.0
  0
LINE
  5
A5
  8
1
 62
     7
 10
7.0999999999999943
 20
-62.5
 30
0.0
 11
7.1000000000000076
 21
-67.499999999999986
 31
0.0
  0
LINE
  5
A6
  8
1
 62
     7
 10
8.5
 20
-62.5
 30
0.0
 11
8.5
 21
-42.499999999999993
 31
0.0
  0
LINE
  5
A7
  8
1
 62
     7
 10
6.5
 20
-42.499999999999993
 30
0.0
 11
6.5
 21
-62.5
 31
0.0
  0
LINE
  5
A8
  8
1
 62
     7
 10
0.0
 20
-42.499999999999993
 30
0.0
 11
0.0
 21
42.5
 31
0.0
  0
LINE
  5
A9
  8
1
 62
     7
 10
0.0
 20
-42.499999999999993
 30
0.0
 11
16.0
 21
-42.499999999999993
 31
0.0
  0
LINE
  5
AA
  8
1
 62
     7
 10
0.0
 20
-10.0
 30
0.0
 11
16.0
 21
-10.0
 31
0.0
  0
LINE
  5
AB
  8
1
 62
     7
 10
16.0
 20
10.0
 30
0.0
 11
0.0
 21
10.0
 31
0.0
  0
LINE
  5
AC
  8
1
  6
DASHDOT
 62
     3
 10
-5.0
 20
-37.0
 30
0.0
 11
32.5
 21
-37.0
 31
0.0
  0
LINE
  5
AD
  8
1
 62
     7
 10
0.0
 20
-34.25
 30
0.0
 11
16.0
 21
-34.25
 31
0.0
  0
LINE
  5
AE
  8
1
 62
     7
 10
0.0
 20
-39.749999999999993
 30
0.0
 11
16.0
 21
-39.749999999999993
 31
0.0
  0
LINE
  5
AF
  8
1
 62
     7
 10
84.115251818591673
 20
25.834447226519892
 30
0.0
 11
88.568887060356786
 21
23.263139720814419
 31
0.0
  0
LINE
  5
B0
  8
1
 62
     7
 10
83.068887060356801
 20
13.736860279185599
 30
0.0
 11
78.615251818591673
 21
16.308167784891001
 31
0.0
  0
LINE
  5
B1
  8
1
 62
     7
 10
157.1084021821701
 20
16.308167784891001
 30
0.0
 11
152.6547669404051
 21
13.736860279185599
 31
0.0
  0
LINE
  5
B2
  8
1
 62
     7
 10
147.1547669404051
 20
23.263139720814419
 30
0.0
 11
151.60840218217029
 21
25.834447226519892
 31
0.0
  0
LINE
  5
B3
  8
1
 62
     7
 10
123.3618270003808
 20
-37.0
 30
0.0
 11
123.3618270003808
 21
-42.142615011410989
 31
0.0
  0
LINE
  5
B4
  8
1
 62
     7
 10
112.3618270003809
 20
-42.142615011410989
 30
0.0
 11
112.3618270003809
 21
-37.0
 31
0.0
  0
LINE
  5
B5
  8
1
 62
     7
 10
117.6118270003809
 20
39.050000000000011
 30
0.0
 11
118.1118270003808
 21
39.050000000000011
 31
0.0
  0
LINE
  5
B6
  8
1
 62
     7
 10
119.9118270003809
 20
37.25
 30
0.0
 11
119.9118270003809
 21
36.75
 31
0.0
  0
LINE
  5
B7
  8
1
 62
     7
 10
118.1118270003808
 20
34.95000000000001
 30
0.0
 11
117.6118270003809
 21
34.95000000000001
 31
0.0
  0
LINE
  5
B8
  8
1
 62
     7
 10
115.8118270003809
 20
36.75
 30
0.0
 11
115.8118270003809
 21
37.25
 31
0.0
  0
LINE
  5
B9
  8
1
 62
     7
 10
87.060393411302897
 20
-20.1503520777581
 30
0.0
 11
86.627380709410573
 21
-20.4003520777581
 31
0.0
  0
LINE
  5
BA
  8
1
 62
     7
 10
87.469239138114801
 20
-17.258493649053879
 30
0.0
 11
87.719239138114801
 21
-17.691506350946099
 31
0.0
  0
LINE
  5
BB
  8
1
 62
     7
 10
84.577380709410605
 20
-16.8496479222419
 30
0.0
 11
85.010393411302914
 21
-16.599647922241889
 31
0.0
  0
LINE
  5
BC
  8
1
 62
     7
 10
84.1685349825987
 20
-19.741506350946072
 30
0.0
 11
83.9185349825987
 21
-19.30849364905389
 31
0.0
  0
LINE
  5
BD
  8
1
 62
     7
 10
150.713260589459
 20
-16.599647922241889
 30
0.0
 11
151.14627329135141
 21
-16.8496479222419
 31
0.0
  0
LINE
  5
BE
  8
1
 62
     7
 10
148.004414862647
 20
-17.691506350946099
 30
0.0
 11
148.254414862647
 21
-17.258493649053879
 31
0.0
  0
LINE
  5
BF
  8
1
 62
     7
 10
149.09627329135131
 20
-20.4003520777581
 30
0.0
 11
148.6632605894589
 21
-20.1503520777581
 31
0.0
  0
LINE
  5
C0
  8
1
 62
     7
 10
151.80511901816331
 20
-19.30849364905389
 30
0.0
 11
151.55511901816331
 21
-19.741506350946072
 31
0.0
  0
LINE
  5
C1
  8
1
 62
     7
 10
152.82426256567911
 20
-57.756714755449501
 30
0.0
 11
150.32426256567911
 21
-53.426587736527402
 31
0.0
  0
LINE
  5
C2
  8
1
 62
     7
 10
150.15105748492209
 20
-53.526587736527397
 30
0.0
 11
152.65105748492209
 21
-57.85671475544958
 31
0.0
  0
LINE
  5
C3
  8
1
 62
     7
 10
152.47785240416539
 20
-57.956714755449489
 30
0.0
 11
149.9778524041653
 21
-53.626587736527391
 31
0.0
  0
LINE
  5
C4
  8
1
 62
     7
 10
149.80464732340849
 20
-53.726587736527392
 30
0.0
 11
152.30464732340849
 21
-58.056714755449498
 31
0.0
  0
LINE
  5
C5
  8
1
 62
     7
 10
152.1314422426517
 20
-58.156714755449592
 30
0.0
 11
149.63144224265159
 21
-53.826587736527387
 31
0.0
  0
LINE
  5
C6
  8
1
 62
     7
 10
148.5922117581103
 20
-54.426587736527388
 30
0.0
 11
151.0922117581103
 21
-58.756714755449487
 31
0.0
  0
LINE
  5
C7
  8
1
 62
     7
 10
150.91900667735339
 20
-58.856714755449588
 30
0.0
 11
148.41900667735331
 21
-54.526587736527389
 31
0.0
  0
LINE
  5
C8
  8
1
 62
     7
 10
148.24580159659649
 20
-54.626587736527398
 30
0.0
 11
150.74580159659649
 21
-58.956714755449497
 31
0.0
  0
LINE
  5
C9
  8
1
 62
     7
 10
150.57259651583951
 20
-59.056714755449491
 30
0.0
 11
148.07259651583951
 21
-54.726587736527392
 31
0.0
  0
LINE
  5
CA
  8
1
 62
     7
 10
147.8993914350828
 20
-54.826587736527387
 30
0.0
 11
150.3993914350828
 21
-59.156714755449578
 31
0.0
  0
LINE
  5
CB
  8
1
 62
     7
 10
149.1118270003808
 20
-54.126587736527398
 30
0.0
 11
139.1118270003808
 21
-36.806079660838598
 31
0.0
  0
LINE
  5
CC
  8
1
 62
     7
 10
150.84387780794961
 20
-53.126587736527391
 30
0.0
 11
147.3797761928119
 21
-55.126587736527398
 31
0.0
  0
LINE
  5
CD
  8
1
 62
     7
 10
147.3797761928119
 20
-55.126587736527398
 30
0.0
 11
137.35623373993931
 21
-37.765302936328389
 31
0.0
  0
LINE
  5
CE
  8
1
 62
     7
 10
16.5
 20
9.0
 30
0.0
 11
16.5
 21
33.5
 31
0.0
  0
LINE
  5
CF
  8
1
 62
     7
 10
16.0
 20
42.5
 30
0.0
 11
16.0
 21
-42.499999999999993
 31
0.0
  0
LINE
  5
D0
  8
1
 62
     7
 10
29.479024325749279
 20
33.5
 30
0.0
 11
28.800000000000001
 21
33.5
 31
0.0
  0
LINE
  5
D1
  8
1
 62
     7
 10
28.5
 20
33.800000000000011
 30
0.0
 11
28.5
 21
40.200000000000017
 31
0.0
  0
LINE
  5
D2
  8
1
 62
     7
 10
28.800000000000001
 20
40.499999999999993
 30
0.0
 11
29.479024325749279
 21
40.499999999999993
 31
0.0
  0
LINE
  5
D3
  8
1
 62
     7
 10
28.5
 20
37.0
 30
0.0
 11
27.5
 21
36.0
 31
0.0
  0
LINE
  5
D4
  8
1
 62
     7
 10
28.5
 20
38.0
 30
0.0
 11
27.5
 21
37.0
 31
0.0
  0
LINE
  5
D5
  8
1
 62
     7
 10
27.5
 20
33.5
 30
0.0
 11
28.5
 21
33.5
 31
0.0
  0
LINE
  5
D6
  8
1
 62
     7
 10
28.5
 20
33.5
 30
0.0
 11
28.5
 21
40.499999999999993
 31
0.0
  0
LINE
  5
D7
  8
1
 62
     7
 10
28.5
 20
40.499999999999993
 30
0.0
 11
27.5
 21
40.499999999999993
 31
0.0
  0
LINE
  5
D8
  8
1
 62
     3
 10
28.0
 20
0.0
 30
0.0
 11
33.0
 21
0.0
 31
0.0
  0
LINE
  5
D9
  8
1
  6
DASHDOT
 62
     3
 10
144.9251208686446
 20
15.625
 30
0.0
 11
154.8844130121656
 21
21.375
 31
0.0
  0
LINE
  5
DA
  8
1
  6
DASHDOT
 62
     3
 10
90.798533132117186
 20
15.625
 30
0.0
 11
80.839240988596089
 21
21.375
 31
0.0
  0
LINE
  5
DB
  8
1
  6
DASHDOT
 62
     3
 10
117.8618270003809
 20
-31.25
 30
0.0
 11
117.8618270003809
 21
-42.750000000000092
 31
0.0
  0
LINE
  5
DC
  8
1
 62
     3
 10
120.7619609390097
 20
0.0
 30
0.0
 11
114.961693061752
 21
0.0
 31
0.0
  0
LINE
  5
DD
  8
1
 62
     3
 10
117.8618270003809
 20
2.9001339386288971
 30
0.0
 11
117.8618270003809
 21
-2.9001339386288971
 31
0.0
  0
ARC
  5
DE
  8
1
 62
     7
 10
-45.396050987990108
 20
34.800000000000011
 30
0.0
 40
1.30000000000001
 50
270.0
 51
343.39845040097953
  0
ARC
  5
DF
  8
1
 62
     7
 10
-45.396050987990108
 20
39.200000000000017
 30
0.0
 40
1.30000000000003
 50
16.601549599016352
 51
90.0
  0
ARC
  5
E0
  8
1
 62
     7
 10
-46.07507531373939
 20
33.800000000000011
 30
0.0
 40
0.3000000000000114
 50
180.0
 51
270.0
  0
ARC
  5
E1
  8
1
 62
     7
 10
-46.07507531373939
 20
40.200000000000017
 30
0.0
 40
0.299999999999983
 50
90.0
 51
180.0
  0
ARC
  5
E2
  8
1
 62
     7
 10
29.479024325749279
 20
34.800000000000011
 30
0.0
 40
1.30000000000001
 50
270.0
 51
343.39845040097993
  0
ARC
  5
E3
  8
1
 62
     7
 10
29.479024325749279
 20
39.200000000000017
 30
0.0
 40
1.300000000000032
 50
16.601549599016309
 51
90.0
  0
ARC
  5
E4
  8
1
 62
     7
 10
28.800000000000001
 20
33.800000000000011
 30
0.0
 40
0.3000000000000114
 50
180.0
 51
270.0
  0
ARC
  5
E5
  8
1
 62
     7
 10
28.800000000000001
 20
40.200000000000017
 30
0.0
 40
0.299999999999983
 50
90.0
 51
180.0
  0
ARC
  5
E6
  8
1
 62
     7
 10
-52.775075313739407
 20
37.0
 30
0.0
 40
9.0000000000000266
 50
343.39845040097981
 51
16.601549599019791
  0
ARC
  5
E7
  8
1
 62
     7
 10
117.8618270003809
 20
0.0
 30
0.0
 40
6.000000000000016
 50
109.47122063449051
 51
70.528779365509379
  0
ARC
  5
E8
  8
1
 62
     7
 10
117.8618270003809
 20
-37.0
 30
0.0
 40
5.5
 50
0.0
 51
180.0
  0
ARC
  5
E9
  8
1
 62
     7
 10
85.818887060356801
 20
18.5
 30
0.0
 40
5.4999999999999813
 50
239.99999999999989
 51
60.000000000000028
  0
ARC
  5
EA
  8
1
 62
     7
 10
149.9047669404051
 20
18.5
 30
0.0
 40
5.5000000000000044
 50
119.9999999999999
 51
300.00000000000011
  0
ARC
  5
EB
  8
1
 62
     7
 10
119.9118270003809
 20
39.050000000000011
 30
0.0
 40
1.800000000000096
 50
180.0
 51
270.0
  0
ARC
  5
EC
  8
1
 62
     7
 10
119.9118270003809
 20
34.95000000000001
 30
0.0
 40
1.7999999999999821
 50
90.0
 51
180.0
  0
ARC
  5
ED
  8
1
 62
     7
 10
115.8118270003809
 20
34.95000000000001
 30
0.0
 40
1.7999999999998979
 50
0.0
 51
90.0
  0
ARC
  5
EE
  8
1
 62
     7
 10
115.8118270003809
 20
39.050000000000011
 30
0.0
 40
1.8000000000000109
 50
270.0
 51
0.0
  0
ARC
  5
EF
  8
1
 62
     7
 10
85.068534982598706
 20
-21.300352077758081
 30
0.0
 40
1.7999999999998959
 50
30.00000000000119
 51
119.9999999999999
  0
ARC
  5
F0
  8
1
 62
     7
 10
88.619239138114779
 20
-19.250352077758091
 30
0.0
 40
1.800000000000004
 50
120.0000000000001
 51
210.00000000000199
  0
ARC
  5
F1
  8
1
 62
     7
 10
86.569239138114796
 20
-15.699647922241891
 30
0.0
 40
1.799999999999935
 50
210.00000000000139
 51
299.99999999999932
  0
ARC
  5
F2
  8
1
 62
     7
 10
83.018534982598609
 20
-17.749647922241898
 30
0.0
 40
1.800000000000046
 50
300.00000000000227
 51
30.000000000000171
  0
ARC
  5
F3
  8
1
 62
     7
 10
152.70511901816329
 20
-17.749647922241898
 30
0.0
 40
1.7999999999999099
 50
149.99999999999801
 51
240.0000000000006
  0
ARC
  5
F4
  8
1
 62
     7
 10
149.154414862647
 20
-15.699647922241891
 30
0.0
 40
1.799999999999996
 50
240.00000000000071
 51
330.00000000000011
  0
ARC
  5
F5
  8
1
 62
     7
 10
147.1044148626471
 20
-19.250352077758091
 30
0.0
 40
1.7999999999999099
 50
329.99999999999801
 51
59.999999999999893
  0
ARC
  5
F6
  8
1
 62
     7
 10
150.6551190181633
 20
-21.300352077758081
 30
0.0
 40
1.800000000000014
 50
60.00000000000005
 51
150.0000000000006
  0
ARC
  5
F7
  8
1
 62
     7
 10
22.100000000000001
 20
37.0
 30
0.0
 40
9.0000000000000124
 50
343.39845040097981
 51
16.601549599019819
  0
ARC
  5
F8
  8
1
  6
DASHDOT
 62
     3
 10
117.8618270003809
 20
0.0
 30
0.0
 40
37.00000000000005
 50
21.062668523934011
 51
38.937331476065708
  0
ARC
  5
F9
  8
1
  6
DASHDOT
 62
     3
 10
117.8618270003809
 20
0.0
 30
0.0
 40
37.000000000000078
 50
141.06266852393401
 51
158.93733147606571
  0
ARC
  5
FA
  8
1
  6
DASHDOT
 62
     3
 10
117.8618270003809
 20
0.0
 30
0.0
 40
37.000000000000149
 50
261.06266852393412
 51
278.93733147606582
  0
CIRCLE
  5
FB
  8
1
 62
     7
 10
117.8618270003809
 20
0.0
 30
0.0
 40
13.199999999999999
  0
CIRCLE
  5
FC
  8
1
 62
     7
 10
117.8618270003809
 20
0.0
 30
0.0
 40
14.85000000000001
  0
CIRCLE
  5
FD
  8
1
 62
     7
 10
117.8618270003809
 20
0.0
 30
0.0
 40
19.000000000000011
  0
CIRCLE
  5
FE
  8
1
 62
     7
 10
117.8618270003809
 20
-37.0
 30
0.0
 40
2.75
  0
CIRCLE
  5
FF
  8
1
 62
     7
 10
149.9047669404051
 20
18.5
 30
0.0
 40
2.75
  0
CIRCLE
  5
100
  8
1
 62
     7
 10
85.818887060356801
 20
18.5
 30
0.0
 40
2.75
  0
CIRCLE
  5
101
  8
1
 62
     7
 10
117.8618270003809
 20
37.0
 30
0.0
 40
3.5
  0
CIRCLE
  5
102
  8
1
 62
     7
 10
85.818887060356801
 20
-18.5
 30
0.0
 40
3.4999999999999711
  0
CIRCLE
  5
103
  8
1
 62
     7
 10
149.9047669404051
 20
-18.5
 30
0.0
 40
3.5
  0
CIRCLE
  5
104
  8
1
 62
     7
 10
117.8618270003809
 20
0.0
 30
0.0
 40
42.5
  0
TEXT
  5
106
  8
1
 62
     7
 10
-72.299599768006587
 20
75.703471171076501
 30
0.0
 40
3.5
  1
RNB 0.4
 41
0.9
  7
SIMPLEX
  0
ENDSEC
  0
EOF
