  0
SECTION
  2
HEADER
  9
$ACADVER
  1
AC1009
  9
$INSBASE
 10
0.0
 20
0.0
 30
0.0
  9
$EXTMIN
 10
-94.445334351225725
 20
-73.499999999999972
 30
0.0
  9
$EXTMAX
 10
192.3404557861183
 20
90.24630169474473
 30
0.0
  9
$LIMMIN
 10
-94.445334351225725
 20
-73.499999999999972
  9
$LIMMAX
 10
192.3404557861183
 20
90.246301694744716
  9
$ORTHOMODE
 70
     0
  9
$REGENMODE
 70
     1
  9
$FILLMODE
 70
     1
  9
$QTEXTMODE
 70
     0
  9
$MIRRTEXT
 70
     1
  9
$DRAGMODE
 70
     2
  9
$LTSCALE
 40
1.0
  9
$OSMODE
 70
    37
  9
$ATTMODE
 70
     1
  9
$TEXTSIZE
 40
3.5
  9
$TRACEWID
 40
0.5
  9
$TEXTSTYLE
  7
STANDARD
  9
$CLAYER
  8
0
  9
$CELTYPE
  6
BYLAYER
  9
$CECOLOR
 62
   256
  9
$DIMSCALE
 40
1.0
  9
$DIMASZ
 40
0.18
  9
$DIMEXO
 40
0.0625
  9
$DIMDLI
 40
0.38
  9
$DIMRND
 40
0.0
  9
$DIMDLE
 40
0.0
  9
$DIMEXE
 40
0.18
  9
$DIMTP
 40
0.0
  9
$DIMTM
 40
0.0
  9
$DIMTXT
 40
0.18
  9
$DIMCEN
 40
0.09
  9
$DIMTSZ
 40
0.0
  9
$DIMTOL
 70
     0
  9
$DIMLIM
 70
     0
  9
$DIMTIH
 70
     1
  9
$DIMTOH
 70
     1
  9
$DIMSE1
 70
     0
  9
$DIMSE2
 70
     0
  9
$DIMTAD
 70
     0
  9
$DIMZIN
 70
     0
  9
$DIMBLK
  1

  9
$DIMASO
 70
     1
  9
$DIMSHO
 70
     1
  9
$DIMPOST
  1

  9
$DIMAPOST
  1

  9
$DIMALT
 70
     0
  9
$DIMALTD
 70
     2
  9
$DIMALTF
 40
25.399999999999999
  9
$DIMLFAC
 40
1.0
  9
$DIMTOFL
 70
     0
  9
$DIMTVP
 40
0.0
  9
$DIMTIX
 70
     0
  9
$DIMSOXD
 70
     0
  9
$DIMSAH
 70
     0
  9
$DIMBLK1
  1

  9
$DIMBLK2
  1

  9
$DIMSTYLE
  2
STANDARD
  9
$DIMCLRD
 70
     0
  9
$DIMCLRE
 70
     0
  9
$DIMCLRT
 70
     0
  9
$DIMTFAC
 40
1.0
  9
$DIMGAP
 40
0.09
  9
$LUNITS
 70
     2
  9
$LUPREC
 70
     4
  9
$SKETCHINC
 40
0.1
  9
$FILLETRAD
 40
2.0
  9
$AUNITS
 70
     0
  9
$AUPREC
 70
     0
  9
$MENU
  1
ACAD
  9
$ELEVATION
 40
0.0
  9
$PELEVATION
 40
0.0
  9
$THICKNESS
 40
0.0
  9
$LIMCHECK
 70
     0
  9
$BLIPMODE
 70
     0
  9
$CHAMFERA
 40
0.0
  9
$CHAMFERB
 40
0.0
  9
$SKPOLY
 70
     0
  9
$TDCREATE
 40
2452094.9732027771
  9
$TDUPDATE
 40
2452094.974205324
  9
$TDINDWG
 40
0.0010184028
  9
$TDUSRTIMER
 40
0.0010184028
  9
$USRTIMER
 70
     1
  9
$ANGBASE
 50
0.0
  9
$ANGDIR
 70
     0
  9
$PDMODE
 70
     0
  9
$PDSIZE
 40
0.0
  9
$PLINEWID
 40
0.0
  9
$COORDS
 70
     1
  9
$SPLFRAME
 70
     0
  9
$SPLINETYPE
 70
     6
  9
$SPLINESEGS
 70
     8
  9
$ATTDIA
 70
     0
  9
$ATTREQ
 70
     1
  9
$HANDLING
 70
 10241
  9
$HANDSEED
  5
10A
  9
$SURFTAB1
 70
     6
  9
$SURFTAB2
 70
     6
  9
$SURFTYPE
 70
     6
  9
$SURFU
 70
     6
  9
$SURFV
 70
     6
  9
$UCSNAME
  2

  9
$UCSORG
 10
0.0
 20
0.0
 30
0.0
  9
$UCSXDIR
 10
1.0
 20
0.0
 30
0.0
  9
$UCSYDIR
 10
0.0
 20
1.0
 30
0.0
  9
$PUCSNAME
  2

  9
$PUCSORG
 10
0.0
 20
0.0
 30
0.0
  9
$PUCSXDIR
 10
1.0
 20
0.0
 30
0.0
  9
$PUCSYDIR
 10
0.0
 20
1.0
 30
0.0
  9
$USERI1
 70
     0
  9
$USERI2
 70
     0
  9
$USERI3
 70
     0
  9
$USERI4
 70
     0
  9
$USERI5
 70
     0
  9
$USERR1
 40
0.0
  9
$USERR2
 40
0.0
  9
$USERR3
 40
0.0
  9
$USERR4
 40
0.0
  9
$USERR5
 40
0.0
  9
$WORLDVIEW
 70
     1
  9
$SHADEDGE
 70
     3
  9
$SHADEDIF
 70
    70
  9
$TILEMODE
 70
     1
  9
$MAXACTVP
 70
    64
  9
$PLIMCHECK
 70
     0
  9
$PEXTMIN
 10
1.0000000000000000E+020
 20
1.0000000000000000E+020
 30
1.0000000000000000E+020
  9
$PEXTMAX
 10
-1.0000000000000000E+020
 20
-1.0000000000000000E+020
 30
-1.0000000000000000E+020
  9
$PLIMMIN
 10
0.0
 20
0.0
  9
$PLIMMAX
 10
12.0
 20
9.0
  9
$UNITMODE
 70
     0
  9
$VISRETAIN
 70
     1
  9
$PLINEGEN
 70
     0
  9
$PSLTSCALE
 70
     1
  0
ENDSEC
  0
SECTION
  2
TABLES
  0
TABLE
  2
VPORT
 70
     2
  0
VPORT
  2
*ACTIVE
 70
     0
 10
0.0
 20
0.0
 11
1.0
 21
1.0
 12
-75.131389999689944
 22
83.956029739597966
 13
0.0
 23
0.0
 14
1.0
 24
1.0
 15
0.0
 25
0.0
 16
0.0
 26
0.0
 36
1.0
 17
0.0
 27
0.0
 37
0.0
 40
8.9999999029211022
 41
2.4144144144144142
 42
50.0
 43
0.0
 44
0.0
 50
0.0
 51
0.0
 71
     0
 72
   100
 73
     1
 74
     1
 75
     0
 76
     0
 77
     0
 78
     0
  0
ENDTAB
  0
TABLE
  2
LTYPE
 70
     9
  0
LTYPE
  2
CONTINUOUS
 70
     0
  3
Solid line
 72
    65
 73
     0
 40
0.0
  0
LTYPE
  2
BORDER
 70
     0
  3
__ __ . __ __ .
 72
    65
 73
     6
 40
13.20724033527242
 49
3.7734972386492629
 49
-1.886748619324631
 49
3.7734972386492629
 49
-1.886748619324631
 49
0.0
 49
-1.886748619324631
  0
LTYPE
  2
CENTER
 70
     0
  3
____ _ ____ _
 72
    65
 73
     4
 40
15.09398895459705
 49
9.433743096623159
 49
-1.886748619324631
 49
1.886748619324631
 49
-1.886748619324631
  0
LTYPE
  2
DASHDOT
 70
     0
  3
__ . __ . __ .
 72
    65
 73
     4
 40
7.5469944772985258
 49
3.7734972386492629
 49
-1.886748619324631
 49
0.0
 49
-1.886748619324631
  0
LTYPE
  2
DASHED
 70
     0
  3
__ __ __ __ __
 72
    65
 73
     2
 40
5.6602458579738952
 49
3.7734972386492629
 49
-1.886748619324631
  0
LTYPE
  2
DIVIDE
 70
     0
  3
__ . . __ . . 
 72
    65
 73
     6
 40
9.433743096623159
 49
3.7734972386492629
 49
-1.886748619324631
 49
0.0
 49
-1.886748619324631
 49
0.0
 49
-1.886748619324631
  0
LTYPE
  2
DOT
 70
     0
  3
..............
 72
    65
 73
     4
 40
3.7734972386492629
 49
0.0
 49
-1.886748619324631
 49
0.0
 49
-1.886748619324631
  0
LTYPE
  2
HIDDEN
 70
     0
  3
_ _ _ _ _ _ _
 72
    65
 73
     2
 40
2.8301229289869481
 49
1.886748619324631
 49
-0.943374309662316
  0
LTYPE
  2
PHANTOM
 70
     0
  3
_____ _ _ _____ _ _ 
 72
    65
 73
     6
 40
18.867486193246311
 49
9.433743096623159
 49
-1.886748619324631
 49
1.886748619324631
 49
-1.886748619324631
 49
1.886748619324631
 49
-1.886748619324631
  0
ENDTAB
  0
TABLE
  2
LAYER
 70
     2
  0
LAYER
  2
0
 70
     0
 62
     7
  6
CONTINUOUS
  0
LAYER
  2
1
 70
     0
 62
     7
  6
CONTINUOUS
  0
ENDTAB
  0
TABLE
  2
STYLE
 70
     4
  0
STYLE
  2
STANDARD
 70
     0
 40
0.0
 41
1.0
 50
0.0
 71
     0
 42
3.5
  3
txt
  4

  0
STYLE
  2
SIMPLEX
 70
     0
 40
0.0
 41
1.0
 50
0.0
 71
     0
 42
3.5
  3
simplex
  4

  0
STYLE
  2
COMPLEX
 70
     0
 40
0.0
 41
1.0
 50
0.0
 71
     0
 42
3.5
  3
complex
  4

  0
STYLE
  2
ITALIC
 70
     0
 40
0.0
 41
1.0
 50
0.0
 71
     0
 42
3.5
  3
italic
  4

  0
ENDTAB
  0
TABLE
  2
VIEW
 70
     0
  0
ENDTAB
  0
TABLE
  2
UCS
 70
     0
  0
ENDTAB
  0
TABLE
  2
APPID
 70
     1
  0
APPID
  2
ACAD
 70
     0
  0
ENDTAB
  0
TABLE
  2
DIMSTYLE
 70
     1
  0
DIMSTYLE
  2
STANDARD
 70
     0
  3

  4

  5

  6

  7

 40
1.0
 41
0.18
 42
0.0625
 43
0.38
 44
0.18
 45
0.0
 46
0.0
 47
0.0
 48
0.0
140
0.18
141
0.09
142
0.0
143
25.399999999999999
144
1.0
145
0.0
146
1.0
147
0.09
 71
     0
 72
     0
 73
     1
 74
     1
 75
     0
 76
     0
 77
     0
 78
     0
170
     0
171
     2
172
     0
173
     0
174
     0
175
     0
176
     0
177
     0
178
     0
  0
ENDTAB
  0
ENDSEC
  0
SECTION
  2
BLOCKS
  0
BLOCK
  8
0
  2
$MODEL_SPACE
 70
     0
 10
0.0
 20
0.0
 30
0.0
  3
$MODEL_SPACE
  1

  0
ENDBLK
  5
20
  8
0
  0
BLOCK
 67
     1
  8
0
  2
$PAPER_SPACE
 70
     0
 10
0.0
 20
0.0
 30
0.0
  3
$PAPER_SPACE
  1

  0
ENDBLK
  5
1C
 67
     1
  8
0
  0
ENDSEC
  0
SECTION
  2
ENTITIES
  0
POINT
  5
33
  8
1
  6
DOT
 62
     7
 10
102.18301144463619
 20
-8.4206490804654948
 30
0.0
  0
POINT
  5
34
  8
1
  6
DOT
 62
     7
 10
185.49790012759991
 20
8.4206490804654095
 30
0.0
  0
LINE
  5
35
  8
1
 62
     3
 10
29.99999999999989
 20
0.0
 30
0.0
 11
34.999999999999893
 21
0.0
 31
0.0
  0
LINE
  5
36
  8
1
 62
     7
 10
16.800000000000001
 20
48.5
 30
0.0
 11
16.799999999999969
 21
11.0
 31
0.0
  0
LINE
  5
37
  8
1
 62
     7
 10
30.800000000000001
 20
46.749999999999993
 30
0.0
 11
29.5
 21
46.749999999999993
 31
0.0
  0
LINE
  5
38
  8
1
 62
     7
 10
30.800000000000001
 20
38.25
 30
0.0
 11
30.800000000000001
 21
46.749999999999993
 31
0.0
  0
LINE
  5
39
  8
1
 62
     7
 10
29.5
 20
38.25
 30
0.0
 11
30.800000000000001
 21
38.25
 31
0.0
  0
LINE
  5
3A
  8
1
 62
     7
 10
30.800000000000001
 20
43.800000000000011
 30
0.0
 11
29.5
 21
42.5
 31
0.0
  0
LINE
  5
3B
  8
1
 62
     7
 10
30.800000000000001
 20
42.5
 30
0.0
 11
29.5
 21
41.200000000000017
 31
0.0
  0
LINE
  5
3C
  8
1
 62
     7
 10
31.100000000000001
 20
47.0
 30
0.0
 11
32.087492177719092
 21
47.0
 31
0.0
  0
LINE
  5
3D
  8
1
 62
     7
 10
32.087492177719092
 20
38.0
 30
0.0
 11
31.100000000000001
 21
38.0
 31
0.0
  0
LINE
  5
3E
  8
1
 62
     7
 10
0.0
 20
48.5
 30
0.0
 11
0.0
 21
-48.499999999999993
 31
0.0
  0
LINE
  5
3F
  8
1
 62
     7
 10
0.0
 20
-39.749999999999993
 30
0.0
 11
16.799999999999969
 21
-39.749999999999993
 31
0.0
  0
LINE
  5
40
  8
1
 62
     7
 10
0.0
 20
-45.249999999999993
 30
0.0
 11
16.799999999999969
 21
-45.249999999999993
 31
0.0
  0
LINE
  5
41
  8
1
  6
DASHDOT
 62
     3
 10
-5.0000000000000133
 20
-42.499999999999993
 30
0.0
 11
34.399999999999892
 21
-42.499999999999993
 31
0.0
  0
LINE
  5
42
  8
1
 62
     3
 10
-5.0
 20
0.0
 30
0.0
 11
0.0
 21
0.0
 31
0.0
  0
LINE
  5
43
  8
1
 62
     7
 10
16.799999999999969
 20
12.5
 30
0.0
 11
0.0
 21
12.5
 31
0.0
  0
LINE
  5
44
  8
1
 62
     7
 10
0.0
 20
-12.5
 30
0.0
 11
16.799999999999969
 21
-12.5
 31
0.0
  0
LINE
  5
45
  8
1
 62
     7
 10
16.800000000000001
 20
-48.499999999999993
 30
0.0
 11
16.799999999999969
 21
-11.0
 31
0.0
  0
LINE
  5
46
  8
1
 62
     7
 10
7.5
 20
-48.499999999999993
 30
0.0
 11
7.5
 21
-68.499999999999986
 31
0.0
  0
LINE
  5
47
  8
1
 62
     7
 10
9.5
 20
-68.499999999999986
 30
0.0
 11
7.5
 21
-68.499999999999986
 31
0.0
  0
LINE
  5
48
  8
1
 62
     7
 10
9.5
 20
-68.499999999999986
 30
0.0
 11
9.5
 21
-48.499999999999993
 31
0.0
  0
LINE
  5
49
  8
1
 62
     7
 10
8.0999999999999943
 20
-68.500000000000014
 30
0.0
 11
8.0999999999999943
 21
-73.499999999999972
 31
0.0
  0
LINE
  5
4A
  8
1
 62
     7
 10
8.2999999999999972
 20
-73.499999999999972
 30
0.0
 11
8.2999999999999972
 21
-68.500000000000014
 31
0.0
  0
LINE
  5
4B
  8
1
 62
     7
 10
8.5
 20
-68.500000000000014
 30
0.0
 11
8.5
 21
-73.499999999999972
 31
0.0
  0
LINE
  5
4C
  8
1
 62
     7
 10
8.7000000000000028
 20
-73.499999999999972
 30
0.0
 11
8.7000000000000028
 21
-68.500000000000014
 31
0.0
  0
LINE
  5
4D
  8
1
 62
     7
 10
8.8999999999999915
 20
-68.499999999999986
 30
0.0
 11
8.8999999999999915
 21
-73.499999999999972
 31
0.0
  0
LINE
  5
4E
  8
1
 62
     7
 10
0.0
 20
48.5
 30
0.0
 11
16.800000000000001
 21
48.5
 31
0.0
  0
LINE
  5
4F
  8
1
 62
     7
 10
16.800000000000001
 20
-48.499999999999993
 30
0.0
 11
0.0
 21
-48.499999999999993
 31
0.0
  0
LINE
  5
50
  8
1
 62
     7
 10
138.3404557861183
 20
-48.187135212627084
 30
0.0
 11
138.3404557861183
 21
-42.499999999999993
 31
0.0
  0
LINE
  5
51
  8
1
 62
     7
 10
149.3404557861183
 20
-42.499999999999993
 30
0.0
 11
149.3404557861183
 21
-48.187135212627084
 31
0.0
  0
LINE
  5
52
  8
1
 62
     7
 10
177.89653544695679
 20
26.013139720814419
 30
0.0
 11
182.82173901584881
 21
28.856707327127911
 31
0.0
  0
LINE
  5
53
  8
1
 62
     7
 10
188.32173901584881
 20
19.33042788549912
 30
0.0
 11
183.39653544695679
 21
16.48686027918561
 31
0.0
  0
LINE
  5
54
  8
1
 62
     7
 10
104.28437612527939
 20
16.486860279185521
 30
0.0
 11
99.359172556387492
 21
19.33042788549912
 31
0.0
  0
LINE
  5
55
  8
1
 62
     7
 10
104.85917255638751
 20
28.856707327127911
 30
0.0
 11
109.78437612527949
 21
26.013139720814419
 31
0.0
  0
LINE
  5
56
  8
1
 62
     7
 10
143.44045578611809
 20
44.900000000000013
 30
0.0
 11
144.24045578611799
 21
44.900000000000013
 31
0.0
  0
LINE
  5
57
  8
1
 62
     7
 10
146.24045578611799
 20
42.900000000000013
 30
0.0
 11
146.24045578611799
 21
42.100000000000023
 31
0.0
  0
LINE
  5
58
  8
1
 62
     7
 10
144.24045578611799
 20
40.100000000000023
 30
0.0
 11
143.44045578611809
 21
40.100000000000023
 31
0.0
  0
LINE
  5
59
  8
1
 62
     7
 10
141.44045578611809
 20
42.100000000000023
 30
0.0
 11
141.44045578611809
 21
42.900000000000013
 31
0.0
  0
LINE
  5
5A
  8
1
 62
     7
 10
108.5807862867932
 20
-23.128460969082681
 30
0.0
 11
107.88796596376569
 21
-23.52846096908268
 31
0.0
  0
LINE
  5
5B
  8
1
 62
     7
 10
108.9128370943622
 20
-19.703589838486181
 30
0.0
 11
109.31283709436219
 21
-20.396410161513781
 31
0.0
  0
LINE
  5
5C
  8
1
 62
     7
 10
105.4879659637657
 20
-19.371539030917369
 30
0.0
 11
106.18078628679331
 21
-18.971539030917391
 31
0.0
  0
LINE
  5
5D
  8
1
 62
     7
 10
105.1559151561968
 20
-22.796410161513791
 30
0.0
 11
104.75591515619691
 21
-22.10358983848629
 31
0.0
  0
LINE
  5
5E
  8
1
 62
     7
 10
181.500125285443
 20
-18.971539030917391
 30
0.0
 11
182.19294560847061
 21
-19.371539030917369
 31
0.0
  0
LINE
  5
5F
  8
1
 62
     7
 10
178.3680744778741
 20
-20.396410161513781
 30
0.0
 11
178.76807447787411
 21
-19.703589838486181
 31
0.0
  0
LINE
  5
60
  8
1
 62
     7
 10
179.7929456084706
 20
-23.52846096908268
 30
0.0
 11
179.100125285443
 21
-23.128460969082681
 31
0.0
  0
LINE
  5
61
  8
1
 62
     7
 10
182.92499641603939
 20
-22.10358983848629
 30
0.0
 11
182.5249964160395
 21
-22.796410161513791
 31
0.0
  0
LINE
  5
62
  8
1
 62
     7
 10
179.30289135141629
 20
-58.622740159234112
 30
0.0
 11
181.80289135141629
 21
-62.952867178156289
 31
0.0
  0
LINE
  5
63
  8
1
 62
     7
 10
181.62968627065939
 20
-63.052867178156291
 30
0.0
 11
179.12968627065939
 21
-58.722740159234093
 31
0.0
  0
LINE
  5
64
  8
1
 62
     7
 10
178.9564811899026
 20
-58.822740159234087
 30
0.0
 11
181.4564811899026
 21
-63.152867178156299
 31
0.0
  0
LINE
  5
65
  8
1
 62
     7
 10
181.28327610914559
 20
-63.252867178156308
 30
0.0
 11
178.7832761091457
 21
-58.922740159234102
 31
0.0
  0
LINE
  5
66
  8
1
 62
     7
 10
178.6100710283888
 20
-59.022740159234097
 30
0.0
 11
181.1100710283888
 21
-63.352867178156302
 31
0.0
  0
LINE
  5
67
  8
1
 62
     7
 10
180.07084054384751
 20
-63.952867178156289
 30
0.0
 11
177.57084054384751
 21
-59.622740159234098
 31
0.0
  0
LINE
  5
68
  8
1
 62
     7
 10
177.3976354630905
 20
-59.722740159234093
 30
0.0
 11
179.8976354630905
 21
-64.052867178156305
 31
0.0
  0
LINE
  5
69
  8
1
 62
     7
 10
179.72443038233351
 20
-64.152867178156299
 30
0.0
 11
177.22443038233351
 21
-59.822740159234087
 31
0.0
  0
LINE
  5
6A
  8
1
 62
     7
 10
177.05122530157681
 20
-59.922740159234102
 30
0.0
 11
179.55122530157681
 21
-64.252867178156293
 31
0.0
  0
LINE
  5
6B
  8
1
 62
     7
 10
179.37802022081999
 20
-64.352867178156302
 30
0.0
 11
176.87802022081999
 21
-60.022740159234097
 31
0.0
  0
LINE
  5
6C
  8
1
 62
     7
 10
178.0904557861181
 20
-59.322740159234101
 30
0.0
 11
168.0904557861183
 21
-42.00223208354528
 31
0.0
  0
LINE
  5
6D
  8
1
 62
     7
 10
176.35840497854909
 20
-60.322740159234087
 30
0.0
 11
179.82250659368711
 21
-58.322740159234101
 31
0.0
  0
LINE
  5
6E
  8
1
 62
     7
 10
176.35840497854909
 20
-60.322740159234087
 30
0.0
 11
166.33777764892591
 21
-42.966504500613382
 31
0.0
  0
LINE
  5
6F
  8
1
 62
     7
 10
179.82250659368711
 20
-58.322740159234101
 30
0.0
 11
169.80187926406381
 21
-40.966504500613283
 31
0.0
  0
LINE
  5
70
  8
1
 62
     7
 10
141.3404557861183
 20
9.0
 30
0.0
 11
146.3404557861183
 21
9.0
 31
0.0
  0
LINE
  5
71
  8
1
 62
     7
 10
141.3404557861183
 20
9.0
 30
0.0
 11
141.3404557861183
 21
6.5383484153110194
 31
0.0
  0
LINE
  5
72
  8
1
 62
     7
 10
146.3404557861183
 20
9.0
 30
0.0
 11
146.3404557861183
 21
6.5383484153110194
 31
0.0
  0
LINE
  5
73
  8
1
 62
     7
 10
22.0
 20
-36.0
 30
0.0
 11
21.99999999999989
 21
-15.44999999999999
 31
0.0
  0
LINE
  5
74
  8
1
 62
     7
 10
20.199999999999989
 20
-36.0
 30
0.0
 11
26.699999999999889
 21
-36.0
 31
0.0
  0
LINE
  5
75
  8
1
 62
     7
 10
20.199999999999989
 20
-27.0
 30
0.0
 11
21.999999999999979
 21
-27.0
 31
0.0
  0
LINE
  5
76
  8
1
 62
     7
 10
20.199999999999989
 20
27.0
 30
0.0
 11
21.999999999999979
 21
27.0
 31
0.0
  0
LINE
  5
77
  8
1
 62
     7
 10
17.299999999999969
 20
-12.5
 30
0.0
 11
20.59999999999998
 21
-12.5
 31
0.0
  0
LINE
  5
78
  8
1
 62
     7
 10
20.59999999999998
 20
12.5
 30
0.0
 11
17.299999999999969
 21
12.5
 31
0.0
  0
LINE
  5
79
  8
1
 62
     7
 10
17.300000000000001
 20
48.5
 30
0.0
 11
17.300000000000001
 21
46.5
 31
0.0
  0
LINE
  5
7A
  8
1
 62
     7
 10
20.59999999999998
 20
48.5
 30
0.0
 11
17.300000000000001
 21
48.5
 31
0.0
  0
LINE
  5
7B
  8
1
 62
     7
 10
20.59999999999998
 20
-48.499999999999993
 30
0.0
 11
20.59999999999998
 21
-36.0
 31
0.0
  0
LINE
  5
7C
  8
1
 62
     7
 10
17.300000000000001
 20
-48.499999999999993
 30
0.0
 11
20.59999999999998
 21
-48.499999999999993
 31
0.0
  0
LINE
  5
7D
  8
1
 62
     7
 10
17.299999999999969
 20
-37.0
 30
0.0
 11
20.59999999999998
 21
-37.0
 31
0.0
  0
LINE
  5
7E
  8
1
 62
     7
 10
17.299999999999969
 20
38.200000000000017
 30
0.0
 11
20.59999999999998
 21
38.200000000000017
 31
0.0
  0
LINE
  5
7F
  8
1
 62
     7
 10
20.59999999999998
 20
36.0
 30
0.0
 11
20.59999999999998
 21
38.5
 31
0.0
  0
LINE
  5
80
  8
1
 62
     7
 10
20.199999999999989
 20
27.0
 30
0.0
 11
20.199999999999989
 21
36.0
 31
0.0
  0
LINE
  5
81
  8
1
 62
     7
 10
20.199999999999989
 20
-36.0
 30
0.0
 11
20.199999999999989
 21
-27.0
 31
0.0
  0
LINE
  5
82
  8
1
 62
     7
 10
20.59999999999998
 20
-27.0
 30
0.0
 11
20.59999999999998
 21
-11.0
 31
0.0
  0
LINE
  5
83
  8
1
 62
     7
 10
24.899999999999888
 20
27.0
 30
0.0
 11
26.699999999999889
 21
27.0
 31
0.0
  0
LINE
  5
84
  8
1
 62
     7
 10
24.899999999999888
 20
-27.0
 30
0.0
 11
26.699999999999889
 21
-27.0
 31
0.0
  0
LINE
  5
85
  8
1
 62
     7
 10
26.1999999999999
 20
-48.499999999999993
 30
0.0
 11
29.5
 21
-48.499999999999993
 31
0.0
  0
LINE
  5
86
  8
1
 62
     7
 10
29.5
 20
48.5
 30
0.0
 11
26.1999999999999
 21
48.5
 31
0.0
  0
LINE
  5
87
  8
1
 62
     7
 10
26.199999999999889
 20
21.0
 30
0.0
 11
29.5
 21
21.0
 31
0.0
  0
LINE
  5
88
  8
1
 62
     7
 10
26.199999999999889
 20
-21.0
 30
0.0
 11
29.5
 21
-21.0
 31
0.0
  0
LINE
  5
89
  8
1
 62
     7
 10
26.199999999999889
 20
17.100000000000009
 30
0.0
 11
26.199999999999889
 21
27.0
 31
0.0
  0
LINE
  5
8A
  8
1
 62
     7
 10
29.5
 20
-48.499999999999993
 30
0.0
 11
29.5
 21
-17.100000000000069
 31
0.0
  0
LINE
  5
8B
  8
1
 62
     7
 10
26.199999999999889
 20
-37.0
 30
0.0
 11
29.5
 21
-37.0
 31
0.0
  0
LINE
  5
8C
  8
1
 62
     7
 10
26.1999999999999
 20
36.0
 30
0.0
 11
26.1999999999999
 21
48.5
 31
0.0
  0
LINE
  5
8D
  8
1
 62
     7
 10
26.699999999999889
 20
27.0
 30
0.0
 11
26.699999999999889
 21
36.0
 31
0.0
  0
LINE
  5
8E
  8
1
 62
     7
 10
26.699999999999889
 20
-36.0
 30
0.0
 11
26.699999999999889
 21
-27.0
 31
0.0
  0
LINE
  5
8F
  8
1
 62
     7
 10
26.1999999999999
 20
-36.0
 30
0.0
 11
26.1999999999999
 21
-48.499999999999993
 31
0.0
  0
LINE
  5
90
  8
1
 62
     7
 10
26.699999999999889
 20
36.0
 30
0.0
 11
20.199999999999989
 21
36.0
 31
0.0
  0
LINE
  5
91
  8
1
 62
     7
 10
21.999999999999979
 20
15.75
 30
0.0
 11
24.899999999999888
 21
15.75
 31
0.0
  0
LINE
  5
92
  8
1
 62
     7
 10
21.999999999999979
 20
-15.75
 30
0.0
 11
24.899999999999888
 21
-15.75
 31
0.0
  0
LINE
  5
93
  8
1
 62
     7
 10
21.999999999999979
 20
-17.5500000000001
 30
0.0
 11
24.899999999999888
 21
-17.5500000000001
 31
0.0
  0
LINE
  5
94
  8
1
 62
     7
 10
24.899999999999888
 20
-36.0
 30
0.0
 11
24.899999999999888
 21
-15.44999999999999
 31
0.0
  0
LINE
  5
95
  8
1
 62
     7
 10
21.999999999999979
 20
17.550000000000001
 30
0.0
 11
24.899999999999888
 21
17.550000000000001
 31
0.0
  0
LINE
  5
96
  8
1
 62
     7
 10
21.99999999999989
 20
15.4499999999999
 30
0.0
 11
22.0
 21
36.0
 31
0.0
  0
LINE
  5
97
  8
1
 62
     7
 10
21.899999999999888
 20
-15.44999999999999
 30
0.0
 11
29.99999999999989
 21
-15.44999999999999
 31
0.0
  0
LINE
  5
98
  8
1
 62
     7
 10
21.899999999999888
 20
15.4499999999999
 30
0.0
 11
29.99999999999989
 21
15.4499999999999
 31
0.0
  0
LINE
  5
99
  8
1
 62
     7
 10
21.899999999999888
 20
-17.100000000000069
 30
0.0
 11
21.899999999999888
 21
-11.0
 31
0.0
  0
LINE
  5
9A
  8
1
 62
     7
 10
29.99999999999989
 20
-17.100000000000069
 30
0.0
 11
29.99999999999989
 21
17.100000000000009
 31
0.0
  0
LINE
  5
9B
  8
1
 62
     7
 10
21.899999999999888
 20
11.0
 30
0.0
 11
21.899999999999888
 21
17.100000000000009
 31
0.0
  0
LINE
  5
9C
  8
1
 62
     7
 10
13.99999999999989
 20
-11.0
 30
0.0
 11
13.99999999999989
 21
11.0
 31
0.0
  0
LINE
  5
9D
  8
1
 62
     7
 10
13.99999999999989
 20
-7.0
 30
0.0
 11
29.99999999999989
 21
-7.0
 31
0.0
  0
LINE
  5
9E
  8
1
 62
     7
 10
29.99999999999989
 20
-17.100000000000069
 30
0.0
 11
21.899999999999888
 21
-17.100000000000069
 31
0.0
  0
LINE
  5
9F
  8
1
 62
     7
 10
21.899999999999888
 20
-11.0
 30
0.0
 11
13.99999999999989
 21
-11.0
 31
0.0
  0
LINE
  5
A0
  8
1
 62
     7
 10
13.99999999999989
 20
11.0
 30
0.0
 11
21.899999999999888
 21
11.0
 31
0.0
  0
LINE
  5
A1
  8
1
 62
     7
 10
21.899999999999888
 20
17.100000000000009
 30
0.0
 11
29.99999999999989
 21
17.100000000000009
 31
0.0
  0
LINE
  5
A2
  8
1
 62
     7
 10
29.5
 20
17.100000000000009
 30
0.0
 11
29.5
 21
48.5
 31
0.0
  0
LINE
  5
A3
  8
1
 62
     7
 10
26.199999999999889
 20
-17.100000000000069
 30
0.0
 11
26.199999999999889
 21
-27.0
 31
0.0
  0
LINE
  5
A4
  8
1
 62
     7
 10
24.899999999999888
 20
15.4499999999999
 30
0.0
 11
24.899999999999888
 21
36.0
 31
0.0
  0
LINE
  5
A5
  8
1
 62
     7
 10
20.59999999999998
 20
11.0
 30
0.0
 11
20.59999999999998
 21
27.0
 31
0.0
  0
LINE
  5
A6
  8
1
 62
     7
 10
17.299999999999969
 20
-11.0
 30
0.0
 11
17.300000000000001
 21
-48.499999999999993
 31
0.0
  0
LINE
  5
A7
  8
1
 62
     7
 10
26.1999999999999
 20
46.5
 30
0.0
 11
16.800000000000001
 21
46.5
 31
0.0
  0
LINE
  5
A8
  8
1
 62
     7
 10
16.800000000000001
 20
38.5
 30
0.0
 11
26.1999999999999
 21
38.5
 31
0.0
  0
LINE
  5
A9
  8
1
 62
     7
 10
20.59999999999998
 20
46.5
 30
0.0
 11
20.59999999999998
 21
48.5
 31
0.0
  0
LINE
  5
AA
  8
1
 62
     7
 10
17.300000000000001
 20
38.5
 30
0.0
 11
17.299999999999969
 21
11.0
 31
0.0
  0
LINE
  5
AB
  8
1
 62
     7
 10
29.99999999999989
 20
9.0
 30
0.0
 11
13.99999999999989
 21
9.0
 31
0.0
  0
LINE
  5
AC
  8
1
 62
     7
 10
29.99999999999989
 20
7.0
 30
0.0
 11
13.99999999999989
 21
7.0
 31
0.0
  0
LINE
  5
AD
  8
1
 62
     3
 10
147.11315632369789
 20
0.0
 30
0.0
 11
140.5677552485385
 21
0.0
 31
0.0
  0
LINE
  5
AE
  8
1
 62
     3
 10
143.8404557861183
 20
3.2727005375797078
 30
0.0
 11
143.8404557861183
 21
-3.2727005375796812
 31
0.0
  0
LINE
  5
AF
  8
1
  6
DASHDOT
 62
     3
 10
176.09990207708839
 20
18.625
 30
0.0
 11
185.19316881682511
 21
23.874999999999901
 31
0.0
  0
LINE
  5
B0
  8
1
  6
DASHDOT
 62
     3
 10
111.5810094951479
 20
18.625
 30
0.0
 11
102.4877427554113
 21
23.875
 31
0.0
  0
LINE
  5
B1
  8
1
  6
DASHDOT
 62
     3
 10
143.8404557861183
 20
-37.25
 30
0.0
 11
143.8404557861183
 21
-47.749999999999993
 31
0.0
  0
LINE
  5
B2
  8
1
 62
     3
 10
-59.445334351225831
 20
0.0
 30
0.0
 11
-54.445334351225831
 21
0.0
 31
0.0
  0
LINE
  5
B3
  8
1
 62
     7
 10
-58.645334351225699
 20
46.749999999999993
 30
0.0
 11
-59.945334351225711
 21
46.749999999999993
 31
0.0
  0
LINE
  5
B4
  8
1
 62
     7
 10
-58.645334351225699
 20
38.25
 30
0.0
 11
-58.645334351225699
 21
46.749999999999993
 31
0.0
  0
LINE
  5
B5
  8
1
 62
     7
 10
-59.945334351225711
 20
38.25
 30
0.0
 11
-58.645334351225699
 21
38.25
 31
0.0
  0
LINE
  5
B6
  8
1
 62
     7
 10
-58.645334351225699
 20
43.800000000000011
 30
0.0
 11
-59.945334351225711
 21
42.5
 31
0.0
  0
LINE
  5
B7
  8
1
 62
     7
 10
-58.645334351225699
 20
42.5
 30
0.0
 11
-59.945334351225711
 21
41.200000000000017
 31
0.0
  0
LINE
  5
B8
  8
1
 62
     7
 10
-58.345334351225709
 20
47.0
 30
0.0
 11
-57.357842173506612
 21
47.0
 31
0.0
  0
LINE
  5
B9
  8
1
 62
     7
 10
-57.357842173506612
 20
38.0
 30
0.0
 11
-58.345334351225709
 21
38.0
 31
0.0
  0
LINE
  5
BA
  8
1
 62
     7
 10
-89.445334351225696
 20
48.5
 30
0.0
 11
-89.445334351225696
 21
-48.499999999999993
 31
0.0
  0
LINE
  5
BB
  8
1
 62
     3
 10
-94.445334351225725
 20
0.0
 30
0.0
 11
-89.445334351225696
 21
0.0
 31
0.0
  0
LINE
  5
BC
  8
1
 62
     7
 10
-72.645334351225699
 20
-48.499999999999993
 30
0.0
 11
-72.645334351225699
 21
48.5
 31
0.0
  0
LINE
  5
BD
  8
1
 62
     7
 10
-81.945334351225696
 20
-48.499999999999993
 30
0.0
 11
-81.945334351225696
 21
-68.499999999999986
 31
0.0
  0
LINE
  5
BE
  8
1
 62
     7
 10
-79.945334351225696
 20
-68.499999999999986
 30
0.0
 11
-81.945334351225696
 21
-68.499999999999986
 31
0.0
  0
LINE
  5
BF
  8
1
 62
     7
 10
-79.945334351225696
 20
-68.499999999999986
 30
0.0
 11
-79.945334351225696
 21
-48.499999999999993
 31
0.0
  0
LINE
  5
C0
  8
1
 62
     7
 10
-81.345334351225716
 20
-68.500000000000014
 30
0.0
 11
-81.345334351225716
 21
-73.499999999999972
 31
0.0
  0
LINE
  5
C1
  8
1
 62
     7
 10
-81.145334351225699
 20
-73.499999999999972
 30
0.0
 11
-81.145334351225699
 21
-68.500000000000014
 31
0.0
  0
LINE
  5
C2
  8
1
 62
     7
 10
-80.945334351225696
 20
-68.500000000000014
 30
0.0
 11
-80.945334351225696
 21
-73.499999999999972
 31
0.0
  0
LINE
  5
C3
  8
1
 62
     7
 10
-80.745334351225694
 20
-73.499999999999972
 30
0.0
 11
-80.745334351225694
 21
-68.500000000000014
 31
0.0
  0
LINE
  5
C4
  8
1
 62
     7
 10
-80.545334351225705
 20
-68.499999999999986
 30
0.0
 11
-80.545334351225705
 21
-73.499999999999972
 31
0.0
  0
LINE
  5
C5
  8
1
 62
     7
 10
-89.445334351225696
 20
48.5
 30
0.0
 11
-72.645334351225699
 21
48.5
 31
0.0
  0
LINE
  5
C6
  8
1
 62
     7
 10
-72.645334351225699
 20
-48.499999999999993
 30
0.0
 11
-89.445334351225696
 21
-48.499999999999993
 31
0.0
  0
LINE
  5
C7
  8
1
 62
     7
 10
-72.145334351225699
 20
48.5
 30
0.0
 11
-72.145334351225699
 21
-48.499999999999993
 31
0.0
  0
LINE
  5
C8
  8
1
 62
     7
 10
-68.845334351225716
 20
48.5
 30
0.0
 11
-72.145334351225699
 21
48.5
 31
0.0
  0
LINE
  5
C9
  8
1
 62
     7
 10
-72.145334351225699
 20
-48.499999999999993
 30
0.0
 11
-68.845334351225716
 21
-48.499999999999993
 31
0.0
  0
LINE
  5
CA
  8
1
 62
     7
 10
-68.845334351225716
 20
48.5
 30
0.0
 11
-68.845334351225716
 21
-48.499999999999993
 31
0.0
  0
LINE
  5
CB
  8
1
 62
     7
 10
-63.245334351225821
 20
-48.499999999999993
 30
0.0
 11
-59.945334351225711
 21
-48.499999999999993
 31
0.0
  0
LINE
  5
CC
  8
1
 62
     7
 10
-59.945334351225711
 20
48.5
 30
0.0
 11
-63.245334351225821
 21
48.5
 31
0.0
  0
LINE
  5
CD
  8
1
 62
     7
 10
-59.945334351225711
 20
-48.499999999999993
 30
0.0
 11
-59.945334351225711
 21
48.5
 31
0.0
  0
LINE
  5
CE
  8
1
 62
     7
 10
-64.545334351225819
 20
-36.0
 30
0.0
 11
-64.545334351225819
 21
36.0
 31
0.0
  0
LINE
  5
CF
  8
1
 62
     7
 10
-67.445334351225711
 20
36.0
 30
0.0
 11
-67.445334351225711
 21
-36.0
 31
0.0
  0
LINE
  5
D0
  8
1
 62
     7
 10
-59.445334351225831
 20
-17.100000000000069
 30
0.0
 11
-59.445334351225831
 21
17.100000000000009
 31
0.0
  0
LINE
  5
D1
  8
1
 62
     7
 10
-59.445334351225831
 20
-17.100000000000069
 30
0.0
 11
-59.945334351225711
 21
-17.100000000000069
 31
0.0
  0
LINE
  5
D2
  8
1
 62
     7
 10
-63.245334351225821
 20
46.5
 30
0.0
 11
-68.845334351225716
 21
46.5
 31
0.0
  0
LINE
  5
D3
  8
1
 62
     7
 10
-72.645334351225699
 20
38.5
 30
0.0
 11
-72.145334351225699
 21
38.5
 31
0.0
  0
LINE
  5
D4
  8
1
 62
     7
 10
-72.145334351225699
 20
46.5
 30
0.0
 11
-72.645334351225699
 21
46.5
 31
0.0
  0
LINE
  5
D5
  8
1
 62
     7
 10
-68.845334351225716
 20
38.5
 30
0.0
 11
-63.245334351225821
 21
38.5
 31
0.0
  0
LINE
  5
D6
  8
1
 62
     7
 10
-63.245334351225821
 20
36.0
 30
0.0
 11
-68.845334351225716
 21
36.0
 31
0.0
  0
LINE
  5
D7
  8
1
 62
     7
 10
-59.945334351225711
 20
17.100000000000009
 30
0.0
 11
-59.445334351225831
 21
17.100000000000009
 31
0.0
  0
LINE
  5
D8
  8
1
 62
     7
 10
-63.245334351225821
 20
-48.499999999999993
 30
0.0
 11
-63.245334351225821
 21
48.5
 31
0.0
  0
LINE
  5
D9
  8
1
 62
     7
 10
-68.845334351225716
 20
-36.0
 30
0.0
 11
-63.245334351225821
 21
-36.0
 31
0.0
  0
ARC
  5
DA
  8
1
 62
     7
 10
31.100000000000001
 20
46.70000000000001
 30
0.0
 40
0.299999999999983
 50
90.0
 51
180.0
  0
ARC
  5
DB
  8
1
 62
     7
 10
31.100000000000001
 20
38.300000000000011
 30
0.0
 40
0.2999999999999901
 50
180.0
 51
270.0
  0
ARC
  5
DC
  8
1
 62
     7
 10
32.087492177719092
 20
45.400000000000013
 30
0.0
 40
1.599999999999987
 50
16.191351638619022
 51
90.0
  0
ARC
  5
DD
  8
1
 62
     7
 10
32.087492177719092
 20
39.600000000000023
 30
0.0
 40
1.600000000000023
 50
270.0
 51
343.80864836138028
  0
ARC
  5
DE
  8
1
 62
     7
 10
-58.345334351225709
 20
46.70000000000001
 30
0.0
 40
0.299999999999983
 50
90.0
 51
180.0
  0
ARC
  5
DF
  8
1
 62
     7
 10
-58.345334351225709
 20
38.300000000000011
 30
0.0
 40
0.2999999999999901
 50
180.0
 51
270.0
  0
ARC
  5
E0
  8
1
 62
     7
 10
-57.357842173506612
 20
45.400000000000013
 30
0.0
 40
1.5999999999999801
 50
16.191351638619089
 51
90.0
  0
ARC
  5
E1
  8
1
 62
     7
 10
-57.357842173506612
 20
39.600000000000023
 30
0.0
 40
1.600000000000023
 50
270.0
 51
343.80864836138028
  0
ARC
  5
E2
  8
1
 62
     7
 10
22.100000000000001
 20
42.5
 30
0.0
 40
11.999999999999989
 50
343.80864836138301
 51
16.191351638617061
  0
ARC
  5
E3
  8
1
 62
     7
 10
180.64653544695679
 20
21.25
 30
0.0
 40
5.5000000000000044
 50
119.9999999999999
 51
300.00000000000011
  0
ARC
  5
E4
  8
1
 62
     7
 10
107.03437612527949
 20
21.25
 30
0.0
 40
5.5000000000000577
 50
240.00000000000031
 51
60.000000000000028
  0
ARC
  5
E5
  8
1
 62
     7
 10
143.8404557861183
 20
-42.499999999999993
 30
0.0
 40
5.5
 50
0.0
 51
180.0
  0
ARC
  5
E6
  8
1
 62
     7
 10
146.2404557861181
 20
44.900000000000013
 30
0.0
 40
2.0000000000000839
 50
180.0
 51
270.0
  0
ARC
  5
E7
  8
1
 62
     7
 10
146.2404557861181
 20
40.100000000000023
 30
0.0
 40
2.0
 50
90.0
 51
180.0
  0
ARC
  5
E8
  8
1
 62
     7
 10
141.44045578611809
 20
40.100000000000023
 30
0.0
 40
2.0
 50
0.0
 51
90.0
  0
ARC
  5
E9
  8
1
 62
     7
 10
141.44045578611809
 20
44.900000000000013
 30
0.0
 40
2.0
 50
270.0
 51
0.0
  0
ARC
  5
EA
  8
1
 62
     7
 10
106.1559151561968
 20
-24.52846096908269
 30
0.0
 40
2.0000000000000151
 50
29.999999999999719
 51
119.9999999999997
  0
ARC
  5
EB
  8
1
 62
     7
 10
110.31283709436219
 20
-22.128460969082681
 30
0.0
 40
2.0000000000000191
 50
119.9999999999997
 51
209.9999999999996
  0
ARC
  5
EC
  8
1
 62
     7
 10
107.9128370943622
 20
-17.971539030917391
 30
0.0
 40
2.0000000000000151
 50
209.9999999999996
 51
300.00000000000131
  0
ARC
  5
ED
  8
1
 62
     7
 10
103.75591515619691
 20
-20.371539030917369
 30
0.0
 40
2.0000000000000382
 50
299.99999999999932
 51
29.999999999999719
  0
ARC
  5
EE
  8
1
 62
     7
 10
183.92499641603939
 20
-20.371539030917369
 30
0.0
 40
2.0000000000000151
 50
150.00000000000031
 51
240.0000000000006
  0
ARC
  5
EF
  8
1
 62
     7
 10
179.76807447787411
 20
-17.971539030917391
 30
0.0
 40
1.999999999999875
 50
240.00000000000071
 51
330.00000000000011
  0
ARC
  5
F0
  8
1
 62
     7
 10
177.3680744778741
 20
-22.128460969082681
 30
0.0
 40
2.0000000000000151
 50
330.00000000000011
 51
59.999999999998217
  0
ARC
  5
F1
  8
1
 62
     7
 10
181.52499641603939
 20
-24.52846096908269
 30
0.0
 40
2.0000000000000191
 50
60.00000000000032
 51
150.00000000000031
  0
ARC
  5
F2
  8
1
 62
     7
 10
143.8404557861183
 20
0.0
 30
0.0
 40
7.0000000000000071
 50
110.92483242763829
 51
69.075167572361721
  0
ARC
  5
F3
  8
1
  6
DASHDOT
 62
     3
 10
143.8404557861183
 20
0.0
 30
0.0
 40
42.499999999999879
 50
22.906116667498981
 51
37.093883332501143
  0
ARC
  5
F4
  8
1
  6
DASHDOT
 62
     3
 10
143.8404557861183
 20
0.0
 30
0.0
 40
42.500000000000099
 50
142.90611666749899
 51
157.09388333250089
  0
ARC
  5
F5
  8
1
  6
DASHDOT
 62
     3
 10
143.8404557861183
 20
0.0
 30
0.0
 40
42.500000000000028
 50
262.90611666749879
 51
277.09388333250081
  0
ARC
  5
F6
  8
1
 62
     7
 10
-67.345334351225716
 20
42.5
 30
0.0
 40
12.0
 50
343.80864836138301
 51
16.191351638617061
  0
CIRCLE
  5
F7
  8
1
 62
     7
 10
143.8404557861183
 20
-42.499999999999993
 30
0.0
 40
2.75
  0
CIRCLE
  5
F8
  8
1
 62
     7
 10
180.64653544695679
 20
21.25
 30
0.0
 40
2.75
  0
CIRCLE
  5
F9
  8
1
 62
     7
 10
107.03437612527949
 20
21.25
 30
0.0
 40
2.75
  0
CIRCLE
  5
FA
  8
1
 62
     7
 10
143.8404557861183
 20
42.5
 30
0.0
 40
4.5
  0
CIRCLE
  5
FB
  8
1
 62
     7
 10
107.03437612527949
 20
-21.25
 30
0.0
 40
4.5
  0
CIRCLE
  5
FC
  8
1
 62
     7
 10
180.64653544695679
 20
-21.25
 30
0.0
 40
4.5
  0
CIRCLE
  5
FD
  8
1
 62
     7
 10
143.8404557861183
 20
0.0
 30
0.0
 40
17.099999999999991
  0
CIRCLE
  5
FE
  8
1
 62
     7
 10
143.8404557861183
 20
0.0
 30
0.0
 40
15.4499999999999
  0
CIRCLE
  5
FF
  8
1
 62
     7
 10
143.8404557861183
 20
0.0
 30
0.0
 40
21.0
  0
CIRCLE
  5
100
  8
1
 62
     7
 10
143.8404557861183
 20
0.0
 30
0.0
 40
48.5
  0
TEXT
  5
102
  8
1
 62
     7
 10
-84.073563055913439
 20
86.246301694744716
 30
0.0
 40
4.0
  1
RNB 0.8
 41
0.9
  7
SIMPLEX
  0
ENDSEC
  0
EOF
