  0
SECTION
  2
HEADER
  9
$ACADVER
  1
AC1009
  9
$INSBASE
 10
0.0
 20
0.0
 30
0.0
  9
$EXTMIN
 10
-142.16151111168301
 20
-122.83718642713021
 30
0.0
  9
$EXTMAX
 10
337.67262865013942
 20
120.7154610027017
 30
0.0
  9
$LIMMIN
 10
-142.16151111168301
 20
-122.83718642713021
  9
$LIMMAX
 10
337.67262865013947
 20
120.7154610027016
  9
$ORTHOMODE
 70
     0
  9
$REGENMODE
 70
     1
  9
$FILLMODE
 70
     1
  9
$QTEXTMODE
 70
     0
  9
$MIRRTEXT
 70
     1
  9
$DRAGMODE
 70
     2
  9
$LTSCALE
 40
1.0
  9
$OSMODE
 70
    37
  9
$ATTMODE
 70
     1
  9
$TEXTSIZE
 40
3.5
  9
$TRACEWID
 40
0.5
  9
$TEXTSTYLE
  7
STANDARD
  9
$CLAYER
  8
0
  9
$CELTYPE
  6
BYLAYER
  9
$CECOLOR
 62
   256
  9
$DIMSCALE
 40
1.0
  9
$DIMASZ
 40
0.18
  9
$DIMEXO
 40
0.0625
  9
$DIMDLI
 40
0.38
  9
$DIMRND
 40
0.0
  9
$DIMDLE
 40
0.0
  9
$DIMEXE
 40
0.18
  9
$DIMTP
 40
0.0
  9
$DIMTM
 40
0.0
  9
$DIMTXT
 40
0.18
  9
$DIMCEN
 40
0.09
  9
$DIMTSZ
 40
0.0
  9
$DIMTOL
 70
     0
  9
$DIMLIM
 70
     0
  9
$DIMTIH
 70
     1
  9
$DIMTOH
 70
     1
  9
$DIMSE1
 70
     0
  9
$DIMSE2
 70
     0
  9
$DIMTAD
 70
     0
  9
$DIMZIN
 70
     0
  9
$DIMBLK
  1

  9
$DIMASO
 70
     1
  9
$DIMSHO
 70
     1
  9
$DIMPOST
  1

  9
$DIMAPOST
  1

  9
$DIMALT
 70
     0
  9
$DIMALTD
 70
     2
  9
$DIMALTF
 40
25.399999999999999
  9
$DIMLFAC
 40
1.0
  9
$DIMTOFL
 70
     0
  9
$DIMTVP
 40
0.0
  9
$DIMTIX
 70
     0
  9
$DIMSOXD
 70
     0
  9
$DIMSAH
 70
     0
  9
$DIMBLK1
  1

  9
$DIMBLK2
  1

  9
$DIMSTYLE
  2
STANDARD
  9
$DIMCLRD
 70
     0
  9
$DIMCLRE
 70
     0
  9
$DIMCLRT
 70
     0
  9
$DIMTFAC
 40
1.0
  9
$DIMGAP
 40
0.09
  9
$LUNITS
 70
     2
  9
$LUPREC
 70
     4
  9
$SKETCHINC
 40
0.1
  9
$FILLETRAD
 40
2.0
  9
$AUNITS
 70
     0
  9
$AUPREC
 70
     0
  9
$MENU
  1
ACAD
  9
$ELEVATION
 40
0.0
  9
$PELEVATION
 40
0.0
  9
$THICKNESS
 40
0.0
  9
$LIMCHECK
 70
     0
  9
$BLIPMODE
 70
     0
  9
$CHAMFERA
 40
0.0
  9
$CHAMFERB
 40
0.0
  9
$SKPOLY
 70
     0
  9
$TDCREATE
 40
2452094.9792045141
  9
$TDUPDATE
 40
2452094.9797849529
  9
$TDINDWG
 40
0.00059375
  9
$TDUSRTIMER
 40
0.00059375
  9
$USRTIMER
 70
     1
  9
$ANGBASE
 50
0.0
  9
$ANGDIR
 70
     0
  9
$PDMODE
 70
     0
  9
$PDSIZE
 40
0.0
  9
$PLINEWID
 40
0.0
  9
$COORDS
 70
     1
  9
$SPLFRAME
 70
     0
  9
$SPLINETYPE
 70
     6
  9
$SPLINESEGS
 70
     8
  9
$ATTDIA
 70
     0
  9
$ATTREQ
 70
     1
  9
$HANDLING
 70
 10241
  9
$HANDSEED
  5
100
  9
$SURFTAB1
 70
     6
  9
$SURFTAB2
 70
     6
  9
$SURFTYPE
 70
     6
  9
$SURFU
 70
     6
  9
$SURFV
 70
     6
  9
$UCSNAME
  2

  9
$UCSORG
 10
0.0
 20
0.0
 30
0.0
  9
$UCSXDIR
 10
1.0
 20
0.0
 30
0.0
  9
$UCSYDIR
 10
0.0
 20
1.0
 30
0.0
  9
$PUCSNAME
  2

  9
$PUCSORG
 10
0.0
 20
0.0
 30
0.0
  9
$PUCSXDIR
 10
1.0
 20
0.0
 30
0.0
  9
$PUCSYDIR
 10
0.0
 20
1.0
 30
0.0
  9
$USERI1
 70
     0
  9
$USERI2
 70
     0
  9
$USERI3
 70
     0
  9
$USERI4
 70
     0
  9
$USERI5
 70
     0
  9
$USERR1
 40
0.0
  9
$USERR2
 40
0.0
  9
$USERR3
 40
0.0
  9
$USERR4
 40
0.0
  9
$USERR5
 40
0.0
  9
$WORLDVIEW
 70
     1
  9
$SHADEDGE
 70
     3
  9
$SHADEDIF
 70
    70
  9
$TILEMODE
 70
     1
  9
$MAXACTVP
 70
    64
  9
$PLIMCHECK
 70
     0
  9
$PEXTMIN
 10
1.0000000000000000E+020
 20
1.0000000000000000E+020
 30
1.0000000000000000E+020
  9
$PEXTMAX
 10
-1.0000000000000000E+020
 20
-1.0000000000000000E+020
 30
-1.0000000000000000E+020
  9
$PLIMMIN
 10
0.0
 20
0.0
  9
$PLIMMAX
 10
12.0
 20
9.0
  9
$UNITMODE
 70
     0
  9
$VISRETAIN
 70
     1
  9
$PLINEGEN
 70
     0
  9
$PSLTSCALE
 70
     1
  0
ENDSEC
  0
SECTION
  2
TABLES
  0
TABLE
  2
VPORT
 70
     2
  0
VPORT
  2
*ACTIVE
 70
     0
 10
0.0
 20
0.0
 11
1.0
 21
1.0
 12
-84.962469375443362
 22
108.4023600786071
 13
0.0
 23
0.0
 14
1.0
 24
1.0
 15
0.0
 25
0.0
 16
0.0
 26
0.0
 36
1.0
 17
0.0
 27
0.0
 37
0.0
 40
9.0000000538177574
 41
2.4144144144144142
 42
50.0
 43
0.0
 44
0.0
 50
0.0
 51
0.0
 71
     0
 72
   100
 73
     1
 74
     1
 75
     0
 76
     0
 77
     0
 78
     0
  0
ENDTAB
  0
TABLE
  2
LTYPE
 70
     9
  0
LTYPE
  2
CONTINUOUS
 70
     0
  3
Solid line
 72
    65
 73
     0
 40
0.0
  0
LTYPE
  2
BORDER
 70
     0
  3
__ __ . __ __ .
 72
    65
 73
     6
 40
22.097624857452349
 49
6.3136071021292421
 49
-3.1568035510646211
 49
6.3136071021292421
 49
-3.1568035510646211
 49
0.0
 49
-3.1568035510646211
  0
LTYPE
  2
CENTER
 70
     0
  3
____ _ ____ _
 72
    65
 73
     4
 40
25.254428408516969
 49
15.7840177553231
 49
-3.1568035510646211
 49
3.1568035510646211
 49
-3.1568035510646211
  0
LTYPE
  2
DASHDOT
 70
     0
  3
__ . __ . __ .
 72
    65
 73
     4
 40
12.62721420425849
 49
6.3136071021292421
 49
-3.1568035510646211
 49
0.0
 49
-3.1568035510646211
  0
LTYPE
  2
DASHED
 70
     0
  3
__ __ __ __ __
 72
    65
 73
     2
 40
9.4704106531938628
 49
6.3136071021292421
 49
-3.1568035510646211
  0
LTYPE
  2
DIVIDE
 70
     0
  3
__ . . __ . . 
 72
    65
 73
     6
 40
15.7840177553231
 49
6.3136071021292421
 49
-3.1568035510646211
 49
0.0
 49
-3.1568035510646211
 49
0.0
 49
-3.1568035510646211
  0
LTYPE
  2
DOT
 70
     0
  3
..............
 72
    65
 73
     4
 40
6.3136071021292421
 49
0.0
 49
-3.1568035510646211
 49
0.0
 49
-3.1568035510646211
  0
LTYPE
  2
HIDDEN
 70
     0
  3
_ _ _ _ _ _ _
 72
    65
 73
     2
 40
4.7352053265969314
 49
3.1568035510646211
 49
-1.5784017755323101
  0
LTYPE
  2
PHANTOM
 70
     0
  3
_____ _ _ _____ _ _ 
 72
    65
 73
     6
 40
31.568035510646212
 49
15.7840177553231
 49
-3.1568035510646211
 49
3.1568035510646211
 49
-3.1568035510646211
 49
3.1568035510646211
 49
-3.1568035510646211
  0
ENDTAB
  0
TABLE
  2
LAYER
 70
     2
  0
LAYER
  2
0
 70
     0
 62
     7
  6
CONTINUOUS
  0
LAYER
  2
1
 70
     0
 62
     7
  6
CONTINUOUS
  0
ENDTAB
  0
TABLE
  2
STYLE
 70
     4
  0
STYLE
  2
STANDARD
 70
     0
 40
0.0
 41
1.0
 50
0.0
 71
     0
 42
3.5
  3
txt
  4

  0
STYLE
  2
SIMPLEX
 70
     0
 40
0.0
 41
1.0
 50
0.0
 71
     0
 42
3.5
  3
simplex
  4

  0
STYLE
  2
COMPLEX
 70
     0
 40
0.0
 41
1.0
 50
0.0
 71
     0
 42
3.5
  3
complex
  4

  0
STYLE
  2
ITALIC
 70
     0
 40
0.0
 41
1.0
 50
0.0
 71
     0
 42
3.5
  3
italic
  4

  0
ENDTAB
  0
TABLE
  2
VIEW
 70
     0
  0
ENDTAB
  0
TABLE
  2
UCS
 70
     0
  0
ENDTAB
  0
TABLE
  2
APPID
 70
     1
  0
APPID
  2
ACAD
 70
     0
  0
ENDTAB
  0
TABLE
  2
DIMSTYLE
 70
     1
  0
DIMSTYLE
  2
STANDARD
 70
     0
  3

  4

  5

  6

  7

 40
1.0
 41
0.18
 42
0.0625
 43
0.38
 44
0.18
 45
0.0
 46
0.0
 47
0.0
 48
0.0
140
0.18
141
0.09
142
0.0
143
25.399999999999999
144
1.0
145
0.0
146
1.0
147
0.09
 71
     0
 72
     0
 73
     1
 74
     1
 75
     0
 76
     0
 77
     0
 78
     0
170
     0
171
     2
172
     0
173
     0
174
     0
175
     0
176
     0
177
     0
178
     0
  0
ENDTAB
  0
ENDSEC
  0
SECTION
  2
BLOCKS
  0
BLOCK
  8
0
  2
$MODEL_SPACE
 70
     0
 10
0.0
 20
0.0
 30
0.0
  3
$MODEL_SPACE
  1

  0
ENDBLK
  5
20
  8
0
  0
BLOCK
 67
     1
  8
0
  2
$PAPER_SPACE
 70
     0
 10
0.0
 20
0.0
 30
0.0
  3
$PAPER_SPACE
  1

  0
ENDBLK
  5
1C
 67
     1
  8
0
  0
ENDSEC
  0
SECTION
  2
ENTITIES
  0
LINE
  5
33
  8
1
 62
     7
 10
-91.661511111683026
 20
-81.337186427130334
 30
0.0
 11
-91.661511111683026
 21
50.662813572869702
 31
0.0
  0
LINE
  5
34
  8
1
 62
     7
 10
-86.761511111683049
 20
-81.337186427130334
 30
0.0
 11
-86.761511111683049
 21
50.662813572869702
 31
0.0
  0
LINE
  5
35
  8
1
 62
     7
 10
-93.961511111682995
 20
-81.337186427130334
 30
0.0
 11
-84.461511111683009
 21
-81.337186427130248
 31
0.0
  0
LINE
  5
36
  8
1
 62
     7
 10
-93.961511111682995
 20
50.662813572869702
 30
0.0
 11
-84.461511111683009
 21
50.662813572869702
 31
0.0
  0
LINE
  5
37
  8
1
 62
     7
 10
-93.961511111682995
 20
66.662813572869695
 30
0.0
 11
-84.461511111683009
 21
66.662813572869695
 31
0.0
  0
LINE
  5
38
  8
1
 62
     7
 10
-93.961511111682995
 20
52.662813572869702
 30
0.0
 11
-84.461511111683009
 21
52.662813572869702
 31
0.0
  0
LINE
  5
39
  8
1
 62
     7
 10
-137.16151111168301
 20
-97.837186427130263
 30
0.0
 11
-105.161511111683
 21
-97.837186427130263
 31
0.0
  0
LINE
  5
3A
  8
1
 62
     7
 10
-105.161511111683
 20
-97.837186427130263
 30
0.0
 11
-105.161511111683
 21
67.162813572869695
 31
0.0
  0
LINE
  5
3B
  8
1
 62
     7
 10
-105.161511111683
 20
67.162813572869695
 30
0.0
 11
-137.16151111168301
 21
67.162813572869695
 31
0.0
  0
LINE
  5
3C
  8
1
 62
     7
 10
-137.16151111168301
 20
67.162813572869695
 30
0.0
 11
-137.16151111168301
 21
-97.837186427130263
 31
0.0
  0
LINE
  5
3D
  8
1
 62
     7
 10
-105.161511111683
 20
66.662813572869695
 30
0.0
 11
-104.661511111683
 21
66.662813572869695
 31
0.0
  0
LINE
  5
3E
  8
1
 62
     7
 10
-105.161511111683
 20
52.662813572869702
 30
0.0
 11
-104.661511111683
 21
52.662813572869702
 31
0.0
  0
LINE
  5
3F
  8
1
 62
     7
 10
-76.161511111683012
 20
51.962813572869699
 30
0.0
 11
-74.161511111683012
 21
51.962813572869699
 31
0.0
  0
LINE
  5
40
  8
1
 62
     7
 10
-74.161511111683012
 20
51.962813572869699
 30
0.0
 11
-74.161511111683012
 21
67.362813572869683
 31
0.0
  0
LINE
  5
41
  8
1
 62
     7
 10
-74.161511111683012
 20
67.362813572869683
 30
0.0
 11
-76.161511111683012
 21
67.362813572869683
 31
0.0
  0
LINE
  5
42
  8
1
 62
     7
 10
-76.161511111683012
 20
59.662813572869702
 30
0.0
 11
-74.161511111683012
 21
61.662813572869702
 31
0.0
  0
LINE
  5
43
  8
1
 62
     7
 10
-76.161511111683012
 20
57.662813572869702
 30
0.0
 11
-74.161511111683012
 21
59.662813572869702
 31
0.0
  0
LINE
  5
44
  8
1
 62
     7
 10
-84.461511111683009
 20
67.162813572869695
 30
0.0
 11
-76.161511111683012
 21
67.162813572869695
 31
0.0
  0
LINE
  5
45
  8
1
 62
     7
 10
-74.161511111683012
 20
53.162813572869702
 30
0.0
 11
-66.661511111683012
 21
53.162813572869702
 31
0.0
  0
LINE
  5
46
  8
1
 62
     7
 10
-66.661511111683012
 20
53.162813572869702
 30
0.0
 11
-66.161511111683012
 21
54.028838976654143
 31
0.0
  0
LINE
  5
47
  8
1
 62
     7
 10
-66.161511111683012
 20
54.028838976654143
 30
0.0
 11
-66.161511111683012
 21
65.296788169085261
 31
0.0
  0
LINE
  5
48
  8
1
 62
     7
 10
-66.161511111683012
 20
65.296788169085261
 30
0.0
 11
-66.661511111683012
 21
66.162813572869695
 31
0.0
  0
LINE
  5
49
  8
1
 62
     7
 10
-66.661511111683012
 20
66.162813572869695
 30
0.0
 11
-74.161511111683012
 21
66.162813572869695
 31
0.0
  0
LINE
  5
4A
  8
1
 62
     7
 10
-66.661511111683012
 20
66.162813572869695
 30
0.0
 11
-66.661511111683012
 21
53.162813572869702
 31
0.0
  0
LINE
  5
4B
  8
1
 62
     7
 10
-104.661511111683
 20
67.162813572869695
 30
0.0
 11
-93.961511111682995
 21
67.162813572869695
 31
0.0
  0
LINE
  5
4C
  8
1
 62
     7
 10
-84.461511111683009
 20
-97.837186427130263
 30
0.0
 11
-84.461511111683009
 21
67.162813572869695
 31
0.0
  0
LINE
  5
4D
  8
1
 62
     7
 10
-84.461511111683009
 20
-97.837186427130263
 30
0.0
 11
-76.161511111683012
 21
-97.837186427130263
 31
0.0
  0
LINE
  5
4E
  8
1
 62
     7
 10
-93.961511111682995
 20
-97.837186427130263
 30
0.0
 11
-104.661511111683
 21
-97.837186427130263
 31
0.0
  0
LINE
  5
4F
  8
1
 62
     7
 10
-93.961511111682995
 20
-97.837186427130263
 30
0.0
 11
-93.961511111682995
 21
67.162813572869695
 31
0.0
  0
LINE
  5
50
  8
1
 62
     7
 10
-104.661511111683
 20
67.162813572869695
 30
0.0
 11
-104.661511111683
 21
-97.837186427130263
 31
0.0
  0
LINE
  5
51
  8
1
 62
     7
 10
-76.161511111683012
 20
-97.837186427130263
 30
0.0
 11
-76.161511111683012
 21
67.362813572869683
 31
0.0
  0
LINE
  5
52
  8
1
 62
     7
 10
-119.76151111168301
 20
-122.83718642713021
 30
0.0
 11
-119.76151111168301
 21
-117.83718642713031
 31
0.0
  0
LINE
  5
53
  8
1
 62
     7
 10
-119.961511111683
 20
-117.83718642713031
 30
0.0
 11
-119.961511111683
 21
-122.83718642713021
 31
0.0
  0
LINE
  5
54
  8
1
 62
     7
 10
-120.161511111683
 20
-122.83718642713021
 30
0.0
 11
-120.161511111683
 21
-117.83718642713021
 31
0.0
  0
LINE
  5
55
  8
1
 62
     7
 10
-120.361511111683
 20
-117.83718642713031
 30
0.0
 11
-120.361511111683
 21
-122.83718642713021
 31
0.0
  0
LINE
  5
56
  8
1
 62
     7
 10
-120.561511111683
 20
-122.83718642713021
 30
0.0
 11
-120.561511111683
 21
-117.83718642713031
 31
0.0
  0
LINE
  5
57
  8
1
 62
     7
 10
-121.161511111683
 20
-117.83718642713021
 30
0.0
 11
-119.161511111683
 21
-117.83718642713021
 31
0.0
  0
LINE
  5
58
  8
1
 62
     7
 10
-119.161511111683
 20
-117.83718642713021
 30
0.0
 11
-119.161511111683
 21
-97.837186427130263
 31
0.0
  0
LINE
  5
59
  8
1
 62
     7
 10
-121.161511111683
 20
-97.837186427130263
 30
0.0
 11
-121.161511111683
 21
-117.83718642713021
 31
0.0
  0
LINE
  5
5A
  8
1
  6
DASHDOT
 62
     3
 10
255.17262865013939
 20
-82.837186427130348
 30
0.0
 11
255.17262865013939
 21
-97.837186427130362
 31
0.0
  0
LINE
  5
5B
  8
1
  6
DASHDOT
 62
     3
 10
196.71591389468989
 20
18.412813572869691
 30
0.0
 11
183.72553283792331
 21
25.912813572869752
 31
0.0
  0
LINE
  5
5C
  8
1
 62
     7
 10
66.871806964500593
 20
50.662813572869702
 30
0.0
 11
66.871806964500593
 21
67.162813572869695
 31
0.0
  0
LINE
  5
5D
  8
1
 62
     7
 10
66.171806964500576
 20
14.36281357286971
 30
0.0
 11
66.171806964500576
 21
-45.037186427130301
 31
0.0
  0
LINE
  5
5E
  8
1
 62
     7
 10
57.371806964500593
 20
-45.037186427130301
 30
0.0
 11
57.371806964500593
 21
-65.337186427130291
 31
0.0
  0
LINE
  5
5F
  8
1
 62
     7
 10
14.17180696450057
 20
-97.837186427130263
 30
0.0
 11
46.171806964500583
 21
-97.837186427130263
 31
0.0
  0
LINE
  5
60
  8
1
 62
     7
 10
46.171806964500583
 20
-97.837186427130263
 30
0.0
 11
46.171806964500583
 21
-37.837186427130291
 31
0.0
  0
LINE
  5
61
  8
1
 62
     7
 10
46.171806964500583
 20
67.162813572869695
 30
0.0
 11
14.17180696450057
 21
67.162813572869695
 31
0.0
  0
LINE
  5
62
  8
1
 62
     7
 10
14.17180696450057
 20
67.162813572869695
 30
0.0
 11
14.17180696450057
 21
-97.837186427130263
 31
0.0
  0
LINE
  5
63
  8
1
 62
     7
 10
14.17180696450048
 20
15.662813572869689
 30
0.0
 11
46.171806964500583
 21
15.662813572869689
 31
0.0
  0
LINE
  5
64
  8
1
 62
     7
 10
14.17180696450048
 20
-46.337186427130298
 30
0.0
 11
46.171806964500583
 21
-46.337186427130298
 31
0.0
  0
LINE
  5
65
  8
1
 62
     7
 10
14.17180696450057
 20
-85.837186427130248
 30
0.0
 11
46.171806964500583
 21
-85.837186427130248
 31
0.0
  0
LINE
  5
66
  8
1
 62
     7
 10
14.17180696450057
 20
-94.837186427130248
 30
0.0
 11
46.171806964500583
 21
-94.837186427130248
 31
0.0
  0
LINE
  5
67
  8
1
 62
     7
 10
46.171806964500583
 20
66.662813572869695
 30
0.0
 11
66.871806964500593
 21
66.662813572869695
 31
0.0
  0
LINE
  5
68
  8
1
 62
     7
 10
46.171806964500583
 20
52.662813572869702
 30
0.0
 11
66.871806964500593
 21
52.662813572869702
 31
0.0
  0
LINE
  5
69
  8
1
 62
     7
 10
75.171806964500576
 20
51.962813572869699
 30
0.0
 11
77.171806964500576
 21
51.962813572869699
 31
0.0
  0
LINE
  5
6A
  8
1
 62
     7
 10
77.171806964500576
 20
51.962813572869699
 30
0.0
 11
77.171806964500576
 21
67.362813572869683
 31
0.0
  0
LINE
  5
6B
  8
1
 62
     7
 10
77.171806964500576
 20
67.362813572869683
 30
0.0
 11
75.171806964500576
 21
67.362813572869683
 31
0.0
  0
LINE
  5
6C
  8
1
 62
     7
 10
75.171806964500576
 20
59.662813572869702
 30
0.0
 11
77.171806964500576
 21
61.662813572869702
 31
0.0
  0
LINE
  5
6D
  8
1
 62
     7
 10
75.171806964500576
 20
57.662813572869702
 30
0.0
 11
77.171806964500576
 21
59.662813572869702
 31
0.0
  0
LINE
  5
6E
  8
1
 62
     7
 10
66.871806964500593
 20
67.162813572869695
 30
0.0
 11
75.171806964500576
 21
67.162813572869695
 31
0.0
  0
LINE
  5
6F
  8
1
 62
     7
 10
77.171806964500576
 20
53.162813572869702
 30
0.0
 11
84.671806964500576
 21
53.162813572869702
 31
0.0
  0
LINE
  5
70
  8
1
 62
     7
 10
84.671806964500576
 20
53.162813572869702
 30
0.0
 11
85.171806964500576
 21
54.028838976654143
 31
0.0
  0
LINE
  5
71
  8
1
 62
     7
 10
85.171806964500576
 20
54.028838976654143
 30
0.0
 11
85.171806964500576
 21
65.296788169085261
 31
0.0
  0
LINE
  5
72
  8
1
 62
     7
 10
85.171806964500576
 20
65.296788169085261
 30
0.0
 11
84.671806964500576
 21
66.162813572869695
 31
0.0
  0
LINE
  5
73
  8
1
 62
     7
 10
84.671806964500576
 20
66.162813572869695
 30
0.0
 11
77.171806964500576
 21
66.162813572869695
 31
0.0
  0
LINE
  5
74
  8
1
 62
     7
 10
84.671806964500576
 20
66.162813572869695
 30
0.0
 11
84.671806964500576
 21
53.162813572869702
 31
0.0
  0
LINE
  5
75
  8
1
 62
     7
 10
46.671806964500583
 20
66.662813572869695
 30
0.0
 11
46.671806964500583
 21
67.162813572869695
 31
0.0
  0
LINE
  5
76
  8
1
 62
     7
 10
46.671806964500583
 20
67.162813572869695
 30
0.0
 11
57.371806964500593
 21
67.162813572869695
 31
0.0
  0
LINE
  5
77
  8
1
 62
     7
 10
57.371806964500593
 20
67.162813572869695
 30
0.0
 11
57.371806964500593
 21
66.662813572869695
 31
0.0
  0
LINE
  5
78
  8
1
 62
     7
 10
64.571806964500709
 20
-81.337186427130334
 30
0.0
 11
64.571806964500709
 21
-41.737186427130311
 31
0.0
  0
LINE
  5
79
  8
1
 62
     7
 10
59.671806964500583
 20
50.662813572869702
 30
0.0
 11
59.671806964500583
 21
11.06281357286969
 31
0.0
  0
LINE
  5
7A
  8
1
 62
     7
 10
46.671806964500583
 20
-81.337186427130334
 30
0.0
 11
75.171806964500576
 21
-81.337186427130248
 31
0.0
  0
LINE
  5
7B
  8
1
 62
     7
 10
66.871806964500593
 20
-81.337186427130334
 30
0.0
 11
66.871806964500593
 21
-97.837186427130263
 31
0.0
  0
LINE
  5
7C
  8
1
 62
     7
 10
66.871806964500593
 20
-97.837186427130263
 30
0.0
 11
75.171806964500576
 21
-97.837186427130263
 31
0.0
  0
LINE
  5
7D
  8
1
 62
     7
 10
57.371806964500593
 20
-97.837186427130263
 30
0.0
 11
46.671806964500583
 21
-97.837186427130263
 31
0.0
  0
LINE
  5
7E
  8
1
 62
     7
 10
57.371806964500593
 20
-97.837186427130263
 30
0.0
 11
57.371806964500593
 21
-81.337186427130248
 31
0.0
  0
LINE
  5
7F
  8
1
 62
     7
 10
56.871806964500593
 20
-81.337186427130334
 30
0.0
 11
56.871806964500593
 21
-65.337186427130291
 31
0.0
  0
LINE
  5
80
  8
1
 62
     7
 10
56.871806964500593
 20
-65.337186427130291
 30
0.0
 11
59.671806964500583
 21
-65.337186427130291
 31
0.0
  0
LINE
  5
81
  8
1
 62
     7
 10
64.571806964500709
 20
-65.337186427130305
 30
0.0
 11
67.371806964500593
 21
-65.337186427130291
 31
0.0
  0
LINE
  5
82
  8
1
 62
     7
 10
67.371806964500593
 20
-65.337186427130291
 30
0.0
 11
67.371806964500593
 21
-81.337186427130248
 31
0.0
  0
LINE
  5
83
  8
1
 62
     7
 10
56.871806964500593
 20
50.662813572869702
 30
0.0
 11
67.371806964500593
 21
50.662813572869702
 31
0.0
  0
LINE
  5
84
  8
1
 62
     7
 10
67.371806964500593
 20
50.662813572869702
 30
0.0
 11
67.371806964500593
 21
34.662813572869702
 31
0.0
  0
LINE
  5
85
  8
1
 62
     7
 10
67.371806964500593
 20
34.662813572869702
 30
0.0
 11
64.571806964500709
 21
34.662813572869702
 31
0.0
  0
LINE
  5
86
  8
1
 62
     7
 10
59.671806964500583
 20
34.662813572869702
 30
0.0
 11
56.871806964500593
 21
34.662813572869702
 31
0.0
  0
LINE
  5
87
  8
1
 62
     7
 10
56.871806964500593
 20
34.662813572869702
 30
0.0
 11
56.871806964500593
 21
50.662813572869702
 31
0.0
  0
LINE
  5
88
  8
1
 62
     7
 10
57.371806964500593
 20
52.662813572869702
 30
0.0
 11
57.371806964500593
 21
50.662813572869702
 31
0.0
  0
LINE
  5
89
  8
1
 62
     7
 10
46.671806964500583
 20
51.562813572869707
 30
0.0
 11
57.371806964500593
 21
51.562813572869707
 31
0.0
  0
LINE
  5
8A
  8
1
 62
     7
 10
46.671806964500583
 20
52.662813572869702
 30
0.0
 11
46.671806964500583
 21
7.1628135728696991
 31
0.0
  0
LINE
  5
8B
  8
1
 62
     7
 10
75.171806964500576
 20
-97.837186427130263
 30
0.0
 11
75.171806964500576
 21
67.362813572869683
 31
0.0
  0
LINE
  5
8C
  8
1
  6
DASHDOT
 62
     3
 10
9.1718069645005755
 20
-90.337186427130234
 30
0.0
 11
79.897980603765959
 21
-90.337186427130234
 31
0.0
  0
LINE
  5
8D
  8
1
 62
     7
 10
59.671806964500583
 20
11.662813572869689
 30
0.0
 11
64.571806964500709
 21
11.662813572869689
 31
0.0
  0
LINE
  5
8E
  8
1
 62
     7
 10
57.171806964500583
 20
11.06281357286969
 30
0.0
 11
66.171806964500576
 21
11.062813572869709
 31
0.0
  0
LINE
  5
8F
  8
1
 62
     7
 10
57.171806964500583
 20
14.36281357286969
 30
0.0
 11
66.171806964500576
 21
14.36281357286971
 31
0.0
  0
LINE
  5
90
  8
1
 62
     7
 10
57.171806964500583
 20
-45.037186427130301
 30
0.0
 11
66.171806964500576
 21
-45.037186427130301
 31
0.0
  0
LINE
  5
91
  8
1
 62
     7
 10
59.671806964500583
 20
-42.337186427130298
 30
0.0
 11
64.571806964500709
 21
-42.337186427130298
 31
0.0
  0
LINE
  5
92
  8
1
 62
     7
 10
57.171806964500583
 20
-41.737186427130311
 30
0.0
 11
66.171806964500576
 21
-41.737186427130311
 31
0.0
  0
LINE
  5
93
  8
1
 62
     7
 10
66.871806964500593
 20
-65.337186427130291
 30
0.0
 11
66.871806964500593
 21
34.662813572869702
 31
0.0
  0
LINE
  5
94
  8
1
 62
     7
 10
57.171806964500583
 20
14.36281357286969
 30
0.0
 11
57.171806964500583
 21
7.1628135728696991
 31
0.0
  0
LINE
  5
95
  8
1
 62
     7
 10
57.171806964500583
 20
7.1628135728696991
 30
0.0
 11
36.171806964500583
 21
7.1628135728696991
 31
0.0
  0
LINE
  5
96
  8
1
 62
     7
 10
36.171806964500583
 20
7.1628135728696991
 30
0.0
 11
36.171806964500583
 21
-37.837186427130291
 31
0.0
  0
LINE
  5
97
  8
1
 62
     7
 10
36.171806964500583
 20
-37.837186427130291
 30
0.0
 11
57.171806964500583
 21
-37.837186427130291
 31
0.0
  0
LINE
  5
98
  8
1
 62
     7
 10
57.171806964500583
 20
-37.837186427130291
 30
0.0
 11
57.171806964500583
 21
-45.037186427130301
 31
0.0
  0
LINE
  5
99
  8
1
 62
     7
 10
59.671806964500583
 20
-41.737186427130311
 30
0.0
 11
59.671806964500583
 21
-81.337186427130334
 31
0.0
  0
LINE
  5
9A
  8
1
 62
     7
 10
64.571806964500709
 20
50.662813572869702
 30
0.0
 11
64.571806964500709
 21
11.062813572869709
 31
0.0
  0
LINE
  5
9B
  8
1
 62
     7
 10
57.371806964500593
 20
34.662813572869702
 30
0.0
 11
57.371806964500593
 21
14.36281357286969
 31
0.0
  0
LINE
  5
9C
  8
1
 62
     7
 10
46.171806964500583
 20
7.1628135728696991
 30
0.0
 11
46.171806964500583
 21
67.162813572869695
 31
0.0
  0
LINE
  5
9D
  8
1
 62
     7
 10
46.671806964500583
 20
-37.837186427130291
 30
0.0
 11
46.671806964500583
 21
-97.837186427130263
 31
0.0
  0
LINE
  5
9E
  8
1
 62
     7
 10
36.171806964500583
 20
1.6628135728696991
 30
0.0
 11
66.171806964500576
 21
1.6628135728696991
 31
0.0
  0
LINE
  5
9F
  8
1
 62
     7
 10
36.171806964500583
 20
-29.337186427130298
 30
0.0
 11
66.171806964500576
 21
-29.337186427130298
 31
0.0
  0
LINE
  5
A0
  8
1
 62
     7
 10
66.871806964500593
 20
27.162813572869702
 30
0.0
 11
75.171806964500576
 21
27.162813572869702
 31
0.0
  0
LINE
  5
A1
  8
1
 62
     7
 10
66.871806964500593
 20
-57.837186427130291
 30
0.0
 11
75.171806964500576
 21
-57.837186427130291
 31
0.0
  0
LINE
  5
A2
  8
1
 62
     7
 10
46.671806964500583
 20
-46.337186427130298
 30
0.0
 11
57.371806964500593
 21
-46.337186427130298
 31
0.0
  0
LINE
  5
A3
  8
1
 62
     7
 10
46.671806964500583
 20
15.662813572869689
 30
0.0
 11
57.371806964500593
 21
15.662813572869689
 31
0.0
  0
LINE
  5
A4
  8
1
 62
     7
 10
255.17262865013939
 20
56.198711957731931
 30
0.0
 11
258.17262865013947
 21
57.93076276530082
 31
0.0
  0
LINE
  5
A5
  8
1
 62
     7
 10
258.17262865013947
 20
57.93076276530082
 30
0.0
 11
258.17262865013947
 21
61.394864380438563
 31
0.0
  0
LINE
  5
A6
  8
1
 62
     7
 10
258.17262865013947
 20
61.394864380438563
 30
0.0
 11
255.17262865013939
 21
63.126915188007473
 31
0.0
  0
LINE
  5
A7
  8
1
 62
     7
 10
255.17262865013939
 20
63.126915188007473
 30
0.0
 11
252.1726286501395
 21
61.394864380438563
 31
0.0
  0
LINE
  5
A8
  8
1
 62
     7
 10
252.1726286501395
 20
61.394864380438563
 30
0.0
 11
252.1726286501395
 21
57.930762765300827
 31
0.0
  0
LINE
  5
A9
  8
1
 62
     7
 10
252.1726286501395
 20
57.930762765300827
 30
0.0
 11
255.17262865013939
 21
56.198711957731931
 31
0.0
  0
LINE
  5
AA
  8
1
 62
     7
 10
264.17262865013947
 20
-97.34480802415024
 30
0.0
 11
264.17262865013947
 21
-90.337186427130234
 31
0.0
  0
LINE
  5
AB
  8
1
 62
     7
 10
246.1726286501395
 20
-90.337186427130234
 30
0.0
 11
246.1726286501395
 21
-97.34480802415014
 31
0.0
  0
LINE
  5
AC
  8
1
 62
     7
 10
193.22072336630649
 20
-54.569237234699138
 30
0.0
 11
193.22072336630649
 21
-51.105135619561388
 31
0.0
  0
LINE
  5
AD
  8
1
 62
     7
 10
190.2207233663066
 20
-56.30128804226802
 30
0.0
 11
193.22072336630649
 21
-54.569237234699138
 31
0.0
  0
LINE
  5
AE
  8
1
 62
     7
 10
187.2207233663066
 20
-54.569237234699138
 30
0.0
 11
190.2207233663066
 21
-56.30128804226802
 31
0.0
  0
LINE
  5
AF
  8
1
 62
     7
 10
187.2207233663066
 20
-51.105135619561388
 30
0.0
 11
187.2207233663066
 21
-54.569237234699138
 31
0.0
  0
LINE
  5
B0
  8
1
 62
     7
 10
190.2207233663066
 20
-49.373084811992513
 30
0.0
 11
187.2207233663066
 21
-51.105135619561388
 31
0.0
  0
LINE
  5
B1
  8
1
 62
     7
 10
193.22072336630649
 20
-51.105135619561388
 30
0.0
 11
190.2207233663066
 21
-49.373084811992513
 31
0.0
  0
LINE
  5
B2
  8
1
 62
     7
 10
320.12453393397232
 20
-49.373084811992591
 30
0.0
 11
317.12453393397232
 21
-51.105135619561459
 31
0.0
  0
LINE
  5
B3
  8
1
 62
     7
 10
323.12453393397232
 20
-51.105135619561459
 30
0.0
 11
320.12453393397232
 21
-49.373084811992591
 31
0.0
  0
LINE
  5
B4
  8
1
 62
     7
 10
323.12453393397232
 20
-54.569237234699223
 30
0.0
 11
323.12453393397232
 21
-51.105135619561459
 31
0.0
  0
LINE
  5
B5
  8
1
 62
     7
 10
320.12453393397232
 20
-56.301288042268098
 30
0.0
 11
323.12453393397232
 21
-54.569237234699223
 31
0.0
  0
LINE
  5
B6
  8
1
 62
     7
 10
317.12453393397232
 20
-54.569237234699223
 30
0.0
 11
320.12453393397232
 21
-56.301288042268098
 31
0.0
  0
LINE
  5
B7
  8
1
 62
     7
 10
317.12453393397232
 20
-51.105135619561459
 30
0.0
 11
317.12453393397232
 21
-54.569237234699223
 31
0.0
  0
LINE
  5
B8
  8
1
 62
     7
 10
324.62453393397232
 20
14.36858493880974
 30
0.0
 11
330.6933122571001
 21
17.872395737319671
 31
0.0
  0
LINE
  5
B9
  8
1
 62
     7
 10
321.6933122571001
 20
33.460853005439603
 30
0.0
 11
315.62453393397232
 21
29.957042206929639
 31
0.0
  0
LINE
  5
BA
  8
1
 62
     7
 10
194.7207233663066
 20
29.957042206929671
 30
0.0
 11
188.6519450431789
 21
33.46085300543961
 31
0.0
  0
LINE
  5
BB
  8
1
 62
     7
 10
179.65194504317881
 20
17.872395737319749
 30
0.0
 11
185.7207233663066
 21
14.36858493880978
 31
0.0
  0
LINE
  5
BC
  8
1
 62
     7
 10
258.67262865013947
 20
-1.7817447154043291
 30
0.0
 11
258.67262865013947
 21
1.6628135728696991
 31
0.0
  0
LINE
  5
BD
  8
1
 62
     7
 10
258.67262865013947
 20
1.6628135728696991
 30
0.0
 11
251.67262865013939
 21
1.6628135728696991
 31
0.0
  0
LINE
  5
BE
  8
1
 62
     7
 10
251.67262865013939
 20
1.6628135728696991
 30
0.0
 11
251.67262865013939
 21
-1.7817447154043391
 31
0.0
  0
LINE
  5
BF
  8
1
 62
     7
 10
283.05387692995259
 20
-113.9822369586162
 30
0.0
 11
283.8303340652601
 21
-116.8800144374834
 31
0.0
  0
LINE
  5
C0
  8
1
 62
     7
 10
283.63714890000227
 20
-116.9317782465039
 30
0.0
 11
282.86069176469459
 21
-114.0340007676367
 31
0.0
  0
LINE
  5
C1
  8
1
 62
     7
 10
282.6675065994371
 20
-114.0857645766572
 30
0.0
 11
283.4439637347445
 21
-116.9835420555245
 31
0.0
  0
LINE
  5
C2
  8
1
 62
     7
 10
283.25077856948661
 20
-117.0353058645449
 30
0.0
 11
282.4743214341791
 21
-114.1375283856777
 31
0.0
  0
LINE
  5
C3
  8
1
 62
     7
 10
282.28113626892127
 20
-114.1892921946982
 30
0.0
 11
283.05759340422878
 21
-117.08706967356549
 31
0.0
  0
LINE
  5
C4
  8
1
 62
     7
 10
281.8984824126818
 20
-117.39765252768851
 30
0.0
 11
281.13717861264371
 21
-114.5564280659506
 31
0.0
  0
LINE
  5
C5
  8
1
 62
     7
 10
280.92884011211652
 20
-114.55163885784189
 30
0.0
 11
281.70529724742408
 21
-117.44941633670901
 31
0.0
  0
LINE
  5
C6
  8
1
 62
     7
 10
281.51211208216631
 20
-117.50118014572951
 30
0.0
 11
280.7356549468588
 21
-114.60340266686219
 31
0.0
  0
LINE
  5
C7
  8
1
 62
     7
 10
280.54246978160091
 20
-114.65516647588289
 30
0.0
 11
281.31892691690842
 21
-117.55294395474991
 31
0.0
  0
LINE
  5
C8
  8
1
 62
     7
 10
281.12574175165071
 20
-117.60470776377041
 30
0.0
 11
280.3492846163432
 21
-114.70693028490319
 31
0.0
  0
LINE
  5
C9
  8
1
 62
     7
 10
279.76972912056971
 20
-114.86222171196469
 30
0.0
 11
283.63343242572603
 21
-113.8269455315547
 31
0.0
  0
LINE
  5
CA
  8
1
 62
     7
 10
281.7015807731479
 20
-114.3445836217599
 30
0.0
 11
276.52519987109741
 21
-95.026067095978433
 31
0.0
  0
LINE
  5
CB
  8
1
 62
     7
 10
274.5870728952961
 20
-95.520285361080838
 30
0.0
 11
279.76972912056971
 21
-114.86222171196469
 31
0.0
  0
LINE
  5
CC
  8
1
 62
     7
 10
283.63343242572603
 20
-113.8269455315547
 30
0.0
 11
278.45077620045242
 21
-94.485009180670744
 31
0.0
  0
LINE
  5
CD
  8
1
 62
     7
 10
31.571806964500691
 20
-122.83718642713021
 30
0.0
 11
31.571806964500691
 21
-117.83718642713031
 31
0.0
  0
LINE
  5
CE
  8
1
 62
     7
 10
31.371806964500589
 20
-117.83718642713031
 30
0.0
 11
31.371806964500589
 21
-122.83718642713021
 31
0.0
  0
LINE
  5
CF
  8
1
 62
     7
 10
31.17180696450049
 20
-122.83718642713021
 30
0.0
 11
31.171806964500568
 21
-117.83718642713021
 31
0.0
  0
LINE
  5
D0
  8
1
 62
     7
 10
30.97180696450059
 20
-117.83718642713031
 30
0.0
 11
30.97180696450059
 21
-122.83718642713021
 31
0.0
  0
LINE
  5
D1
  8
1
 62
     7
 10
30.771806964500598
 20
-122.83718642713021
 30
0.0
 11
30.771806964500598
 21
-117.83718642713031
 31
0.0
  0
LINE
  5
D2
  8
1
 62
     7
 10
30.171806964500579
 20
-117.83718642713021
 30
0.0
 11
32.171806964500583
 21
-117.83718642713021
 31
0.0
  0
LINE
  5
D3
  8
1
 62
     7
 10
32.171806964500583
 20
-117.83718642713021
 30
0.0
 11
32.171806964500583
 21
-97.837186427130263
 31
0.0
  0
LINE
  5
D4
  8
1
 62
     7
 10
30.171806964500579
 20
-97.837186427130263
 30
0.0
 11
30.171806964500579
 21
-117.83718642713021
 31
0.0
  0
LINE
  5
D5
  8
1
 62
     7
 10
66.171806964500576
 20
-1.3371864271303
 30
0.0
 11
36.171806964500583
 21
-1.3371864271303
 31
0.0
  0
LINE
  5
D6
  8
1
  6
DASHDOT
 62
     3
 10
313.62934340558911
 20
18.412813572869691
 30
0.0
 11
326.6197244623558
 21
25.912813572869691
 31
0.0
  0
LINE
  5
D7
  8
1
 62
     3
 10
261.34866452088551
 20
-15.3371864271303
 30
0.0
 11
248.9965927793935
 21
-15.3371864271303
 31
0.0
  0
LINE
  5
D8
  8
1
 62
     3
 10
255.17262865013939
 20
-9.1611505563843245
 30
0.0
 11
255.17262865013939
 21
-21.513222297876279
 31
0.0
  0
LINE
  5
D9
  8
1
 62
     3
 10
75.171806964500576
 20
-15.3371864271303
 30
0.0
 11
80.171806964500576
 21
-15.3371864271303
 31
0.0
  0
LINE
  5
DA
  8
1
 62
     3
 10
9.1718069645005755
 20
-15.3371864271303
 30
0.0
 11
14.17180696450057
 21
-15.3371864271303
 31
0.0
  0
LINE
  5
DB
  8
1
 62
     3
 10
-76.161511111683012
 20
-15.3371864271303
 30
0.0
 11
-71.161511111683012
 21
-15.3371864271303
 31
0.0
  0
LINE
  5
DC
  8
1
 62
     3
 10
-142.16151111168301
 20
-15.3371864271303
 30
0.0
 11
-137.16151111168301
 21
-15.3371864271303
 31
0.0
  0
ARC
  5
DD
  8
1
  6
DASHDOT
 62
     3
 10
255.17262865013939
 20
-15.3371864271303
 30
0.0
 40
75.000000000000099
 50
264.26238465007191
 51
275.73761534992798
  0
ARC
  5
DE
  8
1
  6
DASHDOT
 62
     3
 10
255.17262865013939
 20
-15.3371864271303
 30
0.0
 40
75.0
 50
144.26238465007191
 51
155.73761534992801
  0
ARC
  5
DF
  8
1
 62
     7
 10
255.17262865013939
 20
-90.337186427130234
 30
0.0
 40
8.9999999999999734
 50
0.0
 51
180.0
  0
ARC
  5
E0
  8
1
 62
     7
 10
320.12453393397232
 20
22.162813572869691
 30
0.0
 40
9.0
 50
119.9999999999999
 51
299.99999999999989
  0
ARC
  5
E1
  8
1
 62
     7
 10
190.2207233663066
 20
22.16281357286973
 30
0.0
 40
8.9999999999999911
 50
239.99999999999989
 51
60.0
  0
ARC
  5
E2
  8
1
 62
     7
 10
255.17262865013939
 20
-15.3371864271303
 30
0.0
 40
14.0
 50
104.4775121859299
 51
75.522487814070203
  0
ARC
  5
E3
  8
1
  6
DASHDOT
 62
     3
 10
255.17262865013939
 20
-15.3371864271303
 30
0.0
 40
75.000000000000099
 50
24.262384650071908
 51
35.737615349927957
  0
CIRCLE
  5
E4
  8
1
 62
     7
 10
255.17262865013939
 20
-15.3371864271303
 30
0.0
 40
26.400000000000009
  0
CIRCLE
  5
E5
  8
1
 62
     7
 10
255.17262865013939
 20
-15.3371864271303
 30
0.0
 40
29.700000000000021
  0
CIRCLE
  5
E6
  8
1
 62
     7
 10
255.17262865013939
 20
-15.3371864271303
 30
0.0
 40
42.499999999999957
  0
CIRCLE
  5
E7
  8
1
 62
     7
 10
255.17262865013939
 20
-15.3371864271303
 30
0.0
 40
82.499999999999986
  0
CIRCLE
  5
E8
  8
1
 62
     7
 10
255.17262865013939
 20
59.662813572869702
 30
0.0
 40
5.6339745962156069
  0
CIRCLE
  5
E9
  8
1
 62
     7
 10
255.17262865013939
 20
59.662813572869702
 30
0.0
 40
6.4999999999999716
  0
CIRCLE
  5
EA
  8
1
 62
     3
 10
327.61706562181962
 20
-34.748614809819351
 30
0.0
 40
3.0
  0
CIRCLE
  5
EB
  8
1
 62
     7
 10
327.61706562181962
 20
-34.748614809819351
 30
0.0
 40
2.4000000000000341
  0
CIRCLE
  5
EC
  8
1
 62
     7
 10
235.76120026745039
 20
57.107250544549863
 30
0.0
 40
2.3999999999998911
  0
CIRCLE
  5
ED
  8
1
 62
     3
 10
235.76120026745039
 20
57.107250544549863
 30
0.0
 40
3.0
  0
CIRCLE
  5
EE
  8
1
 62
     7
 10
202.13962006114841
 20
-68.370195016121372
 30
0.0
 40
2.4000000000000061
  0
CIRCLE
  5
EF
  8
1
 62
     3
 10
202.13962006114841
 20
-68.370195016121372
 30
0.0
 40
3.0
  0
CIRCLE
  5
F0
  8
1
 62
     7
 10
255.17262865013939
 20
-90.337186427130234
 30
0.0
 40
4.4999999999999707
  0
CIRCLE
  5
F1
  8
1
 62
     7
 10
190.2207233663066
 20
-52.83718642713027
 30
0.0
 40
6.4999999999998863
  0
CIRCLE
  5
F2
  8
1
 62
     7
 10
190.2207233663066
 20
-52.83718642713027
 30
0.0
 40
5.6339745962154097
  0
CIRCLE
  5
F3
  8
1
 62
     7
 10
320.12453393397232
 20
-52.837186427130348
 30
0.0
 40
6.500000000000056
  0
CIRCLE
  5
F4
  8
1
 62
     7
 10
320.12453393397232
 20
-52.837186427130348
 30
0.0
 40
5.6339745962155794
  0
CIRCLE
  5
F5
  8
1
 62
     7
 10
320.12453393397232
 20
22.162813572869691
 30
0.0
 40
4.5
  0
CIRCLE
  5
F6
  8
1
 62
     7
 10
190.2207233663066
 20
22.16281357286973
 30
0.0
 40
4.5
  0
TEXT
  5
F8
  8
1
 62
     7
 10
-114.7767444118162
 20
113.7154610027017
 30
0.0
 40
7.0
  1
RNB 10
 41
0.9
  7
SIMPLEX
  0
ENDSEC
  0
EOF
