  0
SECTION
  2
HEADER
  9
$ACADVER
  1
AC1009
  9
$INSBASE
 10
0.0
 20
0.0
 30
0.0
  9
$EXTMIN
 10
-129.49999999999989
 20
-78.5
 30
0.0
  9
$EXTMAX
 10
233.83456536011221
 20
117.79573308920961
 30
0.0
  9
$LIMMIN
 10
-129.49999999999989
 20
-78.5
  9
$LIMMAX
 10
233.83456536011221
 20
117.79573308920961
  9
$ORTHOMODE
 70
     0
  9
$REGENMODE
 70
     1
  9
$FILLMODE
 70
     1
  9
$QTEXTMODE
 70
     0
  9
$MIRRTEXT
 70
     1
  9
$DRAGMODE
 70
     2
  9
$LTSCALE
 40
1.0
  9
$OSMODE
 70
    37
  9
$ATTMODE
 70
     1
  9
$TEXTSIZE
 40
3.5
  9
$TRACEWID
 40
0.5
  9
$TEXTSTYLE
  7
STANDARD
  9
$CLAYER
  8
0
  9
$CELTYPE
  6
BYLAYER
  9
$CECOLOR
 62
   256
  9
$DIMSCALE
 40
1.0
  9
$DIMASZ
 40
0.18
  9
$DIMEXO
 40
0.0625
  9
$DIMDLI
 40
0.38
  9
$DIMRND
 40
0.0
  9
$DIMDLE
 40
0.0
  9
$DIMEXE
 40
0.18
  9
$DIMTP
 40
0.0
  9
$DIMTM
 40
0.0
  9
$DIMTXT
 40
0.18
  9
$DIMCEN
 40
0.09
  9
$DIMTSZ
 40
0.0
  9
$DIMTOL
 70
     0
  9
$DIMLIM
 70
     0
  9
$DIMTIH
 70
     1
  9
$DIMTOH
 70
     1
  9
$DIMSE1
 70
     0
  9
$DIMSE2
 70
     0
  9
$DIMTAD
 70
     0
  9
$DIMZIN
 70
     0
  9
$DIMBLK
  1

  9
$DIMASO
 70
     1
  9
$DIMSHO
 70
     1
  9
$DIMPOST
  1

  9
$DIMAPOST
  1

  9
$DIMALT
 70
     0
  9
$DIMALTD
 70
     2
  9
$DIMALTF
 40
25.399999999999999
  9
$DIMLFAC
 40
1.0
  9
$DIMTOFL
 70
     0
  9
$DIMTVP
 40
0.0
  9
$DIMTIX
 70
     0
  9
$DIMSOXD
 70
     0
  9
$DIMSAH
 70
     0
  9
$DIMBLK1
  1

  9
$DIMBLK2
  1

  9
$DIMSTYLE
  2
STANDARD
  9
$DIMCLRD
 70
     0
  9
$DIMCLRE
 70
     0
  9
$DIMCLRT
 70
     0
  9
$DIMTFAC
 40
1.0
  9
$DIMGAP
 40
0.09
  9
$LUNITS
 70
     2
  9
$LUPREC
 70
     4
  9
$SKETCHINC
 40
0.1
  9
$FILLETRAD
 40
2.0
  9
$AUNITS
 70
     0
  9
$AUPREC
 70
     0
  9
$MENU
  1
ACAD
  9
$ELEVATION
 40
0.0
  9
$PELEVATION
 40
0.0
  9
$THICKNESS
 40
0.0
  9
$LIMCHECK
 70
     0
  9
$BLIPMODE
 70
     0
  9
$CHAMFERA
 40
0.0
  9
$CHAMFERB
 40
0.0
  9
$SKPOLY
 70
     0
  9
$TDCREATE
 40
2452094.9749166672
  9
$TDUPDATE
 40
2452094.9763253471
  9
$TDINDWG
 40
0.0014208333
  9
$TDUSRTIMER
 40
0.0014208333
  9
$USRTIMER
 70
     1
  9
$ANGBASE
 50
0.0
  9
$ANGDIR
 70
     0
  9
$PDMODE
 70
     0
  9
$PDSIZE
 40
0.0
  9
$PLINEWID
 40
0.0
  9
$COORDS
 70
     1
  9
$SPLFRAME
 70
     0
  9
$SPLINETYPE
 70
     6
  9
$SPLINESEGS
 70
     8
  9
$ATTDIA
 70
     0
  9
$ATTREQ
 70
     1
  9
$HANDLING
 70
 10241
  9
$HANDSEED
  5
109
  9
$SURFTAB1
 70
     6
  9
$SURFTAB2
 70
     6
  9
$SURFTYPE
 70
     6
  9
$SURFU
 70
     6
  9
$SURFV
 70
     6
  9
$UCSNAME
  2

  9
$UCSORG
 10
0.0
 20
0.0
 30
0.0
  9
$UCSXDIR
 10
1.0
 20
0.0
 30
0.0
  9
$UCSYDIR
 10
0.0
 20
1.0
 30
0.0
  9
$PUCSNAME
  2

  9
$PUCSORG
 10
0.0
 20
0.0
 30
0.0
  9
$PUCSXDIR
 10
1.0
 20
0.0
 30
0.0
  9
$PUCSYDIR
 10
0.0
 20
1.0
 30
0.0
  9
$USERI1
 70
     0
  9
$USERI2
 70
     0
  9
$USERI3
 70
     0
  9
$USERI4
 70
     0
  9
$USERI5
 70
     0
  9
$USERR1
 40
0.0
  9
$USERR2
 40
0.0
  9
$USERR3
 40
0.0
  9
$USERR4
 40
0.0
  9
$USERR5
 40
0.0
  9
$WORLDVIEW
 70
     1
  9
$SHADEDGE
 70
     3
  9
$SHADEDIF
 70
    70
  9
$TILEMODE
 70
     1
  9
$MAXACTVP
 70
    64
  9
$PLIMCHECK
 70
     0
  9
$PEXTMIN
 10
1.0000000000000000E+020
 20
1.0000000000000000E+020
 30
1.0000000000000000E+020
  9
$PEXTMAX
 10
-1.0000000000000000E+020
 20
-1.0000000000000000E+020
 30
-1.0000000000000000E+020
  9
$PLIMMIN
 10
0.0
 20
0.0
  9
$PLIMMAX
 10
12.0
 20
9.0
  9
$UNITMODE
 70
     0
  9
$VISRETAIN
 70
     1
  9
$PLINEGEN
 70
     0
  9
$PSLTSCALE
 70
     1
  0
ENDSEC
  0
SECTION
  2
TABLES
  0
TABLE
  2
VPORT
 70
     2
  0
VPORT
  2
*ACTIVE
 70
     0
 10
0.0
 20
0.0
 11
1.0
 21
1.0
 12
-103.90644938352359
 22
107.2545947536388
 13
0.0
 23
0.0
 14
1.0
 24
1.0
 15
0.0
 25
0.0
 16
0.0
 26
0.0
 36
1.0
 17
0.0
 27
0.0
 37
0.0
 40
8.9999998409032287
 41
2.4144144144144142
 42
50.0
 43
0.0
 44
0.0
 50
0.0
 51
0.0
 71
     0
 72
   100
 73
     1
 74
     1
 75
     0
 76
     0
 77
     0
 78
     0
  0
ENDTAB
  0
TABLE
  2
LTYPE
 70
     9
  0
LTYPE
  2
CONTINUOUS
 70
     0
  3
Solid line
 72
    65
 73
     0
 40
0.0
  0
LTYPE
  2
BORDER
 70
     0
  3
__ __ . __ __ .
 72
    65
 73
     6
 40
16.73251287842622
 49
4.7807179652646337
 49
-2.3903589826323159
 49
4.7807179652646337
 49
-2.3903589826323159
 49
0.0
 49
-2.3903589826323159
  0
LTYPE
  2
CENTER
 70
     0
  3
____ _ ____ _
 72
    65
 73
     4
 40
19.122871861058531
 49
11.95179491316159
 49
-2.3903589826323159
 49
2.3903589826323159
 49
-2.3903589826323159
  0
LTYPE
  2
DASHDOT
 70
     0
  3
__ . __ . __ .
 72
    65
 73
     4
 40
9.5614359305292673
 49
4.7807179652646337
 49
-2.3903589826323159
 49
0.0
 49
-2.3903589826323159
  0
LTYPE
  2
DASHED
 70
     0
  3
__ __ __ __ __
 72
    65
 73
     2
 40
7.1710769478969514
 49
4.7807179652646337
 49
-2.3903589826323159
  0
LTYPE
  2
DIVIDE
 70
     0
  3
__ . . __ . . 
 72
    65
 73
     6
 40
11.95179491316159
 49
4.7807179652646337
 49
-2.3903589826323159
 49
0.0
 49
-2.3903589826323159
 49
0.0
 49
-2.3903589826323159
  0
LTYPE
  2
DOT
 70
     0
  3
..............
 72
    65
 73
     4
 40
4.7807179652646337
 49
0.0
 49
-2.3903589826323159
 49
0.0
 49
-2.3903589826323159
  0
LTYPE
  2
HIDDEN
 70
     0
  3
_ _ _ _ _ _ _
 72
    65
 73
     2
 40
3.5855384739484761
 49
2.3903589826323159
 49
-1.1951794913161591
  0
LTYPE
  2
PHANTOM
 70
     0
  3
_____ _ _ _____ _ _ 
 72
    65
 73
     6
 40
23.90358982632317
 49
11.95179491316159
 49
-2.3903589826323159
 49
2.3903589826323159
 49
-2.3903589826323159
 49
2.3903589826323159
 49
-2.3903589826323159
  0
ENDTAB
  0
TABLE
  2
LAYER
 70
     2
  0
LAYER
  2
0
 70
     0
 62
     7
  6
CONTINUOUS
  0
LAYER
  2
1
 70
     0
 62
     7
  6
CONTINUOUS
  0
ENDTAB
  0
TABLE
  2
STYLE
 70
     4
  0
STYLE
  2
STANDARD
 70
     0
 40
0.0
 41
1.0
 50
0.0
 71
     0
 42
3.5
  3
txt
  4

  0
STYLE
  2
SIMPLEX
 70
     0
 40
0.0
 41
1.0
 50
0.0
 71
     0
 42
3.5
  3
simplex
  4

  0
STYLE
  2
COMPLEX
 70
     0
 40
0.0
 41
1.0
 50
0.0
 71
     0
 42
3.5
  3
complex
  4

  0
STYLE
  2
ITALIC
 70
     0
 40
0.0
 41
1.0
 50
0.0
 71
     0
 42
3.5
  3
italic
  4

  0
ENDTAB
  0
TABLE
  2
VIEW
 70
     0
  0
ENDTAB
  0
TABLE
  2
UCS
 70
     0
  0
ENDTAB
  0
TABLE
  2
APPID
 70
     1
  0
APPID
  2
ACAD
 70
     0
  0
ENDTAB
  0
TABLE
  2
DIMSTYLE
 70
     1
  0
DIMSTYLE
  2
STANDARD
 70
     0
  3

  4

  5

  6

  7

 40
1.0
 41
0.18
 42
0.0625
 43
0.38
 44
0.18
 45
0.0
 46
0.0
 47
0.0
 48
0.0
140
0.18
141
0.09
142
0.0
143
25.399999999999999
144
1.0
145
0.0
146
1.0
147
0.09
 71
     0
 72
     0
 73
     1
 74
     1
 75
     0
 76
     0
 77
     0
 78
     0
170
     0
171
     2
172
     0
173
     0
174
     0
175
     0
176
     0
177
     0
178
     0
  0
ENDTAB
  0
ENDSEC
  0
SECTION
  2
BLOCKS
  0
BLOCK
  8
0
  2
$MODEL_SPACE
 70
     0
 10
0.0
 20
0.0
 30
0.0
  3
$MODEL_SPACE
  1

  0
ENDBLK
  5
20
  8
0
  0
BLOCK
 67
     1
  8
0
  2
$PAPER_SPACE
 70
     0
 10
0.0
 20
0.0
 30
0.0
  3
$PAPER_SPACE
  1

  0
ENDBLK
  5
1C
 67
     1
  8
0
  0
ENDSEC
  0
SECTION
  2
ENTITIES
  0
POINT
  5
33
  8
1
  6
DOT
 62
     7
 10
39.900000000000119
 20
53.0
 30
0.0
  0
POINT
  5
34
  8
1
  6
DOT
 62
     7
 10
-84.599999999999909
 20
53.0
 30
0.0
  0
LINE
  5
35
  8
1
 62
     7
 10
-89.500000000000014
 20
-19.34999999999998
 30
0.0
 11
-90.0
 21
-19.34999999999998
 31
0.0
  0
LINE
  5
36
  8
1
 62
     7
 10
-89.500000000000014
 20
19.34999999999998
 30
0.0
 11
-89.500000000000014
 21
-19.34999999999998
 31
0.0
  0
LINE
  5
37
  8
1
 62
     7
 10
-90.0
 20
19.34999999999998
 30
0.0
 11
-89.500000000000014
 21
19.34999999999998
 31
0.0
  0
LINE
  5
38
  8
1
 62
     7
 10
34.5
 20
58.75
 30
0.0
 11
34.5
 21
19.34999999999998
 31
0.0
  0
LINE
  5
39
  8
1
 62
     7
 10
-90.0
 20
58.75
 30
0.0
 11
-90.0
 21
-58.5
 31
0.0
  0
LINE
  5
3A
  8
1
 62
     7
 10
19.999999999999691
 20
-20.0
 30
0.0
 11
24.199999999999989
 21
-20.0
 31
0.0
  0
LINE
  5
3B
  8
1
 62
     7
 10
30.699999999999989
 20
-58.5
 30
0.0
 11
30.699999999999989
 21
-47.5
 31
0.0
  0
LINE
  5
3C
  8
1
 62
     7
 10
19.999999999999691
 20
-47.5
 30
0.0
 11
34.5
 21
-47.5
 31
0.0
  0
LINE
  5
3D
  8
1
 62
     7
 10
19.5
 20
-58.5
 30
0.0
 11
19.5
 21
-15.0
 31
0.0
  0
LINE
  5
3E
  8
1
 62
     7
 10
202.83541553756359
 20
-51.632869758685402
 30
0.0
 11
213.9296395676451
 21
-70.848629449337992
 31
0.0
  0
LINE
  5
3F
  8
1
 62
     7
 10
215.66169037521391
 20
-69.848629449337963
 30
0.0
 11
204.58456536011221
 21
-50.662486121389698
 31
0.0
  0
LINE
  5
40
  8
1
 62
     7
 10
217.3937411827828
 20
-68.848629449337963
 30
0.0
 11
213.9296395676451
 21
-70.848629449337992
 31
0.0
  0
LINE
  5
41
  8
1
 62
     7
 10
214.4492548099158
 20
-70.548629449337966
 30
0.0
 11
215.9492548099158
 21
-73.146705660691296
 31
0.0
  0
LINE
  5
42
  8
1
 62
     7
 10
216.12245989067259
 20
-73.046705660691302
 30
0.0
 11
214.62245989067259
 21
-70.448629449337972
 31
0.0
  0
LINE
  5
43
  8
1
 62
     7
 10
214.7956649714296
 20
-70.348629449337977
 30
0.0
 11
216.2956649714296
 21
-72.946705660691293
 31
0.0
  0
LINE
  5
44
  8
1
 62
     7
 10
216.46887005218639
 20
-72.846705660691299
 30
0.0
 11
214.9688700521865
 21
-70.248629449337983
 31
0.0
  0
LINE
  5
45
  8
1
 62
     7
 10
215.14207513294329
 20
-70.14862944933796
 30
0.0
 11
216.64207513294329
 21
-72.746705660691276
 31
0.0
  0
LINE
  5
46
  8
1
 62
     7
 10
217.6813056174845
 20
-72.146705660691282
 30
0.0
 11
216.18130561748461
 21
-69.548629449337966
 31
0.0
  0
LINE
  5
47
  8
1
 62
     7
 10
216.3545106982416
 20
-69.448629449337943
 30
0.0
 11
217.8545106982416
 21
-72.046705660691245
 31
0.0
  0
LINE
  5
48
  8
1
 62
     7
 10
218.02771577899841
 20
-71.946705660691293
 30
0.0
 11
216.5277157789985
 21
-69.348629449337963
 31
0.0
  0
LINE
  5
49
  8
1
 62
     7
 10
216.7009208597554
 20
-69.248629449337955
 30
0.0
 11
218.2009208597554
 21
-71.846705660691256
 31
0.0
  0
LINE
  5
4A
  8
1
 62
     7
 10
218.37412594051199
 20
-71.746705660691276
 30
0.0
 11
216.87412594051199
 21
-69.14862944933796
 31
0.0
  0
LINE
  5
4B
  8
1
 62
     7
 10
224.1185905124193
 20
-27.703589838486291
 30
0.0
 11
223.71859051241921
 21
-28.396410161513799
 31
0.0
  0
LINE
  5
4C
  8
1
 62
     7
 10
220.03032192220121
 20
-29.384678751731801
 30
0.0
 11
219.33750159917381
 21
-28.984678751731781
 31
0.0
  0
LINE
  5
4D
  8
1
 62
     7
 10
218.34923300895579
 20
-25.296410161513791
 30
0.0
 11
218.7492330089558
 21
-24.603589838486212
 31
0.0
  0
LINE
  5
4E
  8
1
 62
     7
 10
222.43750159917369
 20
-23.615321248268291
 30
0.0
 11
223.13032192220129
 21
-24.01532124826829
 31
0.0
  0
LINE
  5
4F
  8
1
 62
     7
 10
126.9505402078051
 20
-28.396410161513799
 30
0.0
 11
126.5505402078054
 21
-27.703589838486209
 31
0.0
  0
LINE
  5
50
  8
1
 62
     7
 10
127.5388087980233
 20
-24.015321248268211
 30
0.0
 11
128.2316291210507
 21
-23.615321248268291
 31
0.0
  0
LINE
  5
51
  8
1
 62
     7
 10
131.9198977112687
 20
-24.603589838486212
 30
0.0
 11
132.31989771126871
 21
-25.296410161513791
 31
0.0
  0
LINE
  5
52
  8
1
 62
     7
 10
131.33162912105081
 20
-28.984678751731781
 30
0.0
 11
130.63880879802321
 21
-29.384678751731698
 31
0.0
  0
LINE
  5
53
  8
1
 62
     7
 10
172.2345653601123
 20
52.59999999999998
 30
0.0
 11
172.2345653601123
 21
53.400000000000013
 31
0.0
  0
LINE
  5
54
  8
1
 62
     7
 10
175.73456536011221
 20
49.900000000000013
 30
0.0
 11
174.9345653601124
 21
49.900000000000013
 31
0.0
  0
LINE
  5
55
  8
1
 62
     7
 10
178.4345653601124
 20
53.400000000000013
 30
0.0
 11
178.4345653601124
 21
52.59999999999998
 31
0.0
  0
LINE
  5
56
  8
1
 62
     7
 10
174.9345653601124
 20
56.099999999999987
 30
0.0
 11
175.73456536011221
 21
56.099999999999987
 31
0.0
  0
LINE
  5
57
  8
1
 62
     7
 10
177.83456536011209
 20
11.5
 30
0.0
 11
177.83456536011209
 21
9.1651513899116992
 31
0.0
  0
LINE
  5
58
  8
1
 62
     7
 10
172.83456536011209
 20
11.5
 30
0.0
 11
177.83456536011209
 21
11.5
 31
0.0
  0
LINE
  5
59
  8
1
 62
     7
 10
172.83456536011209
 20
9.1651513899116992
 30
0.0
 11
172.83456536011209
 21
11.5
 31
0.0
  0
LINE
  5
5A
  8
1
 62
     7
 10
34.5
 20
58.5
 30
0.0
 11
30.699999999999989
 21
58.5
 31
0.0
  0
LINE
  5
5B
  8
1
 62
     7
 10
0.0
 20
58.5
 30
0.0
 11
19.5
 21
58.5
 31
0.0
  0
LINE
  5
5C
  8
1
 62
     7
 10
8.9000000000001052
 20
-75.5
 30
0.0
 11
8.9000000000001052
 21
-78.5
 31
0.0
  0
LINE
  5
5D
  8
1
 62
     7
 10
8.7000000000000028
 20
-78.5
 30
0.0
 11
8.7000000000000028
 21
-75.5
 31
0.0
  0
LINE
  5
5E
  8
1
 62
     7
 10
8.5
 20
-75.5
 30
0.0
 11
8.5
 21
-78.5
 31
0.0
  0
LINE
  5
5F
  8
1
 62
     7
 10
8.2999999999999972
 20
-78.5
 30
0.0
 11
8.2999999999999972
 21
-75.5
 31
0.0
  0
LINE
  5
60
  8
1
 62
     7
 10
7.5
 20
-75.5
 30
0.0
 11
9.5
 21
-75.5
 31
0.0
  0
LINE
  5
61
  8
1
 62
     7
 10
8.1000000000000938
 20
-75.5
 30
0.0
 11
8.1000000000000938
 21
-78.5
 31
0.0
  0
LINE
  5
62
  8
1
 62
     7
 10
9.5
 20
-75.5
 30
0.0
 11
9.5
 21
-58.5
 31
0.0
  0
LINE
  5
63
  8
1
 62
     7
 10
7.5
 20
-58.5
 30
0.0
 11
7.5
 21
-75.5
 31
0.0
  0
LINE
  5
64
  8
1
 62
     7
 10
0.0
 20
-58.5
 30
0.0
 11
0.0
 21
58.5
 31
0.0
  0
LINE
  5
65
  8
1
 62
     7
 10
0.0
 20
-58.5
 30
0.0
 11
19.5
 21
-58.5
 31
0.0
  0
LINE
  5
66
  8
1
 62
     7
 10
0.0
 20
-20.0
 30
0.0
 11
19.5
 21
-20.0
 31
0.0
  0
LINE
  5
67
  8
1
 62
     7
 10
19.5
 20
20.0
 30
0.0
 11
0.0
 21
20.0
 31
0.0
  0
LINE
  5
68
  8
1
 62
     7
 10
122.14648450843831
 20
24.357299836307579
 30
0.0
 11
126.685218959537
 21
21.73686027918561
 31
0.0
  0
LINE
  5
69
  8
1
 62
     7
 10
132.185218959537
 20
31.26313972081439
 30
0.0
 11
127.64648450843831
 21
33.883579277936477
 31
0.0
  0
LINE
  5
6A
  8
1
 62
     7
 10
223.02264621178631
 20
33.883579277936477
 30
0.0
 11
218.4839117606875
 21
31.26313972081439
 31
0.0
  0
LINE
  5
6B
  8
1
 62
     7
 10
223.98391176068759
 20
21.73686027918561
 30
0.0
 11
228.52264621178631
 21
24.357299836307579
 31
0.0
  0
LINE
  5
6C
  8
1
 62
     7
 10
169.83456536011209
 20
-53.0
 30
0.0
 11
169.83456536011229
 21
-58.240879114244088
 31
0.0
  0
LINE
  5
6D
  8
1
 62
     7
 10
180.83456536011209
 20
-58.240879114244088
 30
0.0
 11
180.83456536011209
 21
-53.0
 31
0.0
  0
LINE
  5
6E
  8
1
  6
DASHDOT
 62
     3
 10
-5.0071570928841993
 20
-54.0
 30
0.0
 11
39.908996182023898
 21
-54.0
 31
0.0
  0
LINE
  5
6F
  8
1
 62
     7
 10
0.0
 20
-51.25
 30
0.0
 11
19.5
 21
-51.25
 31
0.0
  0
LINE
  5
70
  8
1
 62
     7
 10
0.0
 20
-56.75
 30
0.0
 11
19.5
 21
-56.75
 31
0.0
  0
LINE
  5
71
  8
1
 62
     7
 10
206.29951715270161
 20
-49.632869758685388
 30
0.0
 11
217.3937411827828
 21
-68.848629449337963
 31
0.0
  0
LINE
  5
72
  8
1
 62
     7
 10
25.0
 20
19.34999999999998
 30
0.0
 11
35.0
 21
19.34999999999998
 31
0.0
  0
LINE
  5
73
  8
1
 62
     7
 10
14.99999999999989
 20
15.0
 30
0.0
 11
25.0
 21
15.0
 31
0.0
  0
LINE
  5
74
  8
1
 62
     7
 10
25.0
 20
-15.0
 30
0.0
 11
14.999999999999689
 21
-15.0
 31
0.0
  0
LINE
  5
75
  8
1
 62
     7
 10
35.0
 20
-19.34999999999998
 30
0.0
 11
25.0
 21
-19.34999999999998
 31
0.0
  0
LINE
  5
76
  8
1
 62
     7
 10
15.0
 20
9.5
 30
0.0
 11
35.0
 21
9.5
 31
0.0
  0
LINE
  5
77
  8
1
 62
     7
 10
15.0
 20
-9.5
 30
0.0
 11
35.0
 21
-9.5
 31
0.0
  0
LINE
  5
78
  8
1
 62
     7
 10
14.999999999999689
 20
-15.0
 30
0.0
 11
14.99999999999989
 21
15.0
 31
0.0
  0
LINE
  5
79
  8
1
 62
     7
 10
25.0
 20
15.0
 30
0.0
 11
25.0
 21
19.34999999999998
 31
0.0
  0
LINE
  5
7A
  8
1
 62
     7
 10
25.0
 20
-19.34999999999998
 30
0.0
 11
25.0
 21
-15.0
 31
0.0
  0
LINE
  5
7B
  8
1
 62
     7
 10
25.0
 20
17.699999999999982
 30
0.0
 11
35.0
 21
17.699999999999982
 31
0.0
  0
LINE
  5
7C
  8
1
 62
     7
 10
25.0
 20
-17.699999999999982
 30
0.0
 11
35.0
 21
-17.699999999999982
 31
0.0
  0
LINE
  5
7D
  8
1
 62
     7
 10
35.0
 20
-19.34999999999998
 30
0.0
 11
35.0
 21
19.34999999999998
 31
0.0
  0
LINE
  5
7E
  8
1
 62
     7
 10
15.0
 20
11.5
 30
0.0
 11
35.0
 21
11.5
 31
0.0
  0
LINE
  5
7F
  8
1
 62
     7
 10
29.400000000000009
 20
-35.0
 30
0.0
 11
31.5
 21
-35.0
 31
0.0
  0
LINE
  5
80
  8
1
 62
     7
 10
29.400000000000009
 20
35.0
 30
0.0
 11
31.5
 21
35.0
 31
0.0
  0
LINE
  5
81
  8
1
 62
     7
 10
30.699999999999989
 20
35.0
 30
0.0
 11
30.699999999999989
 21
19.34999999999998
 31
0.0
  0
LINE
  5
82
  8
1
 62
     7
 10
30.699999999999989
 20
-35.0
 30
0.0
 11
30.699999999999989
 21
-19.34999999999998
 31
0.0
  0
LINE
  5
83
  8
1
 62
     7
 10
34.5
 20
-47.5
 30
0.0
 11
34.5
 21
-19.34999999999998
 31
0.0
  0
LINE
  5
84
  8
1
 62
     7
 10
34.5
 20
-47.5
 30
0.0
 11
34.5
 21
-58.5
 31
0.0
  0
LINE
  5
85
  8
1
 62
     7
 10
30.699999999999989
 20
-26.0
 30
0.0
 11
34.5
 21
-26.0
 31
0.0
  0
LINE
  5
86
  8
1
 62
     7
 10
30.699999999999989
 20
26.0
 30
0.0
 11
34.5
 21
26.0
 31
0.0
  0
LINE
  5
87
  8
1
 62
     7
 10
30.699999999999989
 20
-58.5
 30
0.0
 11
34.5
 21
-58.5
 31
0.0
  0
LINE
  5
88
  8
1
 62
     7
 10
31.5
 20
-47.5
 30
0.0
 11
31.5
 21
-35.0
 31
0.0
  0
LINE
  5
89
  8
1
 62
     7
 10
31.5
 20
35.0
 30
0.0
 11
31.5
 21
47.5
 31
0.0
  0
LINE
  5
8A
  8
1
 62
     7
 10
29.400000000000009
 20
47.5
 30
0.0
 11
29.400000000000009
 21
17.699999999999982
 31
0.0
  0
LINE
  5
8B
  8
1
 62
     7
 10
25.5
 20
17.699999999999982
 30
0.0
 11
25.5
 21
47.5
 31
0.0
  0
LINE
  5
8C
  8
1
 62
     7
 10
25.5
 20
19.800000000000011
 30
0.0
 11
29.400000000000009
 21
19.800000000000011
 31
0.0
  0
LINE
  5
8D
  8
1
 62
     7
 10
25.5
 20
-47.5
 30
0.0
 11
25.5
 21
-17.699999999999982
 31
0.0
  0
LINE
  5
8E
  8
1
 62
     7
 10
25.5
 20
-19.800000000000011
 30
0.0
 11
29.400000000000009
 21
-19.800000000000011
 31
0.0
  0
LINE
  5
8F
  8
1
 62
     7
 10
25.5
 20
-18.0
 30
0.0
 11
29.400000000000009
 21
-18.0
 31
0.0
  0
LINE
  5
90
  8
1
 62
     7
 10
25.5
 20
18.0
 30
0.0
 11
29.400000000000009
 21
18.0
 31
0.0
  0
LINE
  5
91
  8
1
 62
     7
 10
23.400000000000009
 20
47.5
 30
0.0
 11
31.5
 21
47.5
 31
0.0
  0
LINE
  5
92
  8
1
 62
     7
 10
29.400000000000009
 20
-47.5
 30
0.0
 11
29.400000000000009
 21
-17.699999999999982
 31
0.0
  0
LINE
  5
93
  8
1
 62
     7
 10
24.199999999999989
 20
47.5
 30
0.0
 11
24.199999999999989
 21
48.5
 31
0.0
  0
LINE
  5
94
  8
1
 62
     7
 10
23.400000000000009
 20
-35.0
 30
0.0
 11
25.5
 21
-35.0
 31
0.0
  0
LINE
  5
95
  8
1
 62
     7
 10
23.400000000000009
 20
35.0
 30
0.0
 11
25.5
 21
35.0
 31
0.0
  0
LINE
  5
96
  8
1
 62
     7
 10
24.199999999999989
 20
-47.5
 30
0.0
 11
24.199999999999989
 21
-58.5
 31
0.0
  0
LINE
  5
97
  8
1
 62
     7
 10
24.199999999999989
 20
20.0
 30
0.0
 11
19.99999999999989
 21
20.0
 31
0.0
  0
LINE
  5
98
  8
1
 62
     7
 10
24.199999999999989
 20
-15.0
 30
0.0
 11
24.199999999999989
 21
-35.0
 31
0.0
  0
LINE
  5
99
  8
1
 62
     7
 10
24.199999999999989
 20
58.5
 30
0.0
 11
20.0
 21
58.5
 31
0.0
  0
LINE
  5
9A
  8
1
 62
     7
 10
23.400000000000009
 20
47.5
 30
0.0
 11
23.400000000000009
 21
35.0
 31
0.0
  0
LINE
  5
9B
  8
1
 62
     7
 10
23.400000000000009
 20
-35.0
 30
0.0
 11
23.400000000000009
 21
-47.5
 31
0.0
  0
LINE
  5
9C
  8
1
 62
     7
 10
24.199999999999989
 20
15.0
 30
0.0
 11
24.199999999999989
 21
35.0
 31
0.0
  0
LINE
  5
9D
  8
1
 62
     7
 10
20.0
 20
58.5
 30
0.0
 11
20.0
 21
57.5
 31
0.0
  0
LINE
  5
9E
  8
1
 62
     7
 10
19.999999999999691
 20
-58.5
 30
0.0
 11
24.199999999999989
 21
-58.5
 31
0.0
  0
LINE
  5
9F
  8
1
 62
     7
 10
19.999999999999691
 20
-15.0
 30
0.0
 11
19.999999999999691
 21
-58.5
 31
0.0
  0
LINE
  5
A0
  8
1
 62
     7
 10
20.0
 20
48.199999999999989
 30
0.0
 11
24.199999999999989
 21
48.199999999999989
 31
0.0
  0
LINE
  5
A1
  8
1
 62
     7
 10
30.699999999999989
 20
48.5
 30
0.0
 11
19.5
 21
48.5
 31
0.0
  0
LINE
  5
A2
  8
1
 62
     7
 10
19.5
 20
57.5
 30
0.0
 11
30.699999999999989
 21
57.5
 31
0.0
  0
LINE
  5
A3
  8
1
 62
     7
 10
30.699999999999989
 20
58.5
 30
0.0
 11
30.699999999999989
 21
47.5
 31
0.0
  0
LINE
  5
A4
  8
1
 62
     7
 10
24.199999999999989
 20
57.5
 30
0.0
 11
24.199999999999989
 21
58.5
 31
0.0
  0
LINE
  5
A5
  8
1
 62
     7
 10
20.0
 20
48.5
 30
0.0
 11
19.99999999999989
 21
15.0
 31
0.0
  0
LINE
  5
A6
  8
1
 62
     7
 10
37.527015954233519
 20
47.75
 30
0.0
 11
36.300000000000011
 21
47.75
 31
0.0
  0
LINE
  5
A7
  8
1
 62
     7
 10
36.0
 20
48.050000000000011
 30
0.0
 11
36.0
 21
57.949999999999989
 31
0.0
  0
LINE
  5
A8
  8
1
 62
     7
 10
36.300000000000011
 20
58.25
 30
0.0
 11
37.527015954233519
 21
58.25
 31
0.0
  0
LINE
  5
A9
  8
1
 62
     7
 10
36.0
 20
53.0
 30
0.0
 11
34.5
 21
51.5
 31
0.0
  0
LINE
  5
AA
  8
1
 62
     7
 10
36.0
 20
54.5
 30
0.0
 11
34.5
 21
53.0
 31
0.0
  0
LINE
  5
AB
  8
1
 62
     7
 10
34.5
 20
47.25
 30
0.0
 11
36.0
 21
47.25
 31
0.0
  0
LINE
  5
AC
  8
1
 62
     7
 10
36.0
 20
47.25
 30
0.0
 11
36.0
 21
58.75
 31
0.0
  0
LINE
  5
AD
  8
1
 62
     7
 10
36.0
 20
58.75
 30
0.0
 11
34.5
 21
58.75
 31
0.0
  0
LINE
  5
AE
  8
1
 62
     7
 10
19.5
 20
58.5
 30
0.0
 11
19.5
 21
15.0
 31
0.0
  0
LINE
  5
AF
  8
1
 62
     7
 10
-105.0
 20
-58.5
 30
0.0
 11
-105.0
 21
58.5
 31
0.0
  0
LINE
  5
B0
  8
1
 62
     7
 10
-90.0
 20
58.5
 30
0.0
 11
-93.799999999999997
 21
58.5
 31
0.0
  0
LINE
  5
B1
  8
1
 62
     7
 10
-124.5
 20
58.5
 30
0.0
 11
-105.0
 21
58.5
 31
0.0
  0
LINE
  5
B2
  8
1
 62
     7
 10
-115.59999999999989
 20
-75.5
 30
0.0
 11
-115.59999999999989
 21
-78.5
 31
0.0
  0
LINE
  5
B3
  8
1
 62
     7
 10
-115.7999999999999
 20
-78.5
 30
0.0
 11
-115.7999999999999
 21
-75.5
 31
0.0
  0
LINE
  5
B4
  8
1
 62
     7
 10
-116.0
 20
-75.5
 30
0.0
 11
-116.0
 21
-78.5
 31
0.0
  0
LINE
  5
B5
  8
1
 62
     7
 10
-116.2
 20
-78.5
 30
0.0
 11
-116.2
 21
-75.5
 31
0.0
  0
LINE
  5
B6
  8
1
 62
     7
 10
-117.0
 20
-75.5
 30
0.0
 11
-115.0
 21
-75.5
 31
0.0
  0
LINE
  5
B7
  8
1
 62
     7
 10
-116.39999999999991
 20
-75.5
 30
0.0
 11
-116.39999999999991
 21
-78.5
 31
0.0
  0
LINE
  5
B8
  8
1
 62
     7
 10
-115.0
 20
-75.5
 30
0.0
 11
-115.0
 21
-58.5
 31
0.0
  0
LINE
  5
B9
  8
1
 62
     7
 10
-117.0
 20
-58.5
 30
0.0
 11
-117.0
 21
-75.5
 31
0.0
  0
LINE
  5
BA
  8
1
 62
     7
 10
-124.5
 20
-58.5
 30
0.0
 11
-124.5
 21
58.5
 31
0.0
  0
LINE
  5
BB
  8
1
 62
     7
 10
-124.5
 20
-58.5
 30
0.0
 11
-105.0
 21
-58.5
 31
0.0
  0
LINE
  5
BC
  8
1
 62
     7
 10
-93.799999999999997
 20
-58.5
 30
0.0
 11
-90.0
 21
-58.5
 31
0.0
  0
LINE
  5
BD
  8
1
 62
     7
 10
-95.099999999999994
 20
47.5
 30
0.0
 11
-95.099999999999994
 21
-47.5
 31
0.0
  0
LINE
  5
BE
  8
1
 62
     7
 10
-99.0
 20
47.5
 30
0.0
 11
-99.0
 21
-47.5
 31
0.0
  0
LINE
  5
BF
  8
1
 62
     7
 10
-100.2999999999999
 20
-58.5
 30
0.0
 11
-100.2999999999999
 21
58.5
 31
0.0
  0
LINE
  5
C0
  8
1
 62
     7
 10
-100.2999999999999
 20
58.5
 30
0.0
 11
-104.4999999999999
 21
58.5
 31
0.0
  0
LINE
  5
C1
  8
1
 62
     7
 10
-104.4999999999999
 20
58.5
 30
0.0
 11
-104.5000000000003
 21
-58.5
 31
0.0
  0
LINE
  5
C2
  8
1
 62
     7
 10
-104.5000000000003
 20
-58.5
 30
0.0
 11
-100.2999999999999
 21
-58.5
 31
0.0
  0
LINE
  5
C3
  8
1
 62
     7
 10
-93.799999999999997
 20
48.5
 30
0.0
 11
-100.2999999999999
 21
48.5
 31
0.0
  0
LINE
  5
C4
  8
1
 62
     7
 10
-86.972984045766509
 20
47.75
 30
0.0
 11
-88.199999999999974
 21
47.75
 31
0.0
  0
LINE
  5
C5
  8
1
 62
     7
 10
-88.499999999999986
 20
48.050000000000011
 30
0.0
 11
-88.499999999999986
 21
57.949999999999989
 31
0.0
  0
LINE
  5
C6
  8
1
 62
     7
 10
-88.199999999999974
 20
58.25
 30
0.0
 11
-86.972984045766509
 21
58.25
 31
0.0
  0
LINE
  5
C7
  8
1
 62
     7
 10
-88.499999999999986
 20
53.0
 30
0.0
 11
-90.0
 21
51.5
 31
0.0
  0
LINE
  5
C8
  8
1
 62
     7
 10
-88.499999999999986
 20
54.5
 30
0.0
 11
-90.0
 21
53.0
 31
0.0
  0
LINE
  5
C9
  8
1
 62
     7
 10
-90.0
 20
47.25
 30
0.0
 11
-88.499999999999986
 21
47.25
 31
0.0
  0
LINE
  5
CA
  8
1
 62
     7
 10
-88.499999999999986
 20
47.25
 30
0.0
 11
-88.499999999999986
 21
58.75
 31
0.0
  0
LINE
  5
CB
  8
1
 62
     7
 10
-88.499999999999986
 20
58.75
 30
0.0
 11
-90.0
 21
58.75
 31
0.0
  0
LINE
  5
CC
  8
1
 62
     7
 10
-100.2999999999999
 20
57.5
 30
0.0
 11
-93.799999999999997
 21
57.5
 31
0.0
  0
LINE
  5
CD
  8
1
 62
     7
 10
-100.2999999999999
 20
47.5
 30
0.0
 11
-93.799999999999997
 21
47.5
 31
0.0
  0
LINE
  5
CE
  8
1
 62
     7
 10
-100.2999999999999
 20
-47.5
 30
0.0
 11
-93.799999999999997
 21
-47.5
 31
0.0
  0
LINE
  5
CF
  8
1
 62
     7
 10
-93.799999999999997
 20
58.5
 30
0.0
 11
-93.799999999999997
 21
-58.5
 31
0.0
  0
LINE
  5
D0
  8
1
 62
     3
 10
-129.49999999999989
 20
0.0
 30
0.0
 11
-124.5
 21
0.0
 31
0.0
  0
LINE
  5
D1
  8
1
 62
     3
 10
-89.500000000000014
 20
0.0
 30
0.0
 11
-84.500000000000014
 21
0.0
 31
0.0
  0
LINE
  5
D2
  8
1
 62
     3
 10
35.0
 20
0.0
 30
0.0
 11
40.0
 21
0.0
 31
0.0
  0
LINE
  5
D3
  8
1
 62
     3
 10
-5.0
 20
0.0
 30
0.0
 11
0.0
 21
0.0
 31
0.0
  0
LINE
  5
D4
  8
1
  6
DASHDOT
 62
     3
 10
217.9115700175293
 20
24.581845100247548
 30
0.0
 11
226.46716062942781
 21
29.52141764310333
 31
0.0
  0
LINE
  5
D5
  8
1
  6
DASHDOT
 62
     3
 10
175.33456536011209
 20
-58.594980616325287
 30
0.0
 11
175.33456536011209
 21
-49.126432547694307
 31
0.0
  0
LINE
  5
D6
  8
1
  6
DASHDOT
 62
     3
 10
124.3762645108815
 20
29.420788712749349
 30
0.0
 11
132.82542761550349
 21
24.542662119868648
 31
0.0
  0
LINE
  5
D7
  8
1
 62
     3
 10
181.06639744879789
 20
0.0
 30
0.0
 11
169.6027332714263
 21
0.0
 31
0.0
  0
LINE
  5
D8
  8
1
 62
     3
 10
175.33456536011209
 20
5.7318320886859047
 30
0.0
 11
175.33456536011209
 21
-5.7318320886857919
 31
0.0
  0
ARC
  5
D9
  8
1
  6
DASHDOT
 62
     3
 10
175.33456536011209
 20
0.0
 30
0.0
 40
54.0
 50
145.1867039458354
 51
154.98585790803139
  0
ARC
  5
DA
  8
1
  6
DASHDOT
 62
     3
 10
175.33456536011209
 20
0.0
 30
0.0
 40
54.0
 50
25.186703945835369
 51
34.985857908031413
  0
ARC
  5
DB
  8
1
  6
DASHDOT
 62
     3
 10
175.33456536011209
 20
0.0
 30
0.0
 40
54.0
 50
265.18670394583552
 51
274.98585790803128
  0
ARC
  5
DC
  8
1
 62
     7
 10
37.527015954233519
 20
49.650000000000013
 30
0.0
 40
1.9000000000000119
 50
270.0
 51
343.92714083117852
  0
ARC
  5
DD
  8
1
 62
     7
 10
37.527015954233519
 20
56.34999999999998
 30
0.0
 40
1.899999999999985
 50
16.072859168821822
 51
90.0
  0
ARC
  5
DE
  8
1
 62
     7
 10
36.300000000000011
 20
48.050000000000011
 30
0.0
 40
0.3000000000000114
 50
180.0
 51
270.0
  0
ARC
  5
DF
  8
1
 62
     7
 10
36.300000000000011
 20
57.949999999999989
 30
0.0
 40
0.3000000000000114
 50
90.0
 51
180.0
  0
ARC
  5
E0
  8
1
 62
     7
 10
-86.972984045766509
 20
49.650000000000013
 30
0.0
 40
1.9000000000000119
 50
270.0
 51
343.92714083117829
  0
ARC
  5
E1
  8
1
 62
     7
 10
-86.972984045766509
 20
56.34999999999998
 30
0.0
 40
1.9000000000000139
 50
16.07285916882158
 51
90.0
  0
ARC
  5
E2
  8
1
 62
     7
 10
-88.199999999999974
 20
48.050000000000011
 30
0.0
 40
0.3000000000000114
 50
180.0
 51
270.0
  0
ARC
  5
E3
  8
1
 62
     7
 10
-88.199999999999974
 20
57.949999999999989
 30
0.0
 40
0.3000000000000114
 50
90.0
 51
180.0
  0
ARC
  5
E4
  8
1
 62
     7
 10
222.3685905124193
 20
-30.734678751731781
 30
0.0
 40
2.6999999999999491
 50
60.000000000001613
 51
150.0000000000004
  0
ARC
  5
E5
  8
1
 62
     7
 10
216.9992330089558
 20
-27.634678751731801
 30
0.0
 40
2.7000000000000131
 50
330.00000000000051
 51
60.000000000000391
  0
ARC
  5
E6
  8
1
 62
     7
 10
220.09923300895579
 20
-22.26532124826829
 30
0.0
 40
2.6999999999999491
 50
239.99999999999949
 51
330.00000000000011
  0
ARC
  5
E7
  8
1
 62
     7
 10
225.46859051241921
 20
-25.365321248268291
 30
0.0
 40
2.699999999999946
 50
149.99999999999929
 51
240.00000000000179
  0
ARC
  5
E8
  8
1
 62
     7
 10
125.2005402078051
 20
-25.365321248268199
 30
0.0
 40
2.7000000000001201
 50
300.00000000000318
 51
29.999999999998622
  0
ARC
  5
E9
  8
1
 62
     7
 10
130.56989771126871
 20
-22.265321248268211
 30
0.0
 40
2.7000000000000579
 50
210.00000000000111
 51
299.99999999999972
  0
ARC
  5
EA
  8
1
 62
     7
 10
133.6698977112687
 20
-27.634678751731709
 30
0.0
 40
2.6999999999999389
 50
120.0000000000005
 51
210.00000000000139
  0
ARC
  5
EB
  8
1
 62
     7
 10
128.30054020780531
 20
-30.73467875173171
 30
0.0
 40
2.699999999999922
 50
30.000000000000991
 51
120.0000000000045
  0
ARC
  5
EC
  8
1
 62
     7
 10
172.2345653601123
 20
56.099999999999987
 30
0.0
 40
2.699999999999974
 50
270.0
 51
0.0
  0
ARC
  5
ED
  8
1
 62
     7
 10
172.2345653601123
 20
49.900000000000013
 30
0.0
 40
2.700000000000101
 50
0.0
 51
90.0
  0
ARC
  5
EE
  8
1
 62
     7
 10
178.4345653601124
 20
49.900000000000013
 30
0.0
 40
2.699999999999974
 50
90.0
 51
180.0
  0
ARC
  5
EF
  8
1
 62
     7
 10
178.4345653601124
 20
56.099999999999987
 30
0.0
 40
2.700000000000101
 50
180.0
 51
270.0
  0
ARC
  5
F0
  8
1
 62
     7
 10
175.33456536011209
 20
0.0
 30
0.0
 40
9.5000000000000178
 50
105.2575232904564
 51
74.742476709543681
  0
ARC
  5
F1
  8
1
 62
     7
 10
175.33456536011209
 20
-53.0
 30
0.0
 40
5.5
 50
0.0
 51
180.0
  0
ARC
  5
F2
  8
1
 62
     7
 10
129.435218959537
 20
26.5
 30
0.0
 40
5.4999999999999876
 50
239.9999999999998
 51
59.999999999999893
  0
ARC
  5
F3
  8
1
 62
     7
 10
221.2339117606875
 20
26.5
 30
0.0
 40
5.4999999999999813
 50
120.0000000000001
 51
300.00000000000011
  0
ARC
  5
F4
  8
1
 62
     7
 10
25.900000000000119
 20
53.0
 30
0.0
 40
13.999999999999901
 50
343.92714083117761
 51
16.072859168822418
  0
ARC
  5
F5
  8
1
 62
     7
 10
-98.599999999999923
 20
53.0
 30
0.0
 40
13.999999999999931
 50
343.92714083117761
 51
16.07285916882239
  0
CIRCLE
  5
F6
  8
1
 62
     7
 10
175.33456536011209
 20
0.0
 30
0.0
 40
58.5
  0
CIRCLE
  5
F7
  8
1
 62
     7
 10
221.23391176068739
 20
-26.50000000000011
 30
0.0
 40
5.25
  0
CIRCLE
  5
F8
  8
1
 62
     7
 10
129.435218959537
 20
-26.5
 30
0.0
 40
5.2500000000000853
  0
CIRCLE
  5
F9
  8
1
 62
     7
 10
175.33456536011209
 20
53.0
 30
0.0
 40
5.25
  0
CIRCLE
  5
FA
  8
1
 62
     7
 10
128.56919355575261
 20
27.00000000000005
 30
0.0
 40
2.75
  0
CIRCLE
  5
FB
  8
1
 62
     7
 10
222.0999371644721
 20
27.000000000000039
 30
0.0
 40
2.75
  0
CIRCLE
  5
FC
  8
1
 62
     7
 10
175.33456536011209
 20
-54.0
 30
0.0
 40
2.75
  0
CIRCLE
  5
FD
  8
1
 62
     7
 10
175.33456536011209
 20
0.0
 30
0.0
 40
26.0
  0
CIRCLE
  5
FE
  8
1
 62
     7
 10
175.33456536011209
 20
0.0
 30
0.0
 40
19.34999999999998
  0
CIRCLE
  5
FF
  8
1
 62
     7
 10
175.33456536011209
 20
0.0
 30
0.0
 40
17.699999999999982
  0
TEXT
  5
101
  8
1
 62
     7
 10
-117.07086877934979
 20
112.7957330892097
 30
0.0
 40
5.0
  1
RNB 1.6
 41
0.9
  7
SIMPLEX
  0
ENDSEC
  0
EOF
