  0
SECTION
  2
HEADER
  9
$ACADVER
  1
AC1009
  9
$INSBASE
 10
0.0
 20
0.0
 30
0.0
  9
$EXTMIN
 10
-170.6784813404949
 20
-130.16202844671039
 30
0.0
  9
$EXTMAX
 10
360.65454050377821
 20
155.58689648765699
 30
0.0
  9
$LIMMIN
 10
-170.6784813404949
 20
-130.16202844671039
  9
$LIMMAX
 10
360.65454050377809
 20
155.58689648765699
  9
$ORTHOMODE
 70
     0
  9
$REGENMODE
 70
     1
  9
$FILLMODE
 70
     1
  9
$QTEXTMODE
 70
     0
  9
$MIRRTEXT
 70
     1
  9
$DRAGMODE
 70
     2
  9
$LTSCALE
 40
1.0
  9
$OSMODE
 70
    37
  9
$ATTMODE
 70
     1
  9
$TEXTSIZE
 40
3.5
  9
$TRACEWID
 40
0.5
  9
$TEXTSTYLE
  7
STANDARD
  9
$CLAYER
  8
0
  9
$CELTYPE
  6
BYLAYER
  9
$CECOLOR
 62
   256
  9
$DIMSCALE
 40
1.0
  9
$DIMASZ
 40
0.18
  9
$DIMEXO
 40
0.0625
  9
$DIMDLI
 40
0.38
  9
$DIMRND
 40
0.0
  9
$DIMDLE
 40
0.0
  9
$DIMEXE
 40
0.18
  9
$DIMTP
 40
0.0
  9
$DIMTM
 40
0.0
  9
$DIMTXT
 40
0.18
  9
$DIMCEN
 40
0.09
  9
$DIMTSZ
 40
0.0
  9
$DIMTOL
 70
     0
  9
$DIMLIM
 70
     0
  9
$DIMTIH
 70
     1
  9
$DIMTOH
 70
     1
  9
$DIMSE1
 70
     0
  9
$DIMSE2
 70
     0
  9
$DIMTAD
 70
     0
  9
$DIMZIN
 70
     0
  9
$DIMBLK
  1

  9
$DIMASO
 70
     1
  9
$DIMSHO
 70
     1
  9
$DIMPOST
  1

  9
$DIMAPOST
  1

  9
$DIMALT
 70
     0
  9
$DIMALTD
 70
     2
  9
$DIMALTF
 40
25.399999999999999
  9
$DIMLFAC
 40
1.0
  9
$DIMTOFL
 70
     0
  9
$DIMTVP
 40
0.0
  9
$DIMTIX
 70
     0
  9
$DIMSOXD
 70
     0
  9
$DIMSAH
 70
     0
  9
$DIMBLK1
  1

  9
$DIMBLK2
  1

  9
$DIMSTYLE
  2
STANDARD
  9
$DIMCLRD
 70
     0
  9
$DIMCLRE
 70
     0
  9
$DIMCLRT
 70
     0
  9
$DIMTFAC
 40
1.0
  9
$DIMGAP
 40
0.09
  9
$LUNITS
 70
     2
  9
$LUPREC
 70
     4
  9
$SKETCHINC
 40
0.1
  9
$FILLETRAD
 40
2.0
  9
$AUNITS
 70
     0
  9
$AUPREC
 70
     0
  9
$MENU
  1
ACAD
  9
$ELEVATION
 40
0.0
  9
$PELEVATION
 40
0.0
  9
$THICKNESS
 40
0.0
  9
$LIMCHECK
 70
     0
  9
$BLIPMODE
 70
     0
  9
$CHAMFERA
 40
0.0
  9
$CHAMFERB
 40
0.0
  9
$SKPOLY
 70
     0
  9
$TDCREATE
 40
2452098.691121527
  9
$TDUPDATE
 40
2452098.6917998842
  9
$TDINDWG
 40
0.0006796296
  9
$TDUSRTIMER
 40
0.0006796296
  9
$USRTIMER
 70
     1
  9
$ANGBASE
 50
0.0
  9
$ANGDIR
 70
     0
  9
$PDMODE
 70
     0
  9
$PDSIZE
 40
0.0
  9
$PLINEWID
 40
0.0
  9
$COORDS
 70
     1
  9
$SPLFRAME
 70
     0
  9
$SPLINETYPE
 70
     6
  9
$SPLINESEGS
 70
     8
  9
$ATTDIA
 70
     0
  9
$ATTREQ
 70
     1
  9
$HANDLING
 70
 10241
  9
$HANDSEED
  5
105
  9
$SURFTAB1
 70
     6
  9
$SURFTAB2
 70
     6
  9
$SURFTYPE
 70
     6
  9
$SURFU
 70
     6
  9
$SURFV
 70
     6
  9
$UCSNAME
  2

  9
$UCSORG
 10
0.0
 20
0.0
 30
0.0
  9
$UCSXDIR
 10
1.0
 20
0.0
 30
0.0
  9
$UCSYDIR
 10
0.0
 20
1.0
 30
0.0
  9
$PUCSNAME
  2

  9
$PUCSORG
 10
0.0
 20
0.0
 30
0.0
  9
$PUCSXDIR
 10
1.0
 20
0.0
 30
0.0
  9
$PUCSYDIR
 10
0.0
 20
1.0
 30
0.0
  9
$USERI1
 70
     0
  9
$USERI2
 70
     0
  9
$USERI3
 70
     0
  9
$USERI4
 70
     0
  9
$USERI5
 70
     0
  9
$USERR1
 40
0.0
  9
$USERR2
 40
0.0
  9
$USERR3
 40
0.0
  9
$USERR4
 40
0.0
  9
$USERR5
 40
0.0
  9
$WORLDVIEW
 70
     1
  9
$SHADEDGE
 70
     3
  9
$SHADEDIF
 70
    70
  9
$TILEMODE
 70
     1
  9
$MAXACTVP
 70
    64
  9
$PLIMCHECK
 70
     0
  9
$PEXTMIN
 10
1.0000000000000000E+020
 20
1.0000000000000000E+020
 30
1.0000000000000000E+020
  9
$PEXTMAX
 10
-1.0000000000000000E+020
 20
-1.0000000000000000E+020
 30
-1.0000000000000000E+020
  9
$PLIMMIN
 10
0.0
 20
0.0
  9
$PLIMMAX
 10
12.0
 20
9.0
  9
$UNITMODE
 70
     0
  9
$VISRETAIN
 70
     1
  9
$PLINEGEN
 70
     0
  9
$PSLTSCALE
 70
     1
  0
ENDSEC
  0
SECTION
  2
TABLES
  0
TABLE
  2
VPORT
 70
     2
  0
VPORT
  2
*ACTIVE
 70
     0
 10
0.0
 20
0.0
 11
1.0
 21
1.0
 12
-126.6691908212357
 22
138.27132979246761
 13
0.0
 23
0.0
 14
1.0
 24
1.0
 15
0.0
 25
0.0
 16
0.0
 26
0.0
 36
1.0
 17
0.0
 27
0.0
 37
0.0
 40
9.0000004996220468
 41
1.853118712273641
 42
50.0
 43
0.0
 44
0.0
 50
0.0
 51
0.0
 71
     0
 72
   100
 73
     1
 74
     1
 75
     0
 76
     0
 77
     0
 78
     0
  0
ENDTAB
  0
TABLE
  2
LTYPE
 70
     9
  0
LTYPE
  2
CONTINUOUS
 70
     0
  3
Solid line
 72
    65
 73
     0
 40
0.0
  0
LTYPE
  2
BORDER
 70
     0
  3
__ __ . __ __ .
 72
    65
 73
     6
 40
24.469283900723109
 49
6.9912239716351721
 49
-3.495611985817586
 49
6.9912239716351721
 49
-3.495611985817586
 49
0.0
 49
-3.495611985817586
  0
LTYPE
  2
CENTER
 70
     0
  3
____ _ ____ _
 72
    65
 73
     4
 40
27.964895886540681
 49
17.47805992908793
 49
-3.495611985817586
 49
3.495611985817586
 49
-3.495611985817586
  0
LTYPE
  2
DASHDOT
 70
     0
  3
__ . __ . __ .
 72
    65
 73
     4
 40
13.982447943270349
 49
6.9912239716351721
 49
-3.495611985817586
 49
0.0
 49
-3.495611985817586
  0
LTYPE
  2
DASHED
 70
     0
  3
__ __ __ __ __
 72
    65
 73
     2
 40
10.48683595745276
 49
6.9912239716351721
 49
-3.495611985817586
  0
LTYPE
  2
DIVIDE
 70
     0
  3
__ . . __ . . 
 72
    65
 73
     6
 40
17.47805992908793
 49
6.9912239716351721
 49
-3.495611985817586
 49
0.0
 49
-3.495611985817586
 49
0.0
 49
-3.495611985817586
  0
LTYPE
  2
DOT
 70
     0
  3
..............
 72
    65
 73
     4
 40
6.9912239716351721
 49
0.0
 49
-3.495611985817586
 49
0.0
 49
-3.495611985817586
  0
LTYPE
  2
HIDDEN
 70
     0
  3
_ _ _ _ _ _ _
 72
    65
 73
     2
 40
5.243417978726379
 49
3.495611985817586
 49
-1.747805992908793
  0
LTYPE
  2
PHANTOM
 70
     0
  3
_____ _ _ _____ _ _ 
 72
    65
 73
     6
 40
34.95611985817586
 49
17.47805992908793
 49
-3.495611985817586
 49
3.495611985817586
 49
-3.495611985817586
 49
3.495611985817586
 49
-3.495611985817586
  0
ENDTAB
  0
TABLE
  2
LAYER
 70
     2
  0
LAYER
  2
0
 70
     0
 62
     7
  6
CONTINUOUS
  0
LAYER
  2
1
 70
     0
 62
     7
  6
CONTINUOUS
  0
ENDTAB
  0
TABLE
  2
STYLE
 70
     4
  0
STYLE
  2
STANDARD
 70
     0
 40
0.0
 41
1.0
 50
0.0
 71
     0
 42
3.5
  3
txt
  4

  0
STYLE
  2
SIMPLEX
 70
     0
 40
0.0
 41
1.0
 50
0.0
 71
     0
 42
3.5
  3
simplex
  4

  0
STYLE
  2
COMPLEX
 70
     0
 40
0.0
 41
1.0
 50
0.0
 71
     0
 42
3.5
  3
complex
  4

  0
STYLE
  2
ITALIC
 70
     0
 40
0.0
 41
1.0
 50
0.0
 71
     0
 42
3.5
  3
italic
  4

  0
ENDTAB
  0
TABLE
  2
VIEW
 70
     0
  0
ENDTAB
  0
TABLE
  2
UCS
 70
     0
  0
ENDTAB
  0
TABLE
  2
APPID
 70
     1
  0
APPID
  2
ACAD
 70
     0
  0
ENDTAB
  0
TABLE
  2
DIMSTYLE
 70
     1
  0
DIMSTYLE
  2
STANDARD
 70
     0
  3

  4

  5

  6

  7

 40
1.0
 41
0.18
 42
0.0625
 43
0.38
 44
0.18
 45
0.0
 46
0.0
 47
0.0
 48
0.0
140
0.18
141
0.09
142
0.0
143
25.399999999999999
144
1.0
145
0.0
146
1.0
147
0.09
 71
     0
 72
     0
 73
     1
 74
     1
 75
     0
 76
     0
 77
     0
 78
     0
170
     0
171
     2
172
     0
173
     0
174
     0
175
     0
176
     0
177
     0
178
     0
  0
ENDTAB
  0
ENDSEC
  0
SECTION
  2
BLOCKS
  0
BLOCK
  8
0
  2
$MODEL_SPACE
 70
     0
 10
0.0
 20
0.0
 30
0.0
  3
$MODEL_SPACE
  1

  0
ENDBLK
  5
20
  8
0
  0
BLOCK
 67
     1
  8
0
  2
$PAPER_SPACE
 70
     0
 10
0.0
 20
0.0
 30
0.0
  3
$PAPER_SPACE
  1

  0
ENDBLK
  5
1C
 67
     1
  8
0
  0
ENDSEC
  0
SECTION
  2
ENTITIES
  0
LINE
  5
33
  8
1
 62
     7
 10
-113.3784813404949
 20
-75.0
 30
0.0
 11
-103.8784813404949
 21
-75.0
 31
0.0
  0
LINE
  5
34
  8
1
 62
     7
 10
-128.1784813404949
 20
92.5
 30
0.0
 11
-128.6784813404949
 21
92.5
 31
0.0
  0
LINE
  5
35
  8
1
 62
     7
 10
-113.3784813404949
 20
77.5
 30
0.0
 11
-103.8784813404949
 21
77.5
 31
0.0
  0
LINE
  5
36
  8
1
 62
     7
 10
-113.3784813404949
 20
75.0
 30
0.0
 11
-103.8784813404949
 21
75.0
 31
0.0
  0
LINE
  5
37
  8
1
 62
     3
 10
-94.678481340494997
 20
-0.0000000000000071
 30
0.0
 11
-89.678481340495026
 21
-0.0000000000000071
 31
0.0
  0
LINE
  5
38
  8
1
 62
     7
 10
-165.6784813404949
 20
-93.499999999999986
 30
0.0
 11
-128.6784813404949
 21
-93.499999999999986
 31
0.0
  0
LINE
  5
39
  8
1
 62
     7
 10
-128.6784813404949
 20
93.499999999999986
 30
0.0
 11
-165.6784813404949
 21
93.499999999999986
 31
0.0
  0
LINE
  5
3A
  8
1
 62
     7
 10
-144.27848134049501
 20
-113.5
 30
0.0
 11
-144.27848134049501
 21
-118.5
 31
0.0
  0
LINE
  5
3B
  8
1
 62
     7
 10
-144.47848134049491
 20
-118.5
 30
0.0
 11
-144.47848134049491
 21
-113.5
 31
0.0
  0
LINE
  5
3C
  8
1
 62
     7
 10
-144.6784813404949
 20
-113.5
 30
0.0
 11
-144.6784813404949
 21
-118.5
 31
0.0
  0
LINE
  5
3D
  8
1
 62
     7
 10
-144.878481340495
 20
-118.5
 30
0.0
 11
-144.878481340495
 21
-113.5
 31
0.0
  0
LINE
  5
3E
  8
1
 62
     7
 10
-145.0784813404949
 20
-113.5
 30
0.0
 11
-145.0784813404949
 21
-118.5
 31
0.0
  0
LINE
  5
3F
  8
1
 62
     7
 10
-145.6784813404949
 20
-113.5
 30
0.0
 11
-143.6784813404949
 21
-113.5
 31
0.0
  0
LINE
  5
40
  8
1
 62
     7
 10
-143.6784813404949
 20
-113.5
 30
0.0
 11
-143.6784813404949
 21
-93.499999999999986
 31
0.0
  0
LINE
  5
41
  8
1
 62
     7
 10
-145.6784813404949
 20
-93.499999999999986
 30
0.0
 11
-145.6784813404949
 21
-113.5
 31
0.0
  0
LINE
  5
42
  8
1
 62
     7
 10
-106.1784813404949
 20
-75.0
 30
0.0
 11
-106.1784813404949
 21
75.0
 31
0.0
  0
LINE
  5
43
  8
1
 62
     7
 10
-103.8784813404949
 20
93.499999999999986
 30
0.0
 11
-94.678481340494997
 21
93.499999999999986
 31
0.0
  0
LINE
  5
44
  8
1
 62
     7
 10
-113.3784813404949
 20
93.499999999999986
 30
0.0
 11
-128.1784813404949
 21
93.499999999999986
 31
0.0
  0
LINE
  5
45
  8
1
 62
     7
 10
-128.1784813404949
 20
93.499999999999986
 30
0.0
 11
-128.1784813404949
 21
-93.499999999999986
 31
0.0
  0
LINE
  5
46
  8
1
 62
     7
 10
-128.1784813404949
 20
-93.499999999999986
 30
0.0
 11
-113.3784813404949
 21
-93.499999999999986
 31
0.0
  0
LINE
  5
47
  8
1
 62
     7
 10
-103.8784813404949
 20
-93.499999999999986
 30
0.0
 11
-94.678481340494997
 21
-93.499999999999986
 31
0.0
  0
LINE
  5
48
  8
1
 62
     7
 10
-94.678481340494997
 20
-93.499999999999986
 30
0.0
 11
-94.678481340494997
 21
93.499999999999986
 31
0.0
  0
LINE
  5
49
  8
1
 62
     3
 10
-170.6784813404949
 20
-0.0000000000000071
 30
0.0
 11
-165.6784813404949
 21
0.0
 31
0.0
  0
LINE
  5
4A
  8
1
 62
     7
 10
-111.0784813404949
 20
-75.0
 30
0.0
 11
-111.0784813404949
 21
75.0
 31
0.0
  0
LINE
  5
4B
  8
1
 62
     7
 10
-94.678481340494997
 20
92.700000000000017
 30
0.0
 11
-92.678481340494983
 21
92.700000000000017
 31
0.0
  0
LINE
  5
4C
  8
1
 62
     7
 10
-92.678481340494983
 20
77.300000000000026
 30
0.0
 11
-94.678481340494997
 21
77.300000000000026
 31
0.0
  0
LINE
  5
4D
  8
1
 62
     7
 10
-94.678481340494997
 20
83.0
 30
0.0
 11
-92.678481340494983
 21
85.0
 31
0.0
  0
LINE
  5
4E
  8
1
 62
     7
 10
-92.678481340494983
 20
77.300000000000026
 30
0.0
 11
-92.678481340494983
 21
92.700000000000017
 31
0.0
  0
LINE
  5
4F
  8
1
 62
     7
 10
-94.678481340494997
 20
85.0
 30
0.0
 11
-92.678481340494983
 21
87.0
 31
0.0
  0
LINE
  5
50
  8
1
 62
     7
 10
-92.678481340494983
 20
91.5
 30
0.0
 11
-85.178481340495011
 21
91.5
 31
0.0
  0
LINE
  5
51
  8
1
 62
     7
 10
-85.178481340495011
 20
91.5
 30
0.0
 11
-84.678481340495026
 21
90.633974596215552
 31
0.0
  0
LINE
  5
52
  8
1
 62
     7
 10
-84.678481340495026
 20
90.633974596215552
 30
0.0
 11
-84.678481340495026
 21
79.366025403784462
 31
0.0
  0
LINE
  5
53
  8
1
 62
     7
 10
-84.678481340495026
 20
79.366025403784462
 30
0.0
 11
-85.178481340495011
 21
78.5
 31
0.0
  0
LINE
  5
54
  8
1
 62
     7
 10
-85.178481340495011
 20
78.5
 30
0.0
 11
-92.678481340494983
 21
78.5
 31
0.0
  0
LINE
  5
55
  8
1
 62
     7
 10
-85.178481340495011
 20
91.5
 30
0.0
 11
-85.178481340495011
 21
78.5
 31
0.0
  0
LINE
  5
56
  8
1
 62
     7
 10
-103.8784813404949
 20
92.5
 30
0.0
 11
-113.3784813404949
 21
92.5
 31
0.0
  0
LINE
  5
57
  8
1
 62
     7
 10
-128.6784813404949
 20
77.5
 30
0.0
 11
-128.1784813404949
 21
77.5
 31
0.0
  0
LINE
  5
58
  8
1
 62
     7
 10
-103.8784813404949
 20
75.0
 30
0.0
 11
-103.8784813404949
 21
93.499999999999986
 31
0.0
  0
LINE
  5
59
  8
1
 62
     7
 10
-128.6784813404949
 20
-93.499999999999986
 30
0.0
 11
-128.6784813404949
 21
93.499999999999986
 31
0.0
  0
LINE
  5
5A
  8
1
 62
     7
 10
-165.6784813404949
 20
93.499999999999986
 30
0.0
 11
-165.6784813404949
 21
-93.499999999999986
 31
0.0
  0
LINE
  5
5B
  8
1
 62
     7
 10
-113.3784813404949
 20
-93.499999999999986
 30
0.0
 11
-113.3784813404949
 21
93.499999999999986
 31
0.0
  0
LINE
  5
5C
  8
1
 62
     7
 10
-103.8784813404949
 20
-93.499999999999986
 30
0.0
 11
-103.8784813404949
 21
75.0
 31
0.0
  0
LINE
  5
5D
  8
1
 62
     3
 10
71.0
 20
-0.0000000000000071
 30
0.0
 11
76.0
 21
-0.0000000000000071
 31
0.0
  0
LINE
  5
5E
  8
1
 62
     7
 10
36.999999999999993
 20
93.499999999999986
 30
0.0
 11
37.0
 21
26.0
 31
0.0
  0
LINE
  5
5F
  8
1
  6
DASHDOT
 62
     3
 10
267.15454050377809
 20
-77.499999999999972
 30
0.0
 11
267.15454050377809
 21
-92.499999999999957
 31
0.0
  0
LINE
  5
60
  8
1
  6
DASHDOT
 62
     3
 10
200.0375717104842
 20
38.749999999999993
 30
0.0
 11
187.04719065371759
 21
46.25
 31
0.0
  0
LINE
  5
61
  8
1
 62
     3
 10
267.15454050377821
 20
7.2460467494591967
 30
0.0
 11
267.15454050377821
 21
-7.2460467494592038
 31
0.0
  0
LINE
  5
62
  8
1
 62
     3
 10
274.40058725323729
 20
-0.0000000000000071
 30
0.0
 11
259.90849375431901
 21
-0.0000000000000071
 31
0.0
  0
LINE
  5
63
  8
1
  6
DASHDOT
 62
     3
 10
334.2715092970721
 20
38.749999999999957
 30
0.0
 11
347.26189035383862
 21
46.249999999999957
 31
0.0
  0
LINE
  5
64
  8
1
 62
     7
 10
61.0
 20
29.699999999999989
 30
0.0
 11
61.0
 21
-29.699999999999999
 31
0.0
  0
LINE
  5
65
  8
1
 62
     7
 10
52.299999999999983
 20
-29.699999999999999
 30
0.0
 11
52.299999999999983
 21
-57.5
 31
0.0
  0
LINE
  5
66
  8
1
 62
     7
 10
0.0
 20
-93.499999999999986
 30
0.0
 11
36.999999999999993
 21
-93.499999999999986
 31
0.0
  0
LINE
  5
67
  8
1
 62
     7
 10
36.999999999999993
 20
93.499999999999986
 30
0.0
 11
0.0
 21
93.499999999999986
 31
0.0
  0
LINE
  5
68
  8
1
 62
     7
 10
37.0
 20
31.0
 30
0.0
 11
0.0
 21
31.0
 31
0.0
  0
LINE
  5
69
  8
1
 62
     7
 10
0.0
 20
-31.0
 30
0.0
 11
37.0
 21
-31.0
 31
0.0
  0
LINE
  5
6A
  8
1
 62
     7
 10
21.399999999999981
 20
-113.5
 30
0.0
 11
21.399999999999981
 21
-118.5
 31
0.0
  0
LINE
  5
6B
  8
1
 62
     7
 10
21.199999999999982
 20
-118.5
 30
0.0
 11
21.199999999999982
 21
-113.5
 31
0.0
  0
LINE
  5
6C
  8
1
 62
     7
 10
20.999999999999989
 20
-113.5
 30
0.0
 11
20.999999999999989
 21
-118.5
 31
0.0
  0
LINE
  5
6D
  8
1
 62
     7
 10
20.799999999999969
 20
-118.5
 30
0.0
 11
20.799999999999969
 21
-113.5
 31
0.0
  0
LINE
  5
6E
  8
1
 62
     7
 10
20.59999999999998
 20
-113.5
 30
0.0
 11
20.59999999999998
 21
-118.5
 31
0.0
  0
LINE
  5
6F
  8
1
 62
     7
 10
19.999999999999989
 20
-113.5
 30
0.0
 11
21.999999999999979
 21
-113.5
 31
0.0
  0
LINE
  5
70
  8
1
 62
     7
 10
21.999999999999979
 20
-113.5
 30
0.0
 11
21.999999999999979
 21
-93.499999999999986
 31
0.0
  0
LINE
  5
71
  8
1
 62
     7
 10
19.999999999999989
 20
-93.499999999999986
 30
0.0
 11
19.999999999999989
 21
-113.5
 31
0.0
  0
LINE
  5
72
  8
1
 62
     7
 10
59.499999999999993
 20
-75.0
 30
0.0
 11
59.5
 21
-26.400000000000009
 31
0.0
  0
LINE
  5
73
  8
1
 62
     7
 10
51.799999999999983
 20
75.0
 30
0.0
 11
62.299999999999983
 21
75.0
 31
0.0
  0
LINE
  5
74
  8
1
 62
     7
 10
54.599999999999987
 20
-27.0
 30
0.0
 11
59.5
 21
-27.0
 31
0.0
  0
LINE
  5
75
  8
1
 62
     7
 10
54.599999999999987
 20
27.0
 30
0.0
 11
59.5
 21
27.0
 31
0.0
  0
LINE
  5
76
  8
1
 62
     7
 10
54.599999999999987
 20
30.599999999999991
 30
0.0
 11
59.5
 21
30.599999999999991
 31
0.0
  0
LINE
  5
77
  8
1
 62
     7
 10
54.599999999999987
 20
-30.600000000000001
 30
0.0
 11
59.5
 21
-30.600000000000001
 31
0.0
  0
LINE
  5
78
  8
1
 62
     7
 10
62.299999999999983
 20
57.5
 30
0.0
 11
62.299999999999983
 21
75.0
 31
0.0
  0
LINE
  5
79
  8
1
 62
     7
 10
62.299999999999983
 20
57.5
 30
0.0
 11
59.5
 21
57.5
 31
0.0
  0
LINE
  5
7A
  8
1
 62
     7
 10
54.599999999999987
 20
57.5
 30
0.0
 11
51.799999999999983
 21
57.5
 31
0.0
  0
LINE
  5
7B
  8
1
 62
     7
 10
51.799999999999983
 20
57.5
 30
0.0
 11
51.799999999999983
 21
75.0
 31
0.0
  0
LINE
  5
7C
  8
1
 62
     7
 10
59.5
 20
-57.5
 30
0.0
 11
62.299999999999983
 21
-57.5
 31
0.0
  0
LINE
  5
7D
  8
1
 62
     7
 10
62.299999999999983
 20
-57.5
 30
0.0
 11
62.299999999999983
 21
-75.0
 31
0.0
  0
LINE
  5
7E
  8
1
 62
     7
 10
51.799999999999983
 20
-75.0
 30
0.0
 11
62.299999999999983
 21
-75.0
 31
0.0
  0
LINE
  5
7F
  8
1
 62
     7
 10
51.799999999999983
 20
-75.0
 30
0.0
 11
51.799999999999983
 21
-57.5
 31
0.0
  0
LINE
  5
80
  8
1
 62
     7
 10
51.799999999999983
 20
-57.5
 30
0.0
 11
54.599999999999987
 21
-57.5
 31
0.0
  0
LINE
  5
81
  8
1
 62
     7
 10
61.799999999999983
 20
-57.5
 30
0.0
 11
61.799999999999983
 21
57.5
 31
0.0
  0
LINE
  5
82
  8
1
 62
     7
 10
52.299999999999983
 20
57.5
 30
0.0
 11
52.299999999999983
 21
29.699999999999989
 31
0.0
  0
LINE
  5
83
  8
1
 62
     7
 10
52.299999999999983
 20
75.0
 30
0.0
 11
52.299999999999983
 21
77.5
 31
0.0
  0
LINE
  5
84
  8
1
 62
     7
 10
61.799999999999983
 20
93.499999999999986
 30
0.0
 11
71.0
 21
93.499999999999986
 31
0.0
  0
LINE
  5
85
  8
1
 62
     7
 10
52.299999999999983
 20
93.499999999999986
 30
0.0
 11
37.499999999999993
 21
93.499999999999986
 31
0.0
  0
LINE
  5
86
  8
1
 62
     7
 10
37.499999999999993
 20
93.499999999999986
 30
0.0
 11
37.499999999999993
 21
92.5
 31
0.0
  0
LINE
  5
87
  8
1
 62
     7
 10
37.499999999999993
 20
-93.499999999999986
 30
0.0
 11
52.299999999999983
 21
-93.499999999999986
 31
0.0
  0
LINE
  5
88
  8
1
 62
     7
 10
61.799999999999983
 20
-93.499999999999986
 30
0.0
 11
71.0
 21
-93.499999999999986
 31
0.0
  0
LINE
  5
89
  8
1
 62
     7
 10
71.0
 20
-93.499999999999986
 30
0.0
 11
71.0
 21
93.499999999999986
 31
0.0
  0
LINE
  5
8A
  8
1
 62
     7
 10
71.0
 20
-47.5
 30
0.0
 11
61.799999999999983
 21
-47.5
 31
0.0
  0
LINE
  5
8B
  8
1
 62
     7
 10
71.0
 20
47.5
 30
0.0
 11
61.799999999999983
 21
47.5
 31
0.0
  0
LINE
  5
8C
  8
1
 62
     7
 10
37.5
 20
31.0
 30
0.0
 11
52.299999999999983
 21
31.0
 31
0.0
  0
LINE
  5
8D
  8
1
 62
     7
 10
37.5
 20
-31.0
 30
0.0
 11
52.299999999999983
 21
-31.0
 31
0.0
  0
LINE
  5
8E
  8
1
 62
     3
 10
-5.0
 20
-0.0000000000000071
 30
0.0
 11
0.0
 21
0.0
 31
0.0
  0
LINE
  5
8F
  8
1
 62
     7
 10
21.0
 20
-26.000000000000011
 30
0.0
 11
21.0
 21
26.0
 31
0.0
  0
LINE
  5
90
  8
1
 62
     7
 10
21.0
 20
26.0
 30
0.0
 11
52.0
 21
26.0
 31
0.0
  0
LINE
  5
91
  8
1
 62
     7
 10
52.0
 20
26.0
 30
0.0
 11
52.0
 21
29.699999999999989
 31
0.0
  0
LINE
  5
92
  8
1
 62
     7
 10
52.0
 20
29.699999999999989
 30
0.0
 11
61.0
 21
29.699999999999989
 31
0.0
  0
LINE
  5
93
  8
1
 62
     7
 10
61.0
 20
-29.699999999999999
 30
0.0
 11
52.0
 21
-29.699999999999999
 31
0.0
  0
LINE
  5
94
  8
1
 62
     7
 10
52.0
 20
-29.699999999999999
 30
0.0
 11
52.0
 21
-26.000000000000011
 31
0.0
  0
LINE
  5
95
  8
1
 62
     7
 10
52.0
 20
-26.000000000000011
 30
0.0
 11
21.0
 21
-26.000000000000011
 31
0.0
  0
LINE
  5
96
  8
1
 62
     7
 10
21.0
 20
19.5
 30
0.0
 11
61.0
 21
19.5
 31
0.0
  0
LINE
  5
97
  8
1
 62
     7
 10
21.0
 20
-16.0
 30
0.0
 11
61.0
 21
-16.0
 31
0.0
  0
LINE
  5
98
  8
1
 62
     7
 10
52.0
 20
26.399999999999991
 30
0.0
 11
61.0
 21
26.399999999999991
 31
0.0
  0
LINE
  5
99
  8
1
 62
     7
 10
52.0
 20
-26.400000000000009
 30
0.0
 11
61.0
 21
-26.400000000000009
 31
0.0
  0
LINE
  5
9A
  8
1
 62
     7
 10
59.5
 20
26.399999999999991
 30
0.0
 11
59.499999999999993
 21
75.0
 31
0.0
  0
LINE
  5
9B
  8
1
 62
     7
 10
54.599999999999987
 20
26.399999999999991
 30
0.0
 11
54.599999999999987
 21
75.0
 31
0.0
  0
LINE
  5
9C
  8
1
 62
     7
 10
54.599999999999987
 20
-26.400000000000009
 30
0.0
 11
54.599999999999987
 21
-75.0
 31
0.0
  0
LINE
  5
9D
  8
1
 62
     7
 10
272.15454050377821
 20
15.198684153570669
 30
0.0
 11
272.15454050377821
 21
19.5
 31
0.0
  0
LINE
  5
9E
  8
1
 62
     7
 10
272.15454050377821
 20
19.5
 30
0.0
 11
262.15454050377821
 21
19.5
 31
0.0
  0
LINE
  5
9F
  8
1
 62
     7
 10
262.15454050377821
 20
19.5
 30
0.0
 11
262.15454050377821
 21
15.198684153570669
 31
0.0
  0
LINE
  5
A0
  8
1
 62
     7
 10
276.15454050377821
 20
-93.065836911296273
 30
0.0
 11
276.15454050377821
 21
-85.0
 31
0.0
  0
LINE
  5
A1
  8
1
 62
     7
 10
258.15454050377821
 20
-85.0
 30
0.0
 11
258.15454050377821
 21
-93.065836911296316
 31
0.0
  0
LINE
  5
A2
  8
1
 62
     7
 10
345.26669982545531
 20
34.705771365940009
 30
0.0
 11
352.2519194934203
 21
38.738689821588167
 31
0.0
  0
LINE
  5
A3
  8
1
 62
     7
 10
343.2519194934203
 20
54.327147089708063
 30
0.0
 11
336.26669982545531
 21
50.294228634059927
 31
0.0
  0
LINE
  5
A4
  8
1
 62
     7
 10
198.04238118210091
 20
50.294228634059962
 30
0.0
 11
191.057161514136
 21
54.32714708970812
 31
0.0
  0
LINE
  5
A5
  8
1
 62
     7
 10
182.057161514136
 20
38.73868982158821
 30
0.0
 11
189.04238118210091
 21
34.705771365940073
 31
0.0
  0
LINE
  5
A6
  8
1
 62
     7
 10
71.0
 20
92.700000000000017
 30
0.0
 11
73.0
 21
92.700000000000017
 31
0.0
  0
LINE
  5
A7
  8
1
 62
     7
 10
73.0
 20
77.300000000000026
 30
0.0
 11
71.0
 21
77.300000000000026
 31
0.0
  0
LINE
  5
A8
  8
1
 62
     7
 10
71.0
 20
83.0
 30
0.0
 11
73.0
 21
85.0
 31
0.0
  0
LINE
  5
A9
  8
1
 62
     7
 10
73.0
 20
77.300000000000026
 30
0.0
 11
73.0
 21
92.700000000000017
 31
0.0
  0
LINE
  5
AA
  8
1
 62
     7
 10
71.0
 20
85.0
 30
0.0
 11
73.0
 21
87.0
 31
0.0
  0
LINE
  5
AB
  8
1
 62
     7
 10
73.0
 20
91.5
 30
0.0
 11
80.5
 21
91.5
 31
0.0
  0
LINE
  5
AC
  8
1
 62
     7
 10
80.5
 20
91.5
 30
0.0
 11
81.0
 21
90.633974596215552
 31
0.0
  0
LINE
  5
AD
  8
1
 62
     7
 10
81.0
 20
90.633974596215552
 30
0.0
 11
81.0
 21
79.366025403784462
 31
0.0
  0
LINE
  5
AE
  8
1
 62
     7
 10
81.0
 20
79.366025403784462
 30
0.0
 11
80.5
 21
78.5
 31
0.0
  0
LINE
  5
AF
  8
1
 62
     7
 10
80.5
 20
78.5
 30
0.0
 11
73.0
 21
78.5
 31
0.0
  0
LINE
  5
B0
  8
1
 62
     7
 10
80.5
 20
91.5
 30
0.0
 11
80.5
 21
78.5
 31
0.0
  0
LINE
  5
B1
  8
1
 62
     7
 10
61.799999999999983
 20
92.5
 30
0.0
 11
36.999999999999993
 21
92.5
 31
0.0
  0
LINE
  5
B2
  8
1
 62
     7
 10
36.999999999999993
 20
77.5
 30
0.0
 11
61.799999999999983
 21
77.5
 31
0.0
  0
LINE
  5
B3
  8
1
 62
     7
 10
61.799999999999983
 20
75.0
 30
0.0
 11
61.799999999999983
 21
93.499999999999986
 31
0.0
  0
LINE
  5
B4
  8
1
 62
     7
 10
52.299999999999983
 20
76.90000000000002
 30
0.0
 11
37.5
 21
76.90000000000002
 31
0.0
  0
LINE
  5
B5
  8
1
 62
     7
 10
37.5
 20
26.0
 30
0.0
 11
37.499999999999993
 21
77.5
 31
0.0
  0
LINE
  5
B6
  8
1
 62
     7
 10
52.299999999999983
 20
92.5
 30
0.0
 11
52.299999999999983
 21
93.499999999999986
 31
0.0
  0
LINE
  5
B7
  8
1
 62
     7
 10
37.0
 20
-80.500000000000014
 30
0.0
 11
0.0
 21
-80.500000000000014
 31
0.0
  0
LINE
  5
B8
  8
1
 62
     7
 10
37.0
 20
-26.0
 30
0.0
 11
36.999999999999993
 21
-93.499999999999986
 31
0.0
  0
LINE
  5
B9
  8
1
 62
     7
 10
0.0
 20
93.499999999999986
 30
0.0
 11
0.0
 21
-93.499999999999986
 31
0.0
  0
LINE
  5
BA
  8
1
 62
     7
 10
0.0
 20
-89.500000000000014
 30
0.0
 11
37.0
 21
-89.500000000000014
 31
0.0
  0
LINE
  5
BB
  8
1
 62
     7
 10
37.5
 20
-76.000000000000014
 30
0.0
 11
52.299999999999983
 21
-76.000000000000014
 31
0.0
  0
LINE
  5
BC
  8
1
 62
     7
 10
37.499999999999993
 20
-93.499999999999986
 30
0.0
 11
37.5
 21
-26.0
 31
0.0
  0
LINE
  5
BD
  8
1
 62
     7
 10
52.299999999999983
 20
-93.499999999999986
 30
0.0
 11
52.299999999999983
 21
-75.0
 31
0.0
  0
LINE
  5
BE
  8
1
 62
     7
 10
61.799999999999983
 20
-76.000000000000014
 30
0.0
 11
71.0
 21
-76.000000000000014
 31
0.0
  0
LINE
  5
BF
  8
1
 62
     7
 10
61.799999999999983
 20
-93.499999999999986
 30
0.0
 11
61.799999999999983
 21
-75.0
 31
0.0
  0
LINE
  5
C0
  8
1
  6
DASHDOT
 62
     3
 10
-5.0
 20
-85.000000000000014
 30
0.0
 11
76.0
 21
-85.000000000000014
 31
0.0
  0
LINE
  5
C1
  8
1
 62
     7
 10
267.15454050377821
 20
81.535898384862236
 30
0.0
 11
270.15454050377821
 21
83.267949192431104
 31
0.0
  0
LINE
  5
C2
  8
1
 62
     7
 10
270.15454050377821
 20
83.267949192431104
 30
0.0
 11
270.15454050377821
 21
86.732050807568854
 31
0.0
  0
LINE
  5
C3
  8
1
 62
     7
 10
270.15454050377821
 20
86.732050807568854
 30
0.0
 11
267.15454050377821
 21
88.464101615137764
 31
0.0
  0
LINE
  5
C4
  8
1
 62
     7
 10
267.15454050377821
 20
88.464101615137764
 30
0.0
 11
264.15454050377821
 21
86.732050807568854
 31
0.0
  0
LINE
  5
C5
  8
1
 62
     7
 10
264.15454050377821
 20
86.732050807568854
 30
0.0
 11
264.15454050377821
 21
83.267949192431132
 31
0.0
  0
LINE
  5
C6
  8
1
 62
     7
 10
264.15454050377821
 20
83.267949192431132
 30
0.0
 11
267.15454050377821
 21
81.535898384862236
 31
0.0
  0
LINE
  5
C7
  8
1
 62
     7
 10
196.5423811821008
 20
-44.232050807568882
 30
0.0
 11
196.54238118210091
 21
-40.767949192431118
 31
0.0
  0
LINE
  5
C8
  8
1
 62
     7
 10
193.54238118210091
 20
-45.964101615137729
 30
0.0
 11
196.5423811821008
 21
-44.232050807568882
 31
0.0
  0
LINE
  5
C9
  8
1
 62
     7
 10
190.5423811821008
 20
-44.232050807568861
 30
0.0
 11
193.54238118210091
 21
-45.964101615137729
 31
0.0
  0
LINE
  5
CA
  8
1
 62
     7
 10
190.54238118210091
 20
-40.767949192431111
 30
0.0
 11
190.5423811821008
 21
-44.232050807568861
 31
0.0
  0
LINE
  5
CB
  8
1
 62
     7
 10
193.54238118210091
 20
-39.035898384862207
 30
0.0
 11
190.54238118210091
 21
-40.767949192431111
 31
0.0
  0
LINE
  5
CC
  8
1
 62
     7
 10
196.54238118210091
 20
-40.767949192431118
 30
0.0
 11
193.54238118210091
 21
-39.035898384862207
 31
0.0
  0
LINE
  5
CD
  8
1
 62
     7
 10
340.76669982545531
 20
-39.035898384862328
 30
0.0
 11
337.76669982545531
 21
-40.767949192431203
 31
0.0
  0
LINE
  5
CE
  8
1
 62
     7
 10
343.76669982545519
 20
-40.767949192431203
 30
0.0
 11
340.76669982545531
 21
-39.035898384862328
 31
0.0
  0
LINE
  5
CF
  8
1
 62
     7
 10
343.76669982545519
 20
-44.23205080756896
 30
0.0
 11
343.76669982545519
 21
-40.767949192431203
 31
0.0
  0
LINE
  5
D0
  8
1
 62
     7
 10
340.76669982545531
 20
-45.964101615137828
 30
0.0
 11
343.76669982545519
 21
-44.23205080756896
 31
0.0
  0
LINE
  5
D1
  8
1
 62
     7
 10
337.76669982545531
 20
-44.23205080756896
 30
0.0
 11
340.76669982545531
 21
-45.964101615137828
 31
0.0
  0
LINE
  5
D2
  8
1
 62
     7
 10
337.76669982545531
 20
-40.767949192431203
 30
0.0
 11
337.76669982545531
 21
-44.23205080756896
 31
0.0
  0
LINE
  5
D3
  8
1
 62
     7
 10
302.51009943699881
 20
-126.5395576415563
 30
0.0
 11
303.28655657230638
 21
-129.43733512042351
 31
0.0
  0
LINE
  5
D4
  8
1
 62
     7
 10
303.09337140704849
 20
-129.489098929444
 30
0.0
 11
302.3169142717411
 21
-126.5913214505768
 31
0.0
  0
LINE
  5
D5
  8
1
 62
     7
 10
302.1237291064831
 20
-126.6430852595973
 30
0.0
 11
302.90018624179078
 21
-129.54086273846451
 31
0.0
  0
LINE
  5
D6
  8
1
 62
     7
 10
302.707001076533
 20
-129.592626547485
 30
0.0
 11
301.93054394122532
 21
-126.6948490686178
 31
0.0
  0
LINE
  5
D7
  8
1
 62
     7
 10
301.73735877596761
 20
-126.7466128776383
 30
0.0
 11
302.51381591127512
 21
-129.64439035650551
 31
0.0
  0
LINE
  5
D8
  8
1
 62
     7
 10
301.35470491972831
 20
-129.95497321062851
 30
0.0
 11
300.57824778442063
 21
-127.0571957317613
 31
0.0
  0
LINE
  5
D9
  8
1
 62
     7
 10
300.3850626191628
 20
-127.1089595407818
 30
0.0
 11
301.16151975447042
 21
-130.00673701964891
 31
0.0
  0
LINE
  5
DA
  8
1
 62
     7
 10
300.9683345892127
 20
-130.05850082866939
 30
0.0
 11
300.19187745390508
 21
-127.1607233498023
 31
0.0
  0
LINE
  5
DB
  8
1
 62
     7
 10
299.99869228864731
 20
-127.2124871588228
 30
0.0
 11
300.77514942395482
 21
-130.11026463768991
 31
0.0
  0
LINE
  5
DC
  8
1
 62
     7
 10
300.5819642586971
 20
-130.16202844671039
 30
0.0
 11
299.80550712338948
 21
-127.2642509678433
 31
0.0
  0
LINE
  5
DD
  8
1
 62
     7
 10
303.08965493277231
 20
-126.3842662144948
 30
0.0
 11
293.28043600376458
 21
-89.775762788871873
 31
0.0
  0
LINE
  5
DE
  8
1
 62
     7
 10
289.41673269860831
 20
-90.811038969281967
 30
0.0
 11
299.22595162761593
 21
-127.41954239490479
 31
0.0
  0
LINE
  5
DF
  8
1
 62
     7
 10
301.15780328019417
 20
-126.9019043046998
 30
0.0
 11
291.35412122086382
 21
-90.314064758027897
 31
0.0
  0
LINE
  5
E0
  8
1
 62
     7
 10
303.08965493277231
 20
-126.3842662144948
 30
0.0
 11
299.22595162761593
 21
-127.41954239490479
 31
0.0
  0
LINE
  5
E1
  8
1
 62
     7
 10
61.0
 20
16.0
 30
0.0
 11
21.0
 21
16.0
 31
0.0
  0
ARC
  5
E2
  8
1
  6
DASHDOT
 62
     3
 10
267.15454050377821
 20
-0.0000000000000071
 30
0.0
 40
85.000000000000071
 50
264.93897408961197
 51
275.06102591038768
  0
ARC
  5
E3
  8
1
  6
DASHDOT
 62
     3
 10
267.15454050377821
 20
-0.0000000000000071
 30
0.0
 40
85.000000000000028
 50
144.93897408961209
 51
155.06102591038791
  0
ARC
  5
E4
  8
1
  6
DASHDOT
 62
     3
 10
267.15454050377821
 20
-0.0000000000000071
 30
0.0
 40
85.000000000000014
 50
24.938974089612142
 51
35.061025910387862
  0
ARC
  5
E5
  8
1
 62
     7
 10
267.15454050377821
 20
-0.0000000000000071
 30
0.0
 40
16.000000000000011
 50
108.209956864283
 51
71.790043135717013
  0
ARC
  5
E6
  8
1
 62
     7
 10
267.15454050377821
 20
-85.000000000000014
 30
0.0
 40
9.0
 50
0.0
 51
180.0
  0
ARC
  5
E7
  8
1
 62
     7
 10
340.76669982545531
 20
42.499999999999957
 30
0.0
 40
9.0
 50
119.9999999999999
 51
299.99999999999989
  0
ARC
  5
E8
  8
1
 62
     7
 10
193.54238118210091
 20
42.5
 30
0.0
 40
8.9999999999999876
 50
239.99999999999989
 51
60.000000000000021
  0
CIRCLE
  5
E9
  8
1
 62
     7
 10
267.15454050377821
 20
-0.0000000000000071
 30
0.0
 40
26.399999999999981
  0
CIRCLE
  5
EA
  8
1
 62
     7
 10
267.15454050377821
 20
-0.0000000000000071
 30
0.0
 40
29.699999999999989
  0
CIRCLE
  5
EB
  8
1
 62
     7
 10
267.15454050377821
 20
-0.0000000000000071
 30
0.0
 40
47.5
  0
CIRCLE
  5
EC
  8
1
 62
     7
 10
267.15454050377821
 20
-85.000000000000014
 30
0.0
 40
4.5
  0
CIRCLE
  5
ED
  8
1
 62
     7
 10
340.76669982545531
 20
42.499999999999957
 30
0.0
 40
4.5
  0
CIRCLE
  5
EE
  8
1
 62
     7
 10
193.54238118210091
 20
42.5
 30
0.0
 40
4.5
  0
CIRCLE
  5
EF
  8
1
 62
     7
 10
267.15454050377821
 20
85.0
 30
0.0
 40
6.5
  0
CIRCLE
  5
F0
  8
1
 62
     7
 10
267.15454050377821
 20
85.0
 30
0.0
 40
7.6999999999999869
  0
CIRCLE
  5
F1
  8
1
 62
     7
 10
193.54238118210091
 20
-42.499999999999993
 30
0.0
 40
7.7000000000001023
  0
CIRCLE
  5
F2
  8
1
 62
     7
 10
193.54238118210091
 20
-42.499999999999993
 30
0.0
 40
6.5
  0
CIRCLE
  5
F3
  8
1
 62
     7
 10
340.76669982545531
 20
-42.500000000000071
 30
0.0
 40
7.700000000000216
  0
CIRCLE
  5
F4
  8
1
 62
     7
 10
340.76669982545531
 20
-42.500000000000071
 30
0.0
 40
6.5000000000001696
  0
CIRCLE
  5
F5
  8
1
 62
     7
 10
267.15454050377821
 20
-0.0000000000000071
 30
0.0
 40
93.499999999999986
  0
CIRCLE
  5
F6
  8
1
 62
     7
 10
207.05046410292161
 20
-60.104076400856542
 30
0.0
 40
2.3999999999999768
  0
CIRCLE
  5
F7
  8
1
 62
     3
 10
207.05046410292161
 20
-60.104076400856542
 30
0.0
 40
3.0
  0
CIRCLE
  5
F8
  8
1
 62
     3
 10
349.25823573834901
 20
-21.99961883371429
 30
0.0
 40
3.0
  0
CIRCLE
  5
F9
  8
1
 62
     7
 10
349.25823573834901
 20
-21.99961883371429
 30
0.0
 40
2.3999999999999768
  0
CIRCLE
  5
FA
  8
1
 62
     3
 10
245.154921670064
 20
82.103695234570793
 30
0.0
 40
3.0
  0
CIRCLE
  5
FB
  8
1
 62
     7
 10
245.154921670064
 20
82.103695234570793
 30
0.0
 40
2.4000000000000901
  0
TEXT
  5
FC
  8
1
 62
     7
 10
-134.08136870839829
 20
148.5868964876569
 30
0.0
 40
7.0
  1
RNB 20
 41
0.9
  7
SIMPLEX
  0
ENDSEC
  0
EOF
