  0
SECTION
  2
HEADER
  9
$ACADVER
  1
AC1009
  9
$INSBASE
 10
0.0
 20
0.0
 30
0.0
  9
$EXTMIN
 10
-110.0
 20
-78.977576630814411
 30
0.0
  9
$EXTMAX
 10
233.51885595632481
 20
118.69317204453991
 30
0.0
  9
$LIMMIN
 10
-110.0
 20
-78.977576630814411
  9
$LIMMAX
 10
233.51885595632481
 20
118.69317204453991
  9
$ORTHOMODE
 70
     0
  9
$REGENMODE
 70
     1
  9
$FILLMODE
 70
     1
  9
$QTEXTMODE
 70
     0
  9
$MIRRTEXT
 70
     1
  9
$DRAGMODE
 70
     2
  9
$LTSCALE
 40
1.0
  9
$OSMODE
 70
    37
  9
$ATTMODE
 70
     1
  9
$TEXTSIZE
 40
3.5
  9
$TRACEWID
 40
0.5
  9
$TEXTSTYLE
  7
STANDARD
  9
$CLAYER
  8
0
  9
$CELTYPE
  6
BYLAYER
  9
$CECOLOR
 62
   256
  9
$DIMSCALE
 40
1.0
  9
$DIMASZ
 40
0.18
  9
$DIMEXO
 40
0.0625
  9
$DIMDLI
 40
0.38
  9
$DIMRND
 40
0.0
  9
$DIMDLE
 40
0.0
  9
$DIMEXE
 40
0.18
  9
$DIMTP
 40
0.0
  9
$DIMTM
 40
0.0
  9
$DIMTXT
 40
0.18
  9
$DIMCEN
 40
0.09
  9
$DIMTSZ
 40
0.0
  9
$DIMTOL
 70
     0
  9
$DIMLIM
 70
     0
  9
$DIMTIH
 70
     1
  9
$DIMTOH
 70
     1
  9
$DIMSE1
 70
     0
  9
$DIMSE2
 70
     0
  9
$DIMTAD
 70
     0
  9
$DIMZIN
 70
     0
  9
$DIMBLK
  1

  9
$DIMASO
 70
     1
  9
$DIMSHO
 70
     1
  9
$DIMPOST
  1

  9
$DIMAPOST
  1

  9
$DIMALT
 70
     0
  9
$DIMALTD
 70
     2
  9
$DIMALTF
 40
25.399999999999999
  9
$DIMLFAC
 40
1.0
  9
$DIMTOFL
 70
     0
  9
$DIMTVP
 40
0.0
  9
$DIMTIX
 70
     0
  9
$DIMSOXD
 70
     0
  9
$DIMSAH
 70
     0
  9
$DIMBLK1
  1

  9
$DIMBLK2
  1

  9
$DIMSTYLE
  2
STANDARD
  9
$DIMCLRD
 70
     0
  9
$DIMCLRE
 70
     0
  9
$DIMCLRT
 70
     0
  9
$DIMTFAC
 40
1.0
  9
$DIMGAP
 40
0.09
  9
$LUNITS
 70
     2
  9
$LUPREC
 70
     4
  9
$SKETCHINC
 40
0.1
  9
$FILLETRAD
 40
2.0
  9
$AUNITS
 70
     0
  9
$AUPREC
 70
     0
  9
$MENU
  1
ACAD
  9
$ELEVATION
 40
0.0
  9
$PELEVATION
 40
0.0
  9
$THICKNESS
 40
0.0
  9
$LIMCHECK
 70
     0
  9
$BLIPMODE
 70
     0
  9
$CHAMFERA
 40
0.0
  9
$CHAMFERB
 40
0.0
  9
$SKPOLY
 70
     0
  9
$TDCREATE
 40
2452094.9770653942
  9
$TDUPDATE
 40
2452094.9778759261
  9
$TDINDWG
 40
0.0008232639
  9
$TDUSRTIMER
 40
0.0008232639
  9
$USRTIMER
 70
     1
  9
$ANGBASE
 50
0.0
  9
$ANGDIR
 70
     0
  9
$PDMODE
 70
     0
  9
$PDSIZE
 40
0.0
  9
$PLINEWID
 40
0.0
  9
$COORDS
 70
     1
  9
$SPLFRAME
 70
     0
  9
$SPLINETYPE
 70
     6
  9
$SPLINESEGS
 70
     8
  9
$ATTDIA
 70
     0
  9
$ATTREQ
 70
     1
  9
$HANDLING
 70
 10241
  9
$HANDSEED
  5
10B
  9
$SURFTAB1
 70
     6
  9
$SURFTAB2
 70
     6
  9
$SURFTYPE
 70
     6
  9
$SURFU
 70
     6
  9
$SURFV
 70
     6
  9
$UCSNAME
  2

  9
$UCSORG
 10
0.0
 20
0.0
 30
0.0
  9
$UCSXDIR
 10
1.0
 20
0.0
 30
0.0
  9
$UCSYDIR
 10
0.0
 20
1.0
 30
0.0
  9
$PUCSNAME
  2

  9
$PUCSORG
 10
0.0
 20
0.0
 30
0.0
  9
$PUCSXDIR
 10
1.0
 20
0.0
 30
0.0
  9
$PUCSYDIR
 10
0.0
 20
1.0
 30
0.0
  9
$USERI1
 70
     0
  9
$USERI2
 70
     0
  9
$USERI3
 70
     0
  9
$USERI4
 70
     0
  9
$USERI5
 70
     0
  9
$USERR1
 40
0.0
  9
$USERR2
 40
0.0
  9
$USERR3
 40
0.0
  9
$USERR4
 40
0.0
  9
$USERR5
 40
0.0
  9
$WORLDVIEW
 70
     1
  9
$SHADEDGE
 70
     3
  9
$SHADEDIF
 70
    70
  9
$TILEMODE
 70
     1
  9
$MAXACTVP
 70
    64
  9
$PLIMCHECK
 70
     0
  9
$PEXTMIN
 10
1.0000000000000000E+020
 20
1.0000000000000000E+020
 30
1.0000000000000000E+020
  9
$PEXTMAX
 10
-1.0000000000000000E+020
 20
-1.0000000000000000E+020
 30
-1.0000000000000000E+020
  9
$PLIMMIN
 10
0.0
 20
0.0
  9
$PLIMMAX
 10
12.0
 20
9.0
  9
$UNITMODE
 70
     0
  9
$VISRETAIN
 70
     1
  9
$PLINEGEN
 70
     0
  9
$PSLTSCALE
 70
     1
  0
ENDSEC
  0
SECTION
  2
TABLES
  0
TABLE
  2
VPORT
 70
     2
  0
VPORT
  2
*ACTIVE
 70
     0
 10
0.0
 20
0.0
 11
1.0
 21
1.0
 12
-79.235141755289533
 22
103.6287736350823
 13
0.0
 23
0.0
 14
1.0
 24
1.0
 15
0.0
 25
0.0
 16
0.0
 26
0.0
 36
1.0
 17
0.0
 27
0.0
 37
0.0
 40
9.0000002365773266
 41
2.4144144144144142
 42
50.0
 43
0.0
 44
0.0
 50
0.0
 51
0.0
 71
     0
 72
   100
 73
     1
 74
     1
 75
     0
 76
     0
 77
     0
 78
     0
  0
ENDTAB
  0
TABLE
  2
LTYPE
 70
     9
  0
LTYPE
  2
CONTINUOUS
 70
     0
  3
Solid line
 72
    65
 73
     0
 40
0.0
  0
LTYPE
  2
BORDER
 70
     0
  3
__ __ . __ __ .
 72
    65
 73
     6
 40
15.81994731377811
 49
4.5199849467937483
 49
-2.2599924733968741
 49
4.5199849467937483
 49
-2.2599924733968741
 49
0.0
 49
-2.2599924733968741
  0
LTYPE
  2
CENTER
 70
     0
  3
____ _ ____ _
 72
    65
 73
     4
 40
18.079939787174979
 49
11.29996236698436
 49
-2.2599924733968741
 49
2.2599924733968741
 49
-2.2599924733968741
  0
LTYPE
  2
DASHDOT
 70
     0
  3
__ . __ . __ .
 72
    65
 73
     4
 40
9.0399698935874966
 49
4.5199849467937483
 49
-2.2599924733968741
 49
0.0
 49
-2.2599924733968741
  0
LTYPE
  2
DASHED
 70
     0
  3
__ __ __ __ __
 72
    65
 73
     2
 40
6.7799774201906207
 49
4.5199849467937483
 49
-2.2599924733968741
  0
LTYPE
  2
DIVIDE
 70
     0
  3
__ . . __ . . 
 72
    65
 73
     6
 40
11.29996236698436
 49
4.5199849467937483
 49
-2.2599924733968741
 49
0.0
 49
-2.2599924733968741
 49
0.0
 49
-2.2599924733968741
  0
LTYPE
  2
DOT
 70
     0
  3
..............
 72
    65
 73
     4
 40
4.5199849467937483
 49
0.0
 49
-2.2599924733968741
 49
0.0
 49
-2.2599924733968741
  0
LTYPE
  2
HIDDEN
 70
     0
  3
_ _ _ _ _ _ _
 72
    65
 73
     2
 40
3.3899887100953099
 49
2.2599924733968741
 49
-1.1299962366984371
  0
LTYPE
  2
PHANTOM
 70
     0
  3
_____ _ _ _____ _ _ 
 72
    65
 73
     6
 40
22.599924733968731
 49
11.29996236698436
 49
-2.2599924733968741
 49
2.2599924733968741
 49
-2.2599924733968741
 49
2.2599924733968741
 49
-2.2599924733968741
  0
ENDTAB
  0
TABLE
  2
LAYER
 70
     2
  0
LAYER
  2
0
 70
     0
 62
     7
  6
CONTINUOUS
  0
LAYER
  2
1
 70
     0
 62
     7
  6
CONTINUOUS
  0
ENDTAB
  0
TABLE
  2
STYLE
 70
     4
  0
STYLE
  2
STANDARD
 70
     0
 40
0.0
 41
1.0
 50
0.0
 71
     0
 42
3.5
  3
txt
  4

  0
STYLE
  2
SIMPLEX
 70
     0
 40
0.0
 41
1.0
 50
0.0
 71
     0
 42
3.5
  3
simplex
  4

  0
STYLE
  2
COMPLEX
 70
     0
 40
0.0
 41
1.0
 50
0.0
 71
     0
 42
3.5
  3
complex
  4

  0
STYLE
  2
ITALIC
 70
     0
 40
0.0
 41
1.0
 50
0.0
 71
     0
 42
3.5
  3
italic
  4

  0
ENDTAB
  0
TABLE
  2
VIEW
 70
     0
  0
ENDTAB
  0
TABLE
  2
UCS
 70
     0
  0
ENDTAB
  0
TABLE
  2
APPID
 70
     1
  0
APPID
  2
ACAD
 70
     0
  0
ENDTAB
  0
TABLE
  2
DIMSTYLE
 70
     1
  0
DIMSTYLE
  2
STANDARD
 70
     0
  3

  4

  5

  6

  7

 40
1.0
 41
0.18
 42
0.0625
 43
0.38
 44
0.18
 45
0.0
 46
0.0
 47
0.0
 48
0.0
140
0.18
141
0.09
142
0.0
143
25.399999999999999
144
1.0
145
0.0
146
1.0
147
0.09
 71
     0
 72
     0
 73
     1
 74
     1
 75
     0
 76
     0
 77
     0
 78
     0
170
     0
171
     2
172
     0
173
     0
174
     0
175
     0
176
     0
177
     0
178
     0
  0
ENDTAB
  0
ENDSEC
  0
SECTION
  2
BLOCKS
  0
BLOCK
  8
0
  2
$MODEL_SPACE
 70
     0
 10
0.0
 20
0.0
 30
0.0
  3
$MODEL_SPACE
  1

  0
ENDBLK
  5
20
  8
0
  0
BLOCK
 67
     1
  8
0
  2
$PAPER_SPACE
 70
     0
 10
0.0
 20
0.0
 30
0.0
  3
$PAPER_SPACE
  1

  0
ENDBLK
  5
1C
 67
     1
  8
0
  0
ENDSEC
  0
SECTION
  2
ENTITIES
  0
LINE
  5
33
  8
1
 62
     3
 10
171.0188559563247
 20
4.2620428172584823
 30
0.0
 11
171.0188559563247
 21
-4.2620428172584681
 31
0.0
  0
LINE
  5
34
  8
1
 62
     3
 10
175.28089877358309
 20
0.000000000000008
 30
0.0
 11
166.75681313906631
 21
0.000000000000008
 31
0.0
  0
LINE
  5
35
  8
1
  6
DASHDOT
 62
     3
 10
117.5641444156947
 20
30.862092097436548
 30
0.0
 11
127.6438479227679
 21
25.042572564276281
 31
0.0
  0
LINE
  5
36
  8
1
  6
DASHDOT
 62
     3
 10
171.0188559563247
 20
-49.52269112969595
 30
0.0
 11
171.0188559563247
 21
-61.873510344340048
 31
0.0
  0
LINE
  5
37
  8
1
  6
DASHDOT
 62
     3
 10
214.01855704704599
 20
24.825888999801428
 30
0.0
 11
224.5190089665544
 21
30.888327742142248
 31
0.0
  0
LINE
  5
38
  8
1
 62
     3
 10
-5.0000000000000009
 20
0.0
 30
0.0
 11
0.0
 21
0.0
 31
0.0
  0
LINE
  5
39
  8
1
 62
     3
 10
46.0
 20
0.0
 30
0.0
 11
51.0
 21
0.0
 31
0.0
  0
LINE
  5
3A
  8
1
 62
     3
 10
-110.0
 20
0.0
 30
0.0
 11
-105.0
 21
0.0
 31
0.0
  0
LINE
  5
3B
  8
1
 62
     3
 10
-59.0
 20
0.0
 30
0.0
 11
-54.0
 21
0.0
 31
0.0
  0
LINE
  5
3C
  8
1
 62
     7
 10
-66.59999999999998
 20
47.5
 30
0.0
 11
-66.59999999999998
 21
-47.5
 31
0.0
  0
LINE
  5
3D
  8
1
 62
     7
 10
-65.299999999999898
 20
62.499999999999979
 30
0.0
 11
-65.299999999999898
 21
-62.500000000000028
 31
0.0
  0
LINE
  5
3E
  8
1
 62
     7
 10
-65.299999999999898
 20
-47.5
 30
0.0
 11
-71.999999999999929
 21
-47.5
 31
0.0
  0
LINE
  5
3F
  8
1
 62
     7
 10
-65.299999999999898
 20
47.5
 30
0.0
 11
-71.999999999999929
 21
47.5
 31
0.0
  0
LINE
  5
40
  8
1
 62
     7
 10
-79.0
 20
61.500000000000007
 30
0.0
 11
-78.499999999999929
 21
61.500000000000007
 31
0.0
  0
LINE
  5
41
  8
1
 62
     7
 10
-78.499999999999929
 20
-62.500000000000071
 30
0.0
 11
-71.999999999999929
 21
-62.500000000000071
 31
0.0
  0
LINE
  5
42
  8
1
 62
     7
 10
-65.299999999999898
 20
50.5
 30
0.0
 11
-71.999999999999929
 21
50.5
 31
0.0
  0
LINE
  5
43
  8
1
 62
     7
 10
-51.899999999999991
 20
61.000000000000007
 30
0.0
 11
-51.899999999999991
 21
51.000000000000007
 31
0.0
  0
LINE
  5
44
  8
1
 62
     7
 10
-51.899999999999991
 20
51.000000000000007
 30
0.0
 11
-57.5
 21
51.000000000000007
 31
0.0
  0
LINE
  5
45
  8
1
 62
     7
 10
-51.5
 20
51.692820323027547
 30
0.0
 11
-51.899999999999991
 21
51.000000000000007
 31
0.0
  0
LINE
  5
46
  8
1
 62
     7
 10
-51.5
 20
60.30717967697246
 30
0.0
 11
-51.5
 21
51.692820323027547
 31
0.0
  0
LINE
  5
47
  8
1
 62
     7
 10
-51.899999999999991
 20
61.000000000000007
 30
0.0
 11
-51.5
 21
60.30717967697246
 31
0.0
  0
LINE
  5
48
  8
1
 62
     7
 10
-57.5
 20
61.000000000000007
 30
0.0
 11
-51.899999999999991
 21
61.000000000000007
 31
0.0
  0
LINE
  5
49
  8
1
 62
     7
 10
-57.5
 20
57.5
 30
0.0
 11
-59.0
 21
56.000000000000007
 31
0.0
  0
LINE
  5
4A
  8
1
 62
     7
 10
-57.5
 20
56.000000000000007
 30
0.0
 11
-59.000000000000028
 21
54.499999999999979
 31
0.0
  0
LINE
  5
4B
  8
1
 62
     7
 10
-57.5
 20
49.900000000000013
 30
0.0
 11
-59.000000000000028
 21
49.900000000000013
 31
0.0
  0
LINE
  5
4C
  8
1
 62
     7
 10
-57.5
 20
62.099999999999973
 30
0.0
 11
-57.5
 21
49.900000000000013
 31
0.0
  0
LINE
  5
4D
  8
1
 62
     7
 10
-59.0
 20
62.099999999999973
 30
0.0
 11
-57.5
 21
62.099999999999973
 31
0.0
  0
LINE
  5
4E
  8
1
 62
     7
 10
-70.499999999999957
 20
-47.5
 30
0.0
 11
-70.499999999999957
 21
47.5
 31
0.0
  0
LINE
  5
4F
  8
1
 62
     7
 10
-71.999999999999929
 20
-62.500000000000071
 30
0.0
 11
-71.999999999999929
 21
62.500000000000071
 31
0.0
  0
LINE
  5
50
  8
1
 62
     7
 10
-78.499999999999929
 20
62.500000000000071
 30
0.0
 11
-78.499999999999929
 21
-62.500000000000071
 31
0.0
  0
LINE
  5
51
  8
1
 62
     7
 10
-71.999999999999929
 20
62.500000000000071
 30
0.0
 11
-78.499999999999929
 21
62.500000000000071
 31
0.0
  0
LINE
  5
52
  8
1
 62
     7
 10
-59.0
 20
-62.5
 30
0.0
 11
-59.0
 21
62.5
 31
0.0
  0
LINE
  5
53
  8
1
 62
     7
 10
-65.299999999999898
 20
-62.500000000000028
 30
0.0
 11
-59.0
 21
-62.5
 31
0.0
  0
LINE
  5
54
  8
1
 62
     7
 10
-59.0
 20
62.5
 30
0.0
 11
-65.299999999999898
 21
62.499999999999979
 31
0.0
  0
LINE
  5
55
  8
1
 62
     7
 10
-94.999999999999957
 20
-62.5
 30
0.0
 11
-92.999999999999943
 21
-62.5
 31
0.0
  0
LINE
  5
56
  8
1
 62
     7
 10
-79.0
 20
-62.5
 30
0.0
 11
-79.0
 21
62.5
 31
0.0
  0
LINE
  5
57
  8
1
 62
     7
 10
-105.0
 20
-62.5
 30
0.0
 11
-94.999999999999957
 21
-62.5
 31
0.0
  0
LINE
  5
58
  8
1
 62
     7
 10
-105.0
 20
-62.5
 30
0.0
 11
-105.0
 21
62.5
 31
0.0
  0
LINE
  5
59
  8
1
 62
     7
 10
-94.999999999999957
 20
-62.5
 30
0.0
 11
-94.999999999999957
 21
-75.5
 31
0.0
  0
LINE
  5
5A
  8
1
 62
     7
 10
-92.999999999999943
 20
-75.5
 30
0.0
 11
-92.999999999999943
 21
-62.5
 31
0.0
  0
LINE
  5
5B
  8
1
 62
     7
 10
-92.999999999999943
 20
-62.5
 30
0.0
 11
-79.0
 21
-62.5
 31
0.0
  0
LINE
  5
5C
  8
1
 62
     7
 10
-94.399999999999963
 20
-75.5
 30
0.0
 11
-94.399999999999963
 21
-78.5
 31
0.0
  0
LINE
  5
5D
  8
1
 62
     7
 10
-94.999999999999957
 20
-75.5
 30
0.0
 11
-92.999999999999943
 21
-75.5
 31
0.0
  0
LINE
  5
5E
  8
1
 62
     7
 10
-94.19999999999996
 20
-78.5
 30
0.0
 11
-94.19999999999996
 21
-75.5
 31
0.0
  0
LINE
  5
5F
  8
1
 62
     7
 10
-93.999999999999957
 20
-75.5
 30
0.0
 11
-93.999999999999957
 21
-78.5
 31
0.0
  0
LINE
  5
60
  8
1
 62
     7
 10
-93.799999999999969
 20
-78.5
 30
0.0
 11
-93.799999999999969
 21
-75.5
 31
0.0
  0
LINE
  5
61
  8
1
 62
     7
 10
-93.599999999999966
 20
-75.5
 30
0.0
 11
-93.599999999999966
 21
-78.5
 31
0.0
  0
LINE
  5
62
  8
1
 62
     7
 10
-105.0
 20
62.5
 30
0.0
 11
-79.0
 21
62.5
 31
0.0
  0
LINE
  5
63
  8
1
 62
     7
 10
26.500000000000089
 20
24.5
 30
0.0
 11
33.000000000000092
 21
24.5
 31
0.0
  0
LINE
  5
64
  8
1
 62
     7
 10
26.0
 20
61.500000000000007
 30
0.0
 11
39.700000000000088
 21
61.500000000000007
 31
0.0
  0
LINE
  5
65
  8
1
 62
     7
 10
26.500000000000089
 20
-24.5
 30
0.0
 11
32.999999999999979
 21
-24.5
 31
0.0
  0
LINE
  5
66
  8
1
 62
     7
 10
26.500000000000089
 20
-62.500000000000071
 30
0.0
 11
33.000000000000092
 21
-62.500000000000071
 31
0.0
  0
LINE
  5
67
  8
1
 62
     7
 10
26.500000000000089
 20
-49.0
 30
0.0
 11
33.000000000000092
 21
-49.0
 31
0.0
  0
LINE
  5
68
  8
1
 62
     7
 10
40.200000000000088
 20
-47.5
 30
0.0
 11
40.200000000000088
 21
-35.0
 31
0.0
  0
LINE
  5
69
  8
1
 62
     7
 10
32.700000000000081
 20
-47.5
 30
0.0
 11
32.700000000000081
 21
-35.0
 31
0.0
  0
LINE
  5
6A
  8
1
 62
     7
 10
40.200000000000088
 20
35.0
 30
0.0
 11
40.200000000000088
 21
47.5
 31
0.0
  0
LINE
  5
6B
  8
1
 62
     7
 10
32.700000000000081
 20
47.5
 30
0.0
 11
32.700000000000081
 21
35.0
 31
0.0
  0
LINE
  5
6C
  8
1
 62
     7
 10
33.000000000000092
 20
61.500000000000007
 30
0.0
 11
33.000000000000092
 21
62.500000000000071
 31
0.0
  0
LINE
  5
6D
  8
1
 62
     7
 10
39.700000000000088
 20
50.5
 30
0.0
 11
26.0
 21
50.5
 31
0.0
  0
LINE
  5
6E
  8
1
 62
     7
 10
53.100000000000009
 20
61.000000000000007
 30
0.0
 11
53.100000000000009
 21
51.000000000000007
 31
0.0
  0
LINE
  5
6F
  8
1
 62
     7
 10
53.100000000000009
 20
51.000000000000007
 30
0.0
 11
47.5
 21
51.000000000000007
 31
0.0
  0
LINE
  5
70
  8
1
 62
     7
 10
53.5
 20
51.692820323027547
 30
0.0
 11
53.100000000000009
 21
51.000000000000007
 31
0.0
  0
LINE
  5
71
  8
1
 62
     7
 10
53.5
 20
60.30717967697246
 30
0.0
 11
53.5
 21
51.692820323027547
 31
0.0
  0
LINE
  5
72
  8
1
 62
     7
 10
53.100000000000009
 20
61.000000000000007
 30
0.0
 11
53.5
 21
60.30717967697246
 31
0.0
  0
LINE
  5
73
  8
1
 62
     7
 10
47.5
 20
61.000000000000007
 30
0.0
 11
53.100000000000009
 21
61.000000000000007
 31
0.0
  0
LINE
  5
74
  8
1
 62
     7
 10
47.5
 20
57.5
 30
0.0
 11
46.0
 21
56.000000000000007
 31
0.0
  0
LINE
  5
75
  8
1
 62
     7
 10
47.5
 20
56.000000000000007
 30
0.0
 11
45.999999999999972
 21
54.499999999999979
 31
0.0
  0
LINE
  5
76
  8
1
 62
     7
 10
47.5
 20
49.900000000000013
 30
0.0
 11
45.999999999999972
 21
49.900000000000013
 31
0.0
  0
LINE
  5
77
  8
1
 62
     7
 10
47.5
 20
62.099999999999973
 30
0.0
 11
47.5
 21
49.900000000000013
 31
0.0
  0
LINE
  5
78
  8
1
 62
     7
 10
46.0
 20
62.099999999999973
 30
0.0
 11
47.5
 21
62.099999999999973
 31
0.0
  0
LINE
  5
79
  8
1
 62
     7
 10
32.999999999999957
 20
23.5
 30
0.0
 11
33.000000000000092
 21
35.0
 31
0.0
  0
LINE
  5
7A
  8
1
 62
     7
 10
38.400000000000027
 20
20.750000000000011
 30
0.0
 11
38.400000000000027
 21
47.5
 31
0.0
  0
LINE
  5
7B
  8
1
 62
     7
 10
39.700000000000088
 20
-23.499999999999989
 30
0.0
 11
39.700000000000088
 21
-35.0
 31
0.0
  0
LINE
  5
7C
  8
1
 62
     7
 10
38.400000000000027
 20
-20.749999999999979
 30
0.0
 11
38.400000000000027
 21
-47.5
 31
0.0
  0
LINE
  5
7D
  8
1
 62
     7
 10
34.500000000000028
 20
-20.749999999999979
 30
0.0
 11
34.500000000000028
 21
-47.5
 31
0.0
  0
LINE
  5
7E
  8
1
 62
     7
 10
26.500000000000089
 20
-18.999999999999979
 30
0.0
 11
26.500000000000089
 21
-62.500000000000071
 31
0.0
  0
LINE
  5
7F
  8
1
 62
     7
 10
33.000000000000092
 20
-35.0
 30
0.0
 11
32.999999999999957
 21
-23.499999999999989
 31
0.0
  0
LINE
  5
80
  8
1
 62
     7
 10
32.700000000000081
 20
-35.0
 30
0.0
 11
34.500000000000028
 21
-35.0
 31
0.0
  0
LINE
  5
81
  8
1
 62
     7
 10
33.000000000000092
 20
47.5
 30
0.0
 11
33.000000000000092
 21
50.5
 31
0.0
  0
LINE
  5
82
  8
1
 62
     7
 10
34.500000000000028
 20
35.0
 30
0.0
 11
32.700000000000081
 21
35.0
 31
0.0
  0
LINE
  5
83
  8
1
 62
     7
 10
33.000000000000092
 20
-62.500000000000071
 30
0.0
 11
33.000000000000092
 21
-47.5
 31
0.0
  0
LINE
  5
84
  8
1
 62
     7
 10
26.500000000000089
 20
62.500000000000071
 30
0.0
 11
26.500000000000089
 21
61.500000000000007
 31
0.0
  0
LINE
  5
85
  8
1
 62
     7
 10
33.000000000000092
 20
62.500000000000071
 30
0.0
 11
26.500000000000089
 21
62.500000000000071
 31
0.0
  0
LINE
  5
86
  8
1
 62
     7
 10
26.500000000000089
 20
19.000000000000011
 30
0.0
 11
26.500000000000089
 21
50.5
 31
0.0
  0
LINE
  5
87
  8
1
 62
     7
 10
34.500000000000028
 20
-24.25
 30
0.0
 11
38.400000000000027
 21
-24.25
 31
0.0
  0
LINE
  5
88
  8
1
 62
     7
 10
34.500000000000028
 20
-21.25
 30
0.0
 11
38.400000000000027
 21
-21.25
 31
0.0
  0
LINE
  5
89
  8
1
 62
     7
 10
34.500000000000028
 20
21.25
 30
0.0
 11
38.400000000000027
 21
21.25
 31
0.0
  0
LINE
  5
8A
  8
1
 62
     7
 10
34.500000000000028
 20
24.25
 30
0.0
 11
38.400000000000027
 21
24.25
 31
0.0
  0
LINE
  5
8B
  8
1
 62
     7
 10
34.500000000000028
 20
47.5
 30
0.0
 11
34.500000000000028
 21
20.750000000000011
 31
0.0
  0
LINE
  5
8C
  8
1
 62
     7
 10
40.200000000000088
 20
47.5
 30
0.0
 11
32.700000000000081
 21
47.5
 31
0.0
  0
LINE
  5
8D
  8
1
 62
     7
 10
40.200000000000088
 20
-35.0
 30
0.0
 11
38.400000000000027
 21
-35.0
 31
0.0
  0
LINE
  5
8E
  8
1
 62
     7
 10
40.200000000000088
 20
-47.5
 30
0.0
 11
32.700000000000081
 21
-47.5
 31
0.0
  0
LINE
  5
8F
  8
1
 62
     7
 10
40.200000000000088
 20
35.0
 30
0.0
 11
38.400000000000027
 21
35.0
 31
0.0
  0
LINE
  5
90
  8
1
 62
     7
 10
39.700000000000088
 20
-47.5
 30
0.0
 11
39.700000000000088
 21
-62.500000000000028
 31
0.0
  0
LINE
  5
91
  8
1
 62
     7
 10
46.0
 20
-62.5
 30
0.0
 11
46.0
 21
62.5
 31
0.0
  0
LINE
  5
92
  8
1
 62
     7
 10
39.700000000000088
 20
-49.0
 30
0.0
 11
45.999999999999972
 21
-49.0
 31
0.0
  0
LINE
  5
93
  8
1
 62
     7
 10
39.700000000000088
 20
62.499999999999979
 30
0.0
 11
39.700000000000088
 21
47.5
 31
0.0
  0
LINE
  5
94
  8
1
 62
     7
 10
39.700000000000088
 20
23.5
 30
0.0
 11
39.700000000000088
 21
35.0
 31
0.0
  0
LINE
  5
95
  8
1
 62
     7
 10
39.700000000000088
 20
-62.500000000000028
 30
0.0
 11
46.0
 21
-62.5
 31
0.0
  0
LINE
  5
96
  8
1
 62
     7
 10
46.0
 20
62.5
 30
0.0
 11
39.700000000000088
 21
62.499999999999979
 31
0.0
  0
LINE
  5
97
  8
1
 62
     7
 10
39.700000000000088
 20
30.0
 30
0.0
 11
45.999999999999972
 21
30.0
 31
0.0
  0
LINE
  5
98
  8
1
 62
     7
 10
39.700000000000088
 20
-30.0
 30
0.0
 11
45.999999999999972
 21
-30.0
 31
0.0
  0
LINE
  5
99
  8
1
  6
DASHDOT
 62
     3
 10
-5.3053917826012809
 20
-56.0
 30
0.0
 11
51.322834155485381
 21
-56.0
 31
0.0
  0
LINE
  5
9A
  8
1
 62
     7
 10
0.0
 20
-52.700000000000003
 30
0.0
 11
26.0
 21
-52.700000000000003
 31
0.0
  0
LINE
  5
9B
  8
1
 62
     7
 10
0.0
 20
-59.29999999999999
 30
0.0
 11
26.0
 21
-59.29999999999999
 31
0.0
  0
LINE
  5
9C
  8
1
 62
     7
 10
40.999999999999957
 20
-23.499999999999989
 30
0.0
 11
40.999999999999957
 21
23.5
 31
0.0
  0
LINE
  5
9D
  8
1
 62
     7
 10
32.999999999999957
 20
23.5
 30
0.0
 11
40.999999999999957
 21
23.5
 31
0.0
  0
LINE
  5
9E
  8
1
 62
     7
 10
32.999999999999957
 20
23.5
 30
0.0
 11
32.999999999999957
 21
19.000000000000011
 31
0.0
  0
LINE
  5
9F
  8
1
 62
     7
 10
16.0
 20
19.000000000000011
 30
0.0
 11
32.999999999999957
 21
19.000000000000011
 31
0.0
  0
LINE
  5
A0
  8
1
 62
     7
 10
16.0
 20
19.000000000000011
 30
0.0
 11
16.0
 21
-18.999999999999979
 31
0.0
  0
LINE
  5
A1
  8
1
 62
     7
 10
32.999999999999957
 20
-18.999999999999979
 30
0.0
 11
16.0
 21
-18.999999999999979
 31
0.0
  0
LINE
  5
A2
  8
1
 62
     7
 10
32.999999999999957
 20
-18.999999999999979
 30
0.0
 11
32.999999999999957
 21
-23.499999999999989
 31
0.0
  0
LINE
  5
A3
  8
1
 62
     7
 10
40.999999999999957
 20
-23.499999999999989
 30
0.0
 11
32.999999999999957
 21
-23.499999999999989
 31
0.0
  0
LINE
  5
A4
  8
1
 62
     7
 10
32.999999999999957
 20
20.750000000000011
 30
0.0
 11
40.999999999999957
 21
20.750000000000011
 31
0.0
  0
LINE
  5
A5
  8
1
 62
     7
 10
32.999999999999957
 20
-20.749999999999979
 30
0.0
 11
40.999999999999957
 21
-20.749999999999979
 31
0.0
  0
LINE
  5
A6
  8
1
 62
     7
 10
15.99999999999997
 20
11.500000000000011
 30
0.0
 11
40.999999999999957
 21
11.500000000000011
 31
0.0
  0
LINE
  5
A7
  8
1
 62
     7
 10
15.99999999999997
 20
9.5000000000000124
 30
0.0
 11
40.999999999999957
 21
9.5000000000000124
 31
0.0
  0
LINE
  5
A8
  8
1
 62
     7
 10
15.99999999999997
 20
-9.4999999999999911
 30
0.0
 11
40.999999999999957
 21
-9.4999999999999911
 31
0.0
  0
LINE
  5
A9
  8
1
 62
     7
 10
173.5188559563247
 20
9.1651513899117312
 30
0.0
 11
173.5188559563247
 21
11.500000000000011
 31
0.0
  0
LINE
  5
AA
  8
1
 62
     7
 10
173.5188559563247
 20
11.500000000000011
 30
0.0
 11
168.51885595632459
 21
11.500000000000011
 31
0.0
  0
LINE
  5
AB
  8
1
 62
     7
 10
168.51885595632459
 20
11.500000000000011
 30
0.0
 11
168.51885595632459
 21
9.1651513899117312
 31
0.0
  0
LINE
  5
AC
  8
1
 62
     7
 10
10.0
 20
-62.5
 30
0.0
 11
12.0
 21
-62.5
 31
0.0
  0
LINE
  5
AD
  8
1
 62
     7
 10
26.0
 20
19.000000000000011
 30
0.0
 11
26.0
 21
62.5
 31
0.0
  0
LINE
  5
AE
  8
1
 62
     7
 10
26.0
 20
24.5
 30
0.0
 11
0.0
 21
24.5
 31
0.0
  0
LINE
  5
AF
  8
1
 62
     7
 10
26.0
 20
-18.999999999999979
 30
0.0
 11
26.0
 21
-62.5
 31
0.0
  0
LINE
  5
B0
  8
1
 62
     7
 10
0.0
 20
-24.5
 30
0.0
 11
26.0
 21
-24.5
 31
0.0
  0
LINE
  5
B1
  8
1
 62
     7
 10
0.0
 20
-62.5
 30
0.0
 11
10.0
 21
-62.5
 31
0.0
  0
LINE
  5
B2
  8
1
 62
     7
 10
0.0
 20
-62.5
 30
0.0
 11
0.0
 21
62.5
 31
0.0
  0
LINE
  5
B3
  8
1
 62
     7
 10
10.0
 20
-62.5
 30
0.0
 11
10.0
 21
-75.5
 31
0.0
  0
LINE
  5
B4
  8
1
 62
     7
 10
12.0
 20
-75.5
 30
0.0
 11
12.0
 21
-62.5
 31
0.0
  0
LINE
  5
B5
  8
1
 62
     7
 10
12.0
 20
-62.5
 30
0.0
 11
26.0
 21
-62.5
 31
0.0
  0
LINE
  5
B6
  8
1
 62
     7
 10
10.6
 20
-75.5
 30
0.0
 11
10.6
 21
-78.5
 31
0.0
  0
LINE
  5
B7
  8
1
 62
     7
 10
10.0
 20
-75.5
 30
0.0
 11
12.0
 21
-75.5
 31
0.0
  0
LINE
  5
B8
  8
1
 62
     7
 10
10.800000000000001
 20
-78.5
 30
0.0
 11
10.800000000000001
 21
-75.5
 31
0.0
  0
LINE
  5
B9
  8
1
 62
     7
 10
11.0
 20
-75.5
 30
0.0
 11
11.0
 21
-78.5
 31
0.0
  0
LINE
  5
BA
  8
1
 62
     7
 10
11.19999999999999
 20
-78.5
 30
0.0
 11
11.19999999999999
 21
-75.5
 31
0.0
  0
LINE
  5
BB
  8
1
 62
     7
 10
11.4
 20
-75.5
 30
0.0
 11
11.4
 21
-78.5
 31
0.0
  0
LINE
  5
BC
  8
1
 62
     7
 10
0.0
 20
62.5
 30
0.0
 11
26.0
 21
62.5
 31
0.0
  0
LINE
  5
BD
  8
1
 62
     7
 10
113.7328215235837
 20
24.991203631894461
 30
0.0
 11
119.0214333443962
 21
21.937822173508941
 31
0.0
  0
LINE
  5
BE
  8
1
 62
     7
 10
126.0214333443962
 20
34.062177826491123
 30
0.0
 11
120.7328215235837
 21
37.115559284876561
 31
0.0
  0
LINE
  5
BF
  8
1
 62
     7
 10
221.3048903890658
 20
37.115559284876561
 30
0.0
 11
216.01627856825331
 21
34.062177826491059
 31
0.0
  0
LINE
  5
C0
  8
1
 62
     7
 10
223.0162785682534
 20
21.937822173508941
 30
0.0
 11
228.3048903890658
 21
24.991203631894461
 31
0.0
  0
LINE
  5
C1
  8
1
 62
     7
 10
164.0188559563247
 20
-55.999999999999993
 30
0.0
 11
164.0188559563247
 21
-62.106762916770997
 31
0.0
  0
LINE
  5
C2
  8
1
 62
     7
 10
178.01885595632459
 20
-62.106762916770997
 30
0.0
 11
178.01885595632459
 21
-55.999999999999993
 31
0.0
  0
LINE
  5
C3
  8
1
 62
     7
 10
192.65958236044611
 20
-75.355105825660146
 30
0.0
 11
193.43603949575379
 21
-78.252883304527344
 31
0.0
  0
LINE
  5
C4
  8
1
 62
     7
 10
193.2428543304959
 20
-78.304647113547873
 30
0.0
 11
192.46639719518839
 21
-75.406869634680675
 31
0.0
  0
LINE
  5
C5
  8
1
 62
     7
 10
192.27321202993059
 20
-75.458633443701174
 30
0.0
 11
193.0496691652381
 21
-78.356410922568344
 31
0.0
  0
LINE
  5
C6
  8
1
 62
     7
 10
192.8564839999803
 20
-78.408174731588872
 30
0.0
 11
192.08002686467279
 21
-75.510397252721674
 31
0.0
  0
LINE
  5
C7
  8
1
 62
     7
 10
191.88684169941499
 20
-75.56216106174216
 30
0.0
 11
192.6632988347225
 21
-78.459938540609386
 31
0.0
  0
LINE
  5
C8
  8
1
 62
     7
 10
191.5041878431756
 20
-78.770521394732413
 30
0.0
 11
190.72773070786809
 21
-75.872743915865215
 31
0.0
  0
LINE
  5
C9
  8
1
 62
     7
 10
190.53454554261029
 20
-75.9245077248857
 30
0.0
 11
191.31100267791791
 21
-78.822285203752912
 31
0.0
  0
LINE
  5
CA
  8
1
 62
     7
 10
191.11781751266
 20
-78.874049012773412
 30
0.0
 11
190.3413603773524
 21
-75.9762715339062
 31
0.0
  0
LINE
  5
CB
  8
1
 62
     7
 10
190.1481752120946
 20
-76.0280353429267
 30
0.0
 11
190.92463234740231
 21
-78.92581282179394
 31
0.0
  0
LINE
  5
CC
  8
1
 62
     7
 10
190.73144718214431
 20
-78.977576630814411
 30
0.0
 11
189.9549900468368
 21
-76.079799151947199
 31
0.0
  0
LINE
  5
CD
  8
1
 62
     7
 10
193.2391378562196
 20
-75.199814398598647
 30
0.0
 11
189.11861359703519
 21
-59.821808509502198
 31
0.0
  0
LINE
  5
CE
  8
1
 62
     7
 10
187.1950462752323
 20
-60.370364143066837
 30
0.0
 11
191.3072862036415
 21
-75.717452488803701
 31
0.0
  0
LINE
  5
CF
  8
1
 62
     7
 10
193.2391378562196
 20
-75.199814398598647
 30
0.0
 11
189.37543455106339
 21
-76.235090579008727
 31
0.0
  0
LINE
  5
D0
  8
1
 62
     7
 10
189.37543455106339
 20
-76.235090579008727
 30
0.0
 11
185.25491029187901
 21
-60.857084689912277
 31
0.0
  0
LINE
  5
D1
  8
1
 62
     7
 10
171.0188559563247
 20
53.113248654051858
 30
0.0
 11
173.5188559563247
 21
54.556624327025929
 31
0.0
  0
LINE
  5
D2
  8
1
 62
     7
 10
173.5188559563247
 20
54.556624327025929
 30
0.0
 11
173.5188559563247
 21
57.443375672974071
 31
0.0
  0
LINE
  5
D3
  8
1
 62
     7
 10
173.5188559563247
 20
57.443375672974071
 30
0.0
 11
171.0188559563247
 21
58.886751345948127
 31
0.0
  0
LINE
  5
D4
  8
1
 62
     7
 10
171.0188559563247
 20
58.886751345948127
 30
0.0
 11
168.51885595632459
 21
57.443375672974071
 31
0.0
  0
LINE
  5
D5
  8
1
 62
     7
 10
168.51885595632459
 20
57.443375672974071
 30
0.0
 11
168.51885595632459
 21
54.556624327025929
 31
0.0
  0
LINE
  5
D6
  8
1
 62
     7
 10
168.51885595632459
 20
54.556624327025929
 30
0.0
 11
171.0188559563247
 21
53.113248654051858
 31
0.0
  0
LINE
  5
D7
  8
1
 62
     7
 10
125.0214333443961
 20
-29.443375672974049
 30
0.0
 11
125.0214333443961
 21
-26.556624327025911
 31
0.0
  0
LINE
  5
D8
  8
1
 62
     7
 10
122.5214333443961
 20
-30.88675134594811
 30
0.0
 11
125.0214333443961
 21
-29.443375672974049
 31
0.0
  0
LINE
  5
D9
  8
1
 62
     7
 10
120.0214333443961
 20
-29.443375672974049
 30
0.0
 11
122.5214333443961
 21
-30.88675134594811
 31
0.0
  0
LINE
  5
DA
  8
1
 62
     7
 10
120.0214333443961
 20
-26.556624327025919
 30
0.0
 11
120.0214333443961
 21
-29.443375672974049
 31
0.0
  0
LINE
  5
DB
  8
1
 62
     7
 10
122.5214333443961
 20
-25.113248654051851
 30
0.0
 11
120.0214333443961
 21
-26.556624327025919
 31
0.0
  0
LINE
  5
DC
  8
1
 62
     7
 10
125.0214333443961
 20
-26.556624327025911
 30
0.0
 11
122.5214333443961
 21
-25.113248654051851
 31
0.0
  0
LINE
  5
DD
  8
1
 62
     7
 10
219.51627856825331
 20
-25.113248654051919
 30
0.0
 11
217.01627856825331
 21
-26.556624327025979
 31
0.0
  0
LINE
  5
DE
  8
1
 62
     7
 10
222.01627856825331
 20
-26.55662432702599
 30
0.0
 11
219.51627856825331
 21
-25.113248654051919
 31
0.0
  0
LINE
  5
DF
  8
1
 62
     7
 10
222.01627856825331
 20
-29.443375672974121
 30
0.0
 11
222.01627856825331
 21
-26.55662432702599
 31
0.0
  0
LINE
  5
E0
  8
1
 62
     7
 10
219.51627856825331
 20
-30.886751345948181
 30
0.0
 11
222.01627856825331
 21
-29.443375672974121
 31
0.0
  0
LINE
  5
E1
  8
1
 62
     7
 10
217.01627856825331
 20
-29.443375672974121
 30
0.0
 11
219.51627856825331
 21
-30.886751345948181
 31
0.0
  0
LINE
  5
E2
  8
1
 62
     7
 10
217.01627856825331
 20
-26.556624327025979
 30
0.0
 11
217.01627856825331
 21
-29.443375672974121
 31
0.0
  0
LINE
  5
E3
  8
1
 62
     7
 10
-71.999999999999929
 20
61.500000000000007
 30
0.0
 11
-65.299999999999898
 21
61.500000000000007
 31
0.0
  0
LINE
  5
E4
  8
1
 62
     7
 10
-78.499999999999929
 20
50.5
 30
0.0
 11
-79.0
 21
50.5
 31
0.0
  0
ARC
  5
E5
  8
1
  6
DASHDOT
 62
     3
 10
171.0188559563247
 20
0.000000000000008
 30
0.0
 40
55.999999999999957
 50
143.4514005425209
 51
156.55989814475191
  0
ARC
  5
E6
  8
1
 62
     7
 10
122.5214333443962
 20
28.000000000000011
 30
0.0
 40
3.2999999999999852
 50
149.99999999999861
 51
330.0000000000008
  0
ARC
  5
E7
  8
1
 62
     7
 10
122.5214333443962
 20
28.000000000000011
 30
0.0
 40
3.300000000000026
 50
330.0000000000008
 51
149.99999999999861
  0
ARC
  5
E8
  8
1
 62
     7
 10
122.5214333443962
 20
28.000000000000011
 30
0.0
 40
6.999999999999992
 50
239.99999999999989
 51
330.00000000000011
  0
ARC
  5
E9
  8
1
  6
DASHDOT
 62
     3
 10
171.0188559563247
 20
0.000000000000008
 30
0.0
 40
55.999999999999993
 50
263.62889264854562
 51
276.48314693579613
  0
ARC
  5
EA
  8
1
  6
DASHDOT
 62
     3
 10
171.0188559563247
 20
0.000000000000008
 30
0.0
 40
56.000000000000043
 50
23.500910586996952
 51
36.562630717864749
  0
ARC
  5
EB
  8
1
 62
     7
 10
171.0188559563247
 20
0.000000000000008
 30
0.0
 40
9.5000000000000426
 50
105.25752329045621
 51
74.742476709543709
  0
ARC
  5
EC
  8
1
 62
     7
 10
171.0188559563247
 20
-55.999999999999993
 30
0.0
 40
7.0
 50
0.0
 51
44.999999999999837
  0
ARC
  5
ED
  8
1
 62
     7
 10
122.5214333443962
 20
28.000000000000011
 30
0.0
 40
7.0000000000000266
 50
330.00000000000011
 51
60.000000000000178
  0
ARC
  5
EE
  8
1
 62
     7
 10
219.51627856825331
 20
28.000000000000011
 30
0.0
 40
6.9999999999999813
 50
120.0000000000001
 51
300.00000000000011
  0
ARC
  5
EF
  8
1
 62
     7
 10
171.0188559563247
 20
-55.999999999999993
 30
0.0
 40
7.0000000000000764
 50
44.999999999999837
 51
180.0
  0
CIRCLE
  5
F0
  8
1
 62
     7
 10
171.0188559563247
 20
0.000000000000008
 30
0.0
 40
20.75
  0
CIRCLE
  5
F1
  8
1
 62
     7
 10
171.0188559563247
 20
0.000000000000008
 30
0.0
 40
23.5
  0
CIRCLE
  5
F2
  8
1
 62
     7
 10
171.0188559563247
 20
0.000000000000008
 30
0.0
 40
30.0
  0
CIRCLE
  5
F3
  8
1
 62
     7
 10
143.01885595632481
 20
-48.497422611928521
 30
0.0
 40
2.0
  0
CIRCLE
  5
F4
  8
1
 62
     3
 10
143.01885595632481
 20
-48.497422611928521
 30
0.0
 40
2.5
  0
CIRCLE
  5
F5
  8
1
 62
     7
 10
143.0188559563247
 20
48.497422611928641
 30
0.0
 40
2.0
  0
CIRCLE
  5
F6
  8
1
 62
     3
 10
143.0188559563247
 20
48.497422611928641
 30
0.0
 40
2.5
  0
CIRCLE
  5
F7
  8
1
 62
     3
 10
227.01885595632459
 20
0.000000000000008
 30
0.0
 40
2.5
  0
CIRCLE
  5
F8
  8
1
 62
     7
 10
227.01885595632459
 20
0.000000000000008
 30
0.0
 40
2.0
  0
CIRCLE
  5
F9
  8
1
 62
     7
 10
219.51627856825331
 20
28.000000000000011
 30
0.0
 40
3.2999999999998981
  0
CIRCLE
  5
FA
  8
1
 62
     7
 10
171.0188559563247
 20
-55.999999999999993
 30
0.0
 40
3.3000000000000109
  0
CIRCLE
  5
FB
  8
1
 62
     7
 10
171.0188559563247
 20
0.000000000000008
 30
0.0
 40
62.500000000000099
  0
CIRCLE
  5
FC
  8
1
 62
     7
 10
171.0188559563247
 20
56.000000000000007
 30
0.0
 40
4.3071796769725088
  0
CIRCLE
  5
FD
  8
1
 62
     7
 10
171.0188559563247
 20
56.000000000000007
 30
0.0
 40
5.0
  0
CIRCLE
  5
FE
  8
1
 62
     7
 10
122.5214333443961
 20
-27.999999999999979
 30
0.0
 40
5.0
  0
CIRCLE
  5
FF
  8
1
 62
     7
 10
122.5214333443961
 20
-27.999999999999979
 30
0.0
 40
4.3071796769724946
  0
CIRCLE
  5
100
  8
1
 62
     7
 10
219.51627856825331
 20
-28.00000000000005
 30
0.0
 40
5.0
  0
CIRCLE
  5
101
  8
1
 62
     7
 10
219.51627856825331
 20
-28.00000000000005
 30
0.0
 40
4.3071796769724813
  0
TEXT
  5
103
  8
1
 62
     7
 10
-89.021400534196758
 20
113.69317204453991
 30
0.0
 40
5.0
  1
RNB 3
 41
0.9
  7
SIMPLEX
  0
ENDSEC
  0
EOF
