  0
SECTION
  2
HEADER
  9
$ACADVER
  1
AC1009
  9
$INSBASE
 10
0.0
 20
0.0
 30
0.0
  9
$EXTMIN
 10
-136.35804900268471
 20
-97.500000000000071
 30
0.0
  9
$EXTMAX
 10
269.54974180637612
 20
125.10882828267
 30
0.0
  9
$LIMMIN
 10
-136.35804900268471
 20
-97.500000000000071
  9
$LIMMAX
 10
269.54974180637601
 20
125.10882828267
  9
$ORTHOMODE
 70
     0
  9
$REGENMODE
 70
     1
  9
$FILLMODE
 70
     1
  9
$QTEXTMODE
 70
     0
  9
$MIRRTEXT
 70
     1
  9
$DRAGMODE
 70
     2
  9
$LTSCALE
 40
1.0
  9
$OSMODE
 70
    37
  9
$ATTMODE
 70
     1
  9
$TEXTSIZE
 40
3.5
  9
$TRACEWID
 40
0.5
  9
$TEXTSTYLE
  7
STANDARD
  9
$CLAYER
  8
0
  9
$CELTYPE
  6
BYLAYER
  9
$CECOLOR
 62
   256
  9
$DIMSCALE
 40
1.0
  9
$DIMASZ
 40
0.18
  9
$DIMEXO
 40
0.0625
  9
$DIMDLI
 40
0.38
  9
$DIMRND
 40
0.0
  9
$DIMDLE
 40
0.0
  9
$DIMEXE
 40
0.18
  9
$DIMTP
 40
0.0
  9
$DIMTM
 40
0.0
  9
$DIMTXT
 40
0.18
  9
$DIMCEN
 40
0.09
  9
$DIMTSZ
 40
0.0
  9
$DIMTOL
 70
     0
  9
$DIMLIM
 70
     0
  9
$DIMTIH
 70
     1
  9
$DIMTOH
 70
     1
  9
$DIMSE1
 70
     0
  9
$DIMSE2
 70
     0
  9
$DIMTAD
 70
     0
  9
$DIMZIN
 70
     0
  9
$DIMBLK
  1

  9
$DIMASO
 70
     1
  9
$DIMSHO
 70
     1
  9
$DIMPOST
  1

  9
$DIMAPOST
  1

  9
$DIMALT
 70
     0
  9
$DIMALTD
 70
     2
  9
$DIMALTF
 40
25.399999999999999
  9
$DIMLFAC
 40
1.0
  9
$DIMTOFL
 70
     0
  9
$DIMTVP
 40
0.0
  9
$DIMTIX
 70
     0
  9
$DIMSOXD
 70
     0
  9
$DIMSAH
 70
     0
  9
$DIMBLK1
  1

  9
$DIMBLK2
  1

  9
$DIMSTYLE
  2
STANDARD
  9
$DIMCLRD
 70
     0
  9
$DIMCLRE
 70
     0
  9
$DIMCLRT
 70
     0
  9
$DIMTFAC
 40
1.0
  9
$DIMGAP
 40
0.09
  9
$LUNITS
 70
     2
  9
$LUPREC
 70
     4
  9
$SKETCHINC
 40
0.1
  9
$FILLETRAD
 40
2.0
  9
$AUNITS
 70
     0
  9
$AUPREC
 70
     0
  9
$MENU
  1
ACAD
  9
$ELEVATION
 40
0.0
  9
$PELEVATION
 40
0.0
  9
$THICKNESS
 40
0.0
  9
$LIMCHECK
 70
     0
  9
$BLIPMODE
 70
     0
  9
$CHAMFERA
 40
0.0
  9
$CHAMFERB
 40
0.0
  9
$SKPOLY
 70
     0
  9
$TDCREATE
 40
2452094.9782649302
  9
$TDUPDATE
 40
2452094.9788040509
  9
$TDINDWG
 40
0.0005555556
  9
$TDUSRTIMER
 40
0.0005555556
  9
$USRTIMER
 70
     1
  9
$ANGBASE
 50
0.0
  9
$ANGDIR
 70
     0
  9
$PDMODE
 70
     0
  9
$PDSIZE
 40
0.0
  9
$PLINEWID
 40
0.0
  9
$COORDS
 70
     1
  9
$SPLFRAME
 70
     0
  9
$SPLINETYPE
 70
     6
  9
$SPLINESEGS
 70
     8
  9
$ATTDIA
 70
     0
  9
$ATTREQ
 70
     1
  9
$HANDLING
 70
 10241
  9
$HANDSEED
  5
104
  9
$SURFTAB1
 70
     6
  9
$SURFTAB2
 70
     6
  9
$SURFTYPE
 70
     6
  9
$SURFU
 70
     6
  9
$SURFV
 70
     6
  9
$UCSNAME
  2

  9
$UCSORG
 10
0.0
 20
0.0
 30
0.0
  9
$UCSXDIR
 10
1.0
 20
0.0
 30
0.0
  9
$UCSYDIR
 10
0.0
 20
1.0
 30
0.0
  9
$PUCSNAME
  2

  9
$PUCSORG
 10
0.0
 20
0.0
 30
0.0
  9
$PUCSXDIR
 10
1.0
 20
0.0
 30
0.0
  9
$PUCSYDIR
 10
0.0
 20
1.0
 30
0.0
  9
$USERI1
 70
     0
  9
$USERI2
 70
     0
  9
$USERI3
 70
     0
  9
$USERI4
 70
     0
  9
$USERI5
 70
     0
  9
$USERR1
 40
0.0
  9
$USERR2
 40
0.0
  9
$USERR3
 40
0.0
  9
$USERR4
 40
0.0
  9
$USERR5
 40
0.0
  9
$WORLDVIEW
 70
     1
  9
$SHADEDGE
 70
     3
  9
$SHADEDIF
 70
    70
  9
$TILEMODE
 70
     1
  9
$MAXACTVP
 70
    64
  9
$PLIMCHECK
 70
     0
  9
$PEXTMIN
 10
1.0000000000000000E+020
 20
1.0000000000000000E+020
 30
1.0000000000000000E+020
  9
$PEXTMAX
 10
-1.0000000000000000E+020
 20
-1.0000000000000000E+020
 30
-1.0000000000000000E+020
  9
$PLIMMIN
 10
0.0
 20
0.0
  9
$PLIMMAX
 10
12.0
 20
9.0
  9
$UNITMODE
 70
     0
  9
$VISRETAIN
 70
     1
  9
$PLINEGEN
 70
     0
  9
$PSLTSCALE
 70
     1
  0
ENDSEC
  0
SECTION
  2
TABLES
  0
TABLE
  2
VPORT
 70
     2
  0
VPORT
  2
*ACTIVE
 70
     0
 10
0.0
 20
0.0
 11
1.0
 21
1.0
 12
-104.6990388856721
 22
114.7353403212572
 13
0.0
 23
0.0
 14
1.0
 24
1.0
 15
0.0
 25
0.0
 16
0.0
 26
0.0
 36
1.0
 17
0.0
 27
0.0
 37
0.0
 40
9.0000004156284135
 41
2.4144144144144142
 42
50.0
 43
0.0
 44
0.0
 50
0.0
 51
0.0
 71
     0
 72
   100
 73
     1
 74
     1
 75
     0
 76
     0
 77
     0
 78
     0
  0
ENDTAB
  0
TABLE
  2
LTYPE
 70
     9
  0
LTYPE
  2
CONTINUOUS
 70
     0
  3
Solid line
 72
    65
 73
     0
 40
0.0
  0
LTYPE
  2
BORDER
 70
     0
  3
__ __ . __ __ .
 72
    65
 73
     6
 40
18.693121945154122
 49
5.3408919843297484
 49
-2.6704459921648742
 49
5.3408919843297484
 49
-2.6704459921648742
 49
0.0
 49
-2.6704459921648742
  0
LTYPE
  2
CENTER
 70
     0
  3
____ _ ____ _
 72
    65
 73
     4
 40
21.36356793731898
 49
13.35222996082436
 49
-2.6704459921648742
 49
2.6704459921648742
 49
-2.6704459921648742
  0
LTYPE
  2
DASHDOT
 70
     0
  3
__ . __ . __ .
 72
    65
 73
     4
 40
10.6817839686595
 49
5.3408919843297484
 49
-2.6704459921648742
 49
0.0
 49
-2.6704459921648742
  0
LTYPE
  2
DASHED
 70
     0
  3
__ __ __ __ __
 72
    65
 73
     2
 40
8.0113379764946213
 49
5.3408919843297484
 49
-2.6704459921648742
  0
LTYPE
  2
DIVIDE
 70
     0
  3
__ . . __ . . 
 72
    65
 73
     6
 40
13.35222996082436
 49
5.3408919843297484
 49
-2.6704459921648742
 49
0.0
 49
-2.6704459921648742
 49
0.0
 49
-2.6704459921648742
  0
LTYPE
  2
DOT
 70
     0
  3
..............
 72
    65
 73
     4
 40
5.3408919843297484
 49
0.0
 49
-2.6704459921648742
 49
0.0
 49
-2.6704459921648742
  0
LTYPE
  2
HIDDEN
 70
     0
  3
_ _ _ _ _ _ _
 72
    65
 73
     2
 40
4.0056689882473107
 49
2.6704459921648742
 49
-1.3352229960824371
  0
LTYPE
  2
PHANTOM
 70
     0
  3
_____ _ _ _____ _ _ 
 72
    65
 73
     6
 40
26.704459921648731
 49
13.35222996082436
 49
-2.6704459921648742
 49
2.6704459921648742
 49
-2.6704459921648742
 49
2.6704459921648742
 49
-2.6704459921648742
  0
ENDTAB
  0
TABLE
  2
LAYER
 70
     2
  0
LAYER
  2
0
 70
     0
 62
     7
  6
CONTINUOUS
  0
LAYER
  2
1
 70
     0
 62
     7
  6
CONTINUOUS
  0
ENDTAB
  0
TABLE
  2
STYLE
 70
     4
  0
STYLE
  2
STANDARD
 70
     0
 40
0.0
 41
1.0
 50
0.0
 71
     0
 42
3.5
  3
txt
  4

  0
STYLE
  2
SIMPLEX
 70
     0
 40
0.0
 41
1.0
 50
0.0
 71
     0
 42
3.5
  3
simplex
  4

  0
STYLE
  2
COMPLEX
 70
     0
 40
0.0
 41
1.0
 50
0.0
 71
     0
 42
3.5
  3
complex
  4

  0
STYLE
  2
ITALIC
 70
     0
 40
0.0
 41
1.0
 50
0.0
 71
     0
 42
3.5
  3
italic
  4

  0
ENDTAB
  0
TABLE
  2
VIEW
 70
     0
  0
ENDTAB
  0
TABLE
  2
UCS
 70
     0
  0
ENDTAB
  0
TABLE
  2
APPID
 70
     1
  0
APPID
  2
ACAD
 70
     0
  0
ENDTAB
  0
TABLE
  2
DIMSTYLE
 70
     1
  0
DIMSTYLE
  2
STANDARD
 70
     0
  3

  4

  5

  6

  7

 40
1.0
 41
0.18
 42
0.0625
 43
0.38
 44
0.18
 45
0.0
 46
0.0
 47
0.0
 48
0.0
140
0.18
141
0.09
142
0.0
143
25.399999999999999
144
1.0
145
0.0
146
1.0
147
0.09
 71
     0
 72
     0
 73
     1
 74
     1
 75
     0
 76
     0
 77
     0
 78
     0
170
     0
171
     2
172
     0
173
     0
174
     0
175
     0
176
     0
177
     0
178
     0
  0
ENDTAB
  0
ENDSEC
  0
SECTION
  2
BLOCKS
  0
BLOCK
  8
0
  2
$MODEL_SPACE
 70
     0
 10
0.0
 20
0.0
 30
0.0
  3
$MODEL_SPACE
  1

  0
ENDBLK
  5
20
  8
0
  0
BLOCK
 67
     1
  8
0
  2
$PAPER_SPACE
 70
     0
 10
0.0
 20
0.0
 30
0.0
  3
$PAPER_SPACE
  1

  0
ENDBLK
  5
1C
 67
     1
  8
0
  0
ENDSEC
  0
SECTION
  2
ENTITIES
  0
LINE
  5
33
  8
1
 62
     7
 10
193.54974180637601
 20
15.0
 30
0.0
 11
193.54974180637601
 21
11.478240283243871
 31
0.0
  0
LINE
  5
34
  8
1
 62
     7
 10
200.54974180637601
 20
15.0
 30
0.0
 11
193.54974180637601
 21
15.0
 31
0.0
  0
LINE
  5
35
  8
1
 62
     7
 10
200.54974180637601
 20
11.478240283243871
 30
0.0
 11
200.54974180637601
 21
15.0
 31
0.0
  0
LINE
  5
36
  8
1
 62
     7
 10
18.0
 20
-12.0
 30
0.0
 11
43.0
 21
-12.0
 31
0.0
  0
LINE
  5
37
  8
1
 62
     7
 10
18.0
 20
12.0
 30
0.0
 11
43.0
 21
12.0
 31
0.0
  0
LINE
  5
38
  8
1
 62
     7
 10
18.0
 20
19.0
 30
0.0
 11
18.0
 21
-19.0
 31
0.0
  0
LINE
  5
39
  8
1
 62
     7
 10
18.0
 20
15.0
 30
0.0
 11
43.0
 21
15.0
 31
0.0
  0
LINE
  5
3A
  8
1
 62
     7
 10
0.0
 20
72.5
 30
0.0
 11
27.000000000000011
 21
72.5
 31
0.0
  0
LINE
  5
3B
  8
1
 62
     7
 10
14.400000000000009
 20
-92.500000000000057
 30
0.0
 11
14.39999999999999
 21
-97.500000000000071
 31
0.0
  0
LINE
  5
3C
  8
1
 62
     7
 10
14.19999999999999
 20
-97.500000000000071
 30
0.0
 11
14.19999999999999
 21
-92.500000000000057
 31
0.0
  0
LINE
  5
3D
  8
1
 62
     7
 10
14.0
 20
-92.500000000000057
 30
0.0
 11
13.999999999999989
 21
-97.500000000000071
 31
0.0
  0
LINE
  5
3E
  8
1
 62
     7
 10
13.8000000000001
 20
-97.500000000000071
 30
0.0
 11
13.8000000000001
 21
-92.500000000000057
 31
0.0
  0
LINE
  5
3F
  8
1
 62
     7
 10
13.0
 20
-92.500000000000057
 30
0.0
 11
15.0
 21
-92.500000000000057
 31
0.0
  0
LINE
  5
40
  8
1
 62
     7
 10
13.599999999999991
 20
-92.500000000000057
 30
0.0
 11
13.599999999999991
 21
-97.500000000000071
 31
0.0
  0
LINE
  5
41
  8
1
 62
     7
 10
15.0
 20
-92.500000000000057
 30
0.0
 11
15.0
 21
-72.500000000000071
 31
0.0
  0
LINE
  5
42
  8
1
 62
     7
 10
13.0
 20
-72.500000000000071
 30
0.0
 11
13.0
 21
-92.500000000000057
 31
0.0
  0
LINE
  5
43
  8
1
 62
     7
 10
0.0
 20
-72.500000000000071
 30
0.0
 11
0.0
 21
72.5
 31
0.0
  0
LINE
  5
44
  8
1
 62
     7
 10
0.0
 20
-72.500000000000071
 30
0.0
 11
27.000000000000011
 21
-72.500000000000071
 31
0.0
  0
LINE
  5
45
  8
1
 62
     7
 10
27.0
 20
-24.5
 30
0.0
 11
0.0
 21
-24.5
 31
0.0
  0
LINE
  5
46
  8
1
 62
     7
 10
27.0
 20
24.5
 30
0.0
 11
0.0
 21
24.5
 31
0.0
  0
LINE
  5
47
  8
1
 62
     7
 10
138.05624214441119
 20
42.14281667892557
 30
0.0
 11
144.2580905603875
 21
38.56217782648838
 31
0.0
  0
LINE
  5
48
  8
1
 62
     7
 10
137.2580905603875
 20
26.43782217350628
 30
0.0
 11
131.05624214441119
 21
30.018461025943399
 31
0.0
  0
LINE
  5
49
  8
1
 62
     7
 10
263.04324146834068
 20
30.018461025943481
 30
0.0
 11
256.84139305236442
 21
26.43782217350628
 31
0.0
  0
LINE
  5
4A
  8
1
 62
     7
 10
249.84139305236451
 20
38.56217782648848
 30
0.0
 11
256.04324146834063
 21
42.14281667892557
 31
0.0
  0
LINE
  5
4B
  8
1
 62
     7
 10
204.04974180637601
 20
-65.000000000002572
 30
0.0
 11
204.04974180637601
 21
-72.161277704876909
 31
0.0
  0
LINE
  5
4C
  8
1
 62
     7
 10
190.04974180637601
 20
-72.161277704876909
 30
0.0
 11
190.04974180637601
 21
-65.000000000002572
 31
0.0
  0
LINE
  5
4D
  8
1
 62
     7
 10
27.5
 20
19.0
 30
0.0
 11
27.500000000000011
 21
59.5
 31
0.0
  0
LINE
  5
4E
  8
1
 62
     7
 10
27.500000000000011
 20
-72.500000000000071
 30
0.0
 11
27.5
 21
-19.0
 31
0.0
  0
LINE
  5
4F
  8
1
 62
     7
 10
43.0
 20
-23.5
 30
0.0
 11
43.0
 21
23.5
 31
0.0
  0
LINE
  5
50
  8
1
 62
     7
 10
35.0
 20
-19.0
 30
0.0
 11
35.0
 21
-42.5
 31
0.0
  0
LINE
  5
51
  8
1
 62
     7
 10
35.0
 20
-20.75
 30
0.0
 11
43.0
 21
-20.75
 31
0.0
  0
LINE
  5
52
  8
1
 62
     7
 10
35.0
 20
19.0
 30
0.0
 11
35.0
 21
42.5
 31
0.0
  0
LINE
  5
53
  8
1
 62
     7
 10
35.0
 20
20.75
 30
0.0
 11
43.0
 21
20.75
 31
0.0
  0
LINE
  5
54
  8
1
 62
     7
 10
43.0
 20
-23.5
 30
0.0
 11
35.0
 21
-23.5
 31
0.0
  0
LINE
  5
55
  8
1
 62
     7
 10
35.0
 20
-19.0
 30
0.0
 11
18.0
 21
-19.0
 31
0.0
  0
LINE
  5
56
  8
1
 62
     7
 10
18.0
 20
19.0
 30
0.0
 11
35.0
 21
19.0
 31
0.0
  0
LINE
  5
57
  8
1
 62
     7
 10
35.0
 20
23.5
 30
0.0
 11
43.0
 21
23.5
 31
0.0
  0
LINE
  5
58
  8
1
 62
     7
 10
222.92235513093789
 20
-88.830500841536136
 30
0.0
 11
217.7388330342919
 21
-69.48533301469692
 31
0.0
  0
LINE
  5
59
  8
1
 62
     7
 10
213.87512972913541
 20
-70.520609195107056
 30
0.0
 11
219.05865182578151
 21
-89.865777021946244
 31
0.0
  0
LINE
  5
5A
  8
1
 62
     7
 10
220.9905034783597
 20
-89.348138931741175
 30
0.0
 11
222.92235513093789
 21
-88.830500841536136
 31
0.0
  0
LINE
  5
5B
  8
1
 62
     7
 10
220.9905034783597
 20
-89.348138931741175
 30
0.0
 11
215.81412257630939
 21
-70.029622405959827
 31
0.0
  0
LINE
  5
5C
  8
1
 62
     7
 10
219.05865182578151
 20
-89.865777021946244
 30
0.0
 11
220.9905034783597
 21
-89.348138931741175
 31
0.0
  0
LINE
  5
5D
  8
1
 62
     7
 10
219.63820732155489
 20
-89.710485594884716
 30
0.0
 11
220.93230254706739
 21
-94.540114726330074
 31
0.0
  0
LINE
  5
5E
  8
1
 62
     7
 10
221.12548771232531
 20
-94.488350917309589
 30
0.0
 11
219.8313924868128
 21
-89.658721785864216
 31
0.0
  0
LINE
  5
5F
  8
1
 62
     7
 10
220.02457765207049
 20
-89.606957976843717
 30
0.0
 11
221.318672877583
 21
-94.436587108289075
 31
0.0
  0
LINE
  5
60
  8
1
 62
     7
 10
221.51185804284091
 20
-94.384823299268589
 30
0.0
 11
220.21776281732841
 21
-89.555194167823217
 31
0.0
  0
LINE
  5
61
  8
1
 62
     7
 10
220.41094798258609
 20
-89.503430358802731
 30
0.0
 11
221.7050432080986
 21
-94.333059490248132
 31
0.0
  0
LINE
  5
62
  8
1
 62
     7
 10
222.86415419964581
 20
-94.022476636125035
 30
0.0
 11
221.5700589741331
 21
-89.192847504679662
 31
0.0
  0
LINE
  5
63
  8
1
 62
     7
 10
221.76324413939091
 20
-89.141083695659162
 30
0.0
 11
223.05733936490361
 21
-93.970712827104563
 31
0.0
  0
LINE
  5
64
  8
1
 62
     7
 10
223.2505245301613
 20
-93.918949018084035
 30
0.0
 11
221.95642930464879
 21
-89.089319886638663
 31
0.0
  0
LINE
  5
65
  8
1
 62
     7
 10
222.14961446990651
 20
-89.037556077618163
 30
0.0
 11
223.44370969541899
 21
-93.867185209063564
 31
0.0
  0
LINE
  5
66
  8
1
 62
     7
 10
223.6368948606767
 20
-93.815421400043064
 30
0.0
 11
222.34279963516431
 21
-88.985792268597677
 31
0.0
  0
LINE
  5
67
  8
1
 62
     3
 10
-5.0
 20
0.0
 30
0.0
 11
0.0
 21
0.0
 31
0.0
  0
LINE
  5
68
  8
1
  6
DASHDOT
 62
     3
 10
-5.0000000000000133
 20
-65.000000000000071
 30
0.0
 11
53.999999999999943
 21
-65.000000000000071
 31
0.0
  0
LINE
  5
69
  8
1
 62
     7
 10
0.0
 20
-61.700000000000053
 30
0.0
 11
27.0
 21
-61.700000000000053
 31
0.0
  0
LINE
  5
6A
  8
1
 62
     7
 10
27.000000000000011
 20
-72.500000000000071
 30
0.0
 11
27.0
 21
-19.0
 31
0.0
  0
LINE
  5
6B
  8
1
 62
     7
 10
0.0
 20
-68.300000000000068
 30
0.0
 11
27.0
 21
-68.300000000000068
 31
0.0
  0
LINE
  5
6C
  8
1
 62
     7
 10
34.699999999999982
 20
57.5
 30
0.0
 11
41.89999999999997
 21
57.5
 31
0.0
  0
LINE
  5
6D
  8
1
 62
     7
 10
41.89999999999997
 20
57.5
 30
0.0
 11
41.89999999999997
 21
42.5
 31
0.0
  0
LINE
  5
6E
  8
1
 62
     7
 10
41.89999999999997
 20
42.5
 30
0.0
 11
40.09999999999998
 21
42.5
 31
0.0
  0
LINE
  5
6F
  8
1
 62
     7
 10
36.299999999999969
 20
42.5
 30
0.0
 11
34.699999999999982
 21
42.5
 31
0.0
  0
LINE
  5
70
  8
1
 62
     7
 10
34.699999999999982
 20
42.5
 30
0.0
 11
34.699999999999982
 21
57.5
 31
0.0
  0
LINE
  5
71
  8
1
 62
     7
 10
35.000000000000028
 20
57.5
 30
0.0
 11
35.000000000000028
 21
59.5
 31
0.0
  0
LINE
  5
72
  8
1
 62
     7
 10
41.400000000000048
 20
57.5
 30
0.0
 11
41.400000000000048
 21
72.5
 31
0.0
  0
LINE
  5
73
  8
1
 62
     7
 10
41.400000000000048
 20
72.5
 30
0.0
 11
49.0
 21
72.5
 31
0.0
  0
LINE
  5
74
  8
1
 62
     7
 10
35.0
 20
72.5
 30
0.0
 11
27.500000000000011
 21
72.5
 31
0.0
  0
LINE
  5
75
  8
1
 62
     7
 10
40.09999999999998
 20
-42.5
 30
0.0
 11
41.89999999999997
 21
-42.5
 31
0.0
  0
LINE
  5
76
  8
1
 62
     7
 10
41.89999999999997
 20
-42.5
 30
0.0
 11
41.89999999999997
 21
-57.5
 31
0.0
  0
LINE
  5
77
  8
1
 62
     7
 10
41.89999999999997
 20
-57.5
 30
0.0
 11
34.699999999999982
 21
-57.5
 31
0.0
  0
LINE
  5
78
  8
1
 62
     7
 10
34.699999999999982
 20
-57.5
 30
0.0
 11
34.699999999999982
 21
-42.5
 31
0.0
  0
LINE
  5
79
  8
1
 62
     7
 10
34.699999999999982
 20
-42.5
 30
0.0
 11
36.299999999999969
 21
-42.5
 31
0.0
  0
LINE
  5
7A
  8
1
 62
     7
 10
35.000000000000028
 20
-57.5
 30
0.0
 11
35.0
 21
-72.500000000000071
 31
0.0
  0
LINE
  5
7B
  8
1
 62
     7
 10
35.0
 20
-72.500000000000071
 30
0.0
 11
27.500000000000011
 21
-72.500000000000071
 31
0.0
  0
LINE
  5
7C
  8
1
 62
     7
 10
41.400000000000048
 20
-57.5
 30
0.0
 11
41.400000000000048
 21
-72.500000000000071
 31
0.0
  0
LINE
  5
7D
  8
1
 62
     7
 10
41.400000000000048
 20
-72.500000000000071
 30
0.0
 11
49.0
 21
-72.500000000000071
 31
0.0
  0
LINE
  5
7E
  8
1
 62
     7
 10
36.300000000000033
 20
57.5
 30
0.0
 11
36.299999999999969
 21
20.75
 31
0.0
  0
LINE
  5
7F
  8
1
 62
     7
 10
40.100000000000037
 20
-57.5
 30
0.0
 11
40.09999999999998
 21
-20.75
 31
0.0
  0
LINE
  5
80
  8
1
 62
     7
 10
36.299999999999969
 20
21.25
 30
0.0
 11
40.09999999999998
 21
21.25
 31
0.0
  0
LINE
  5
81
  8
1
 62
     7
 10
36.299999999999969
 20
24.25
 30
0.0
 11
40.09999999999998
 21
24.25
 31
0.0
  0
LINE
  5
82
  8
1
 62
     7
 10
36.299999999999969
 20
-24.25
 30
0.0
 11
40.09999999999998
 21
-24.25
 31
0.0
  0
LINE
  5
83
  8
1
 62
     7
 10
36.299999999999969
 20
-21.25
 30
0.0
 11
40.09999999999998
 21
-21.25
 31
0.0
  0
LINE
  5
84
  8
1
 62
     7
 10
36.299999999999969
 20
-20.75
 30
0.0
 11
36.300000000000033
 21
-57.5
 31
0.0
  0
LINE
  5
85
  8
1
 62
     7
 10
40.09999999999998
 20
20.75
 30
0.0
 11
40.100000000000037
 21
57.5
 31
0.0
  0
LINE
  5
86
  8
1
 62
     7
 10
41.39999999999997
 20
42.5
 30
0.0
 11
41.39999999999997
 21
23.5
 31
0.0
  0
LINE
  5
87
  8
1
 62
     7
 10
41.39999999999997
 20
-23.5
 30
0.0
 11
41.39999999999997
 21
-42.5
 31
0.0
  0
LINE
  5
88
  8
1
 62
     7
 10
49.0
 20
72.5
 30
0.0
 11
49.0
 21
-72.500000000000071
 31
0.0
  0
LINE
  5
89
  8
1
 62
     7
 10
27.5
 20
24.5
 30
0.0
 11
35.0
 21
24.5
 31
0.0
  0
LINE
  5
8A
  8
1
 62
     7
 10
27.5
 20
-24.5
 30
0.0
 11
35.0
 21
-24.5
 31
0.0
  0
LINE
  5
8B
  8
1
 62
     7
 10
41.39999999999997
 20
35.0
 30
0.0
 11
48.999999999999943
 21
35.0
 31
0.0
  0
LINE
  5
8C
  8
1
 62
     7
 10
41.39999999999997
 20
-35.0
 30
0.0
 11
48.999999999999943
 21
-35.0
 31
0.0
  0
LINE
  5
8D
  8
1
 62
     7
 10
41.39999999999997
 20
-58.0
 30
0.0
 11
48.999999999999943
 21
-58.0
 31
0.0
  0
LINE
  5
8E
  8
1
 62
     7
 10
27.5
 20
-58.0
 30
0.0
 11
35.0
 21
-58.0
 31
0.0
  0
LINE
  5
8F
  8
1
 62
     7
 10
27.5
 20
59.0
 30
0.0
 11
35.0
 21
59.0
 31
0.0
  0
LINE
  5
90
  8
1
 62
     7
 10
27.000000000000011
 20
70.5
 30
0.0
 11
41.400000000000048
 21
70.5
 31
0.0
  0
LINE
  5
91
  8
1
 62
     7
 10
27.000000000000011
 20
59.5
 30
0.0
 11
41.400000000000048
 21
59.5
 31
0.0
  0
LINE
  5
92
  8
1
 62
     7
 10
35.0
 20
70.5
 30
0.0
 11
35.0
 21
72.5
 31
0.0
  0
LINE
  5
93
  8
1
 62
     7
 10
27.500000000000011
 20
70.5
 30
0.0
 11
27.500000000000011
 21
72.5
 31
0.0
  0
LINE
  5
94
  8
1
 62
     7
 10
49.0
 20
65.0
 30
0.0
 11
50.5
 21
66.5
 31
0.0
  0
LINE
  5
95
  8
1
 62
     7
 10
49.0
 20
63.5
 30
0.0
 11
50.5
 21
65.0
 31
0.0
  0
LINE
  5
96
  8
1
 62
     7
 10
49.0
 20
71.09999999999998
 30
0.0
 11
50.5
 21
71.09999999999998
 31
0.0
  0
LINE
  5
97
  8
1
 62
     7
 10
50.5
 20
71.09999999999998
 30
0.0
 11
50.5
 21
58.899999999999892
 31
0.0
  0
LINE
  5
98
  8
1
 62
     7
 10
50.5
 20
58.899999999999892
 30
0.0
 11
49.0
 21
58.899999999999892
 31
0.0
  0
LINE
  5
99
  8
1
 62
     7
 10
50.5
 20
70.0
 30
0.0
 11
56.099999999999987
 21
70.0
 31
0.0
  0
LINE
  5
9A
  8
1
 62
     7
 10
56.099999999999987
 20
70.0
 30
0.0
 11
56.5
 21
69.307179676972396
 31
0.0
  0
LINE
  5
9B
  8
1
 62
     7
 10
56.5
 20
69.307179676972396
 30
0.0
 11
56.5
 21
60.692820323027497
 31
0.0
  0
LINE
  5
9C
  8
1
 62
     7
 10
56.5
 20
60.692820323027497
 30
0.0
 11
56.099999999999987
 21
60.0
 31
0.0
  0
LINE
  5
9D
  8
1
 62
     7
 10
56.099999999999987
 20
60.0
 30
0.0
 11
50.5
 21
60.0
 31
0.0
  0
LINE
  5
9E
  8
1
 62
     7
 10
56.099999999999987
 20
70.0
 30
0.0
 11
56.099999999999987
 21
60.0
 31
0.0
  0
LINE
  5
9F
  8
1
 62
     7
 10
27.000000000000011
 20
72.5
 30
0.0
 11
27.0
 21
19.0
 31
0.0
  0
LINE
  5
A0
  8
1
 62
     7
 10
140.7580905603875
 20
-29.61324865405442
 30
0.0
 11
138.2580905603875
 21
-31.056624327028509
 31
0.0
  0
LINE
  5
A1
  8
1
 62
     7
 10
138.2580905603875
 20
-31.056624327028509
 30
0.0
 11
138.2580905603875
 21
-33.943375672976607
 31
0.0
  0
LINE
  5
A2
  8
1
 62
     7
 10
138.2580905603875
 20
-33.943375672976607
 30
0.0
 11
140.7580905603875
 21
-35.386751345950707
 31
0.0
  0
LINE
  5
A3
  8
1
 62
     7
 10
140.7580905603875
 20
-35.386751345950707
 30
0.0
 11
143.2580905603875
 21
-33.943375672976607
 31
0.0
  0
LINE
  5
A4
  8
1
 62
     7
 10
143.2580905603875
 20
-33.943375672976607
 30
0.0
 11
143.2580905603875
 21
-31.056624327028509
 31
0.0
  0
LINE
  5
A5
  8
1
 62
     7
 10
143.2580905603875
 20
-31.056624327028509
 30
0.0
 11
140.7580905603875
 21
-29.61324865405442
 31
0.0
  0
LINE
  5
A6
  8
1
 62
     7
 10
199.54974180637601
 20
66.443375672971399
 30
0.0
 11
197.04974180637589
 21
67.886751345945498
 31
0.0
  0
LINE
  5
A7
  8
1
 62
     7
 10
197.04974180637589
 20
67.886751345945498
 30
0.0
 11
194.54974180637601
 21
66.443375672971399
 31
0.0
  0
LINE
  5
A8
  8
1
 62
     7
 10
194.54974180637601
 20
66.443375672971399
 30
0.0
 11
194.54974180637601
 21
63.556624327023279
 31
0.0
  0
LINE
  5
A9
  8
1
 62
     7
 10
194.54974180637601
 20
63.556624327023279
 30
0.0
 11
197.04974180637589
 21
62.11324865404918
 31
0.0
  0
LINE
  5
AA
  8
1
 62
     7
 10
197.04974180637589
 20
62.11324865404918
 30
0.0
 11
199.54974180637601
 21
63.556624327023279
 31
0.0
  0
LINE
  5
AB
  8
1
 62
     7
 10
199.54974180637601
 20
63.556624327023279
 30
0.0
 11
199.54974180637601
 21
66.443375672971399
 31
0.0
  0
LINE
  5
AC
  8
1
 62
     7
 10
255.8413930523644
 20
-31.056624327028509
 30
0.0
 11
253.34139305236431
 21
-29.61324865405442
 31
0.0
  0
LINE
  5
AD
  8
1
 62
     7
 10
253.34139305236431
 20
-29.61324865405442
 30
0.0
 11
250.84139305236431
 21
-31.056624327028509
 31
0.0
  0
LINE
  5
AE
  8
1
 62
     7
 10
250.84139305236431
 20
-31.056624327028509
 30
0.0
 11
250.84139305236431
 21
-33.943375672976607
 31
0.0
  0
LINE
  5
AF
  8
1
 62
     7
 10
250.84139305236431
 20
-33.943375672976607
 30
0.0
 11
253.34139305236431
 21
-35.386751345950707
 31
0.0
  0
LINE
  5
B0
  8
1
 62
     7
 10
253.34139305236431
 20
-35.386751345950707
 30
0.0
 11
255.8413930523644
 21
-33.943375672976607
 31
0.0
  0
LINE
  5
B1
  8
1
 62
     7
 10
255.8413930523644
 20
-33.943375672976607
 30
0.0
 11
255.8413930523644
 21
-31.056624327028509
 31
0.0
  0
LINE
  5
B2
  8
1
  6
DASHDOT
 62
     3
 10
247.88543300852251
 20
29.349999999997351
 30
0.0
 11
258.79735309620628
 21
35.649999999997313
 31
0.0
  0
LINE
  5
B3
  8
1
 62
     3
 10
202.34636666828209
 20
-0.0000000000025011
 30
0.0
 11
191.75311694446981
 21
-0.0000000000025011
 31
0.0
  0
LINE
  5
B4
  8
1
 62
     3
 10
197.04974180637589
 20
5.2966248619036946
 30
0.0
 11
197.04974180637589
 21
-5.2966248619086969
 31
0.0
  0
LINE
  5
B5
  8
1
  6
DASHDOT
 62
     3
 10
146.21405060422941
 20
29.34999999999766
 30
0.0
 11
135.3021305165457
 21
35.64999999999759
 31
0.0
  0
LINE
  5
B6
  8
1
  6
DASHDOT
 62
     3
 10
197.04974180637569
 20
-58.70000000000249
 30
0.0
 11
197.04974180637569
 21
-71.300000000002399
 31
0.0
  0
LINE
  5
B7
  8
1
 62
     3
 10
49.0
 20
0.0
 30
0.0
 11
54.0
 21
0.0
 31
0.0
  0
LINE
  5
B8
  8
1
 62
     7
 10
-131.35804900268471
 20
72.5
 30
0.0
 11
-104.35804900268469
 21
72.5
 31
0.0
  0
LINE
  5
B9
  8
1
 62
     7
 10
-116.9580490026847
 20
-92.500000000000057
 30
0.0
 11
-116.9580490026847
 21
-97.500000000000071
 31
0.0
  0
LINE
  5
BA
  8
1
 62
     7
 10
-117.15804900268471
 20
-97.500000000000071
 30
0.0
 11
-117.15804900268471
 21
-92.500000000000057
 31
0.0
  0
LINE
  5
BB
  8
1
 62
     7
 10
-117.35804900268469
 20
-92.500000000000057
 30
0.0
 11
-117.35804900268469
 21
-97.500000000000071
 31
0.0
  0
LINE
  5
BC
  8
1
 62
     7
 10
-117.5580490026846
 20
-97.500000000000071
 30
0.0
 11
-117.5580490026846
 21
-92.500000000000057
 31
0.0
  0
LINE
  5
BD
  8
1
 62
     7
 10
-118.35804900268469
 20
-92.500000000000057
 30
0.0
 11
-116.35804900268469
 21
-92.500000000000057
 31
0.0
  0
LINE
  5
BE
  8
1
 62
     7
 10
-117.7580490026847
 20
-92.500000000000057
 30
0.0
 11
-117.7580490026847
 21
-97.500000000000071
 31
0.0
  0
LINE
  5
BF
  8
1
 62
     7
 10
-116.35804900268469
 20
-92.500000000000057
 30
0.0
 11
-116.35804900268469
 21
-72.500000000000071
 31
0.0
  0
LINE
  5
C0
  8
1
 62
     7
 10
-118.35804900268469
 20
-72.500000000000071
 30
0.0
 11
-118.35804900268469
 21
-92.500000000000057
 31
0.0
  0
LINE
  5
C1
  8
1
 62
     7
 10
-131.35804900268471
 20
-72.500000000000071
 30
0.0
 11
-131.35804900268471
 21
72.5
 31
0.0
  0
LINE
  5
C2
  8
1
 62
     7
 10
-131.35804900268471
 20
-72.500000000000071
 30
0.0
 11
-104.35804900268469
 21
-72.500000000000071
 31
0.0
  0
LINE
  5
C3
  8
1
 62
     3
 10
-136.35804900268471
 20
0.0
 30
0.0
 11
-131.35804900268471
 21
0.0
 31
0.0
  0
LINE
  5
C4
  8
1
 62
     7
 10
-104.35804900268469
 20
-72.500000000000071
 30
0.0
 11
-104.35804900268469
 21
72.5
 31
0.0
  0
LINE
  5
C5
  8
1
 62
     7
 10
-89.958049002684646
 20
72.5
 30
0.0
 11
-82.358049002684709
 21
72.5
 31
0.0
  0
LINE
  5
C6
  8
1
 62
     7
 10
-96.358049002684723
 20
72.5
 30
0.0
 11
-103.85804900268469
 21
72.5
 31
0.0
  0
LINE
  5
C7
  8
1
 62
     7
 10
-96.358049002684723
 20
-72.500000000000071
 30
0.0
 11
-103.85804900268469
 21
-72.500000000000071
 31
0.0
  0
LINE
  5
C8
  8
1
 62
     7
 10
-89.958049002684646
 20
-72.500000000000071
 30
0.0
 11
-89.958049002684646
 21
72.5
 31
0.0
  0
LINE
  5
C9
  8
1
 62
     7
 10
-89.958049002684646
 20
-72.500000000000071
 30
0.0
 11
-82.358049002684709
 21
-72.500000000000071
 31
0.0
  0
LINE
  5
CA
  8
1
 62
     7
 10
-95.058049002684683
 20
57.5
 30
0.0
 11
-95.058049002684683
 21
-57.5
 31
0.0
  0
LINE
  5
CB
  8
1
 62
     7
 10
-91.258049002684686
 20
-57.5
 30
0.0
 11
-91.258049002684686
 21
57.5
 31
0.0
  0
LINE
  5
CC
  8
1
 62
     7
 10
-82.358049002684709
 20
72.5
 30
0.0
 11
-82.358049002684709
 21
-72.500000000000071
 31
0.0
  0
LINE
  5
CD
  8
1
 62
     7
 10
-104.35804900268469
 20
70.5
 30
0.0
 11
-103.85804900268469
 21
70.5
 31
0.0
  0
LINE
  5
CE
  8
1
 62
     7
 10
-104.35804900268469
 20
59.5
 30
0.0
 11
-103.85804900268469
 21
59.5
 31
0.0
  0
LINE
  5
CF
  8
1
 62
     7
 10
-82.358049002684709
 20
65.0
 30
0.0
 11
-80.858049002684695
 21
66.5
 31
0.0
  0
LINE
  5
D0
  8
1
 62
     7
 10
-82.358049002684709
 20
63.5
 30
0.0
 11
-80.858049002684695
 21
65.0
 31
0.0
  0
LINE
  5
D1
  8
1
 62
     7
 10
-82.358049002684709
 20
71.09999999999998
 30
0.0
 11
-80.858049002684695
 21
71.09999999999998
 31
0.0
  0
LINE
  5
D2
  8
1
 62
     7
 10
-80.858049002684695
 20
71.09999999999998
 30
0.0
 11
-80.858049002684695
 21
58.899999999999892
 31
0.0
  0
LINE
  5
D3
  8
1
 62
     7
 10
-80.858049002684695
 20
58.899999999999892
 30
0.0
 11
-82.358049002684709
 21
58.899999999999892
 31
0.0
  0
LINE
  5
D4
  8
1
 62
     7
 10
-80.858049002684695
 20
70.0
 30
0.0
 11
-75.258049002684714
 21
70.0
 31
0.0
  0
LINE
  5
D5
  8
1
 62
     7
 10
-75.258049002684714
 20
70.0
 30
0.0
 11
-74.858049002684709
 21
69.307179676972396
 31
0.0
  0
LINE
  5
D6
  8
1
 62
     7
 10
-74.858049002684709
 20
69.307179676972396
 30
0.0
 11
-74.858049002684709
 21
60.692820323027497
 31
0.0
  0
LINE
  5
D7
  8
1
 62
     7
 10
-74.858049002684709
 20
60.692820323027497
 30
0.0
 11
-75.258049002684714
 21
60.0
 31
0.0
  0
LINE
  5
D8
  8
1
 62
     7
 10
-75.258049002684714
 20
60.0
 30
0.0
 11
-80.858049002684695
 21
60.0
 31
0.0
  0
LINE
  5
D9
  8
1
 62
     7
 10
-75.258049002684714
 20
70.0
 30
0.0
 11
-75.258049002684714
 21
60.0
 31
0.0
  0
LINE
  5
DA
  8
1
 62
     3
 10
-82.358049002684709
 20
0.0
 30
0.0
 11
-77.358049002684709
 21
0.0
 31
0.0
  0
LINE
  5
DB
  8
1
 62
     7
 10
-96.358049002684695
 20
57.5
 30
0.0
 11
-89.958049002684646
 21
57.5
 31
0.0
  0
LINE
  5
DC
  8
1
 62
     7
 10
-89.958049002684646
 20
-57.5
 30
0.0
 11
-96.358049002684695
 21
-57.5
 31
0.0
  0
LINE
  5
DD
  8
1
 62
     7
 10
-103.85804900268469
 20
-72.500000000000071
 30
0.0
 11
-103.85804900268469
 21
72.5
 31
0.0
  0
LINE
  5
DE
  8
1
 62
     7
 10
-96.358049002684695
 20
59.5
 30
0.0
 11
-89.958049002684646
 21
59.5
 31
0.0
  0
LINE
  5
DF
  8
1
 62
     7
 10
-96.358049002684723
 20
70.5
 30
0.0
 11
-89.958049002684646
 21
70.5
 31
0.0
  0
LINE
  5
E0
  8
1
 62
     7
 10
-96.358049002684723
 20
72.449151530029368
 30
0.0
 11
-96.358049002684723
 21
-72.500000000000071
 31
0.0
  0
ARC
  5
E1
  8
1
 62
     7
 10
197.04974180637589
 20
-0.0000000000025011
 30
0.0
 40
11.99999999999749
 50
106.9577633000077
 51
73.042236699992216
  0
ARC
  5
E2
  8
1
 62
     7
 10
140.7580905603875
 20
32.499999999997392
 30
0.0
 40
7.0000000000000346
 50
240.0000000000002
 51
59.999999999999673
  0
ARC
  5
E3
  8
1
 62
     7
 10
253.34139305236451
 20
32.499999999997293
 30
0.0
 40
7.0000000000001004
 50
119.9999999999996
 51
300.00000000000011
  0
ARC
  5
E4
  8
1
 62
     7
 10
197.04974180637589
 20
-65.000000000002444
 30
0.0
 40
7.0
 50
0.0
 51
180.0
  0
ARC
  5
E5
  8
1
  6
DASHDOT
 62
     3
 10
197.04974180637589
 20
-0.0000000000025011
 30
0.0
 40
64.999999999999758
 50
24.43892691450823
 51
35.561073085491401
  0
ARC
  5
E6
  8
1
  6
DASHDOT
 62
     3
 10
197.04974180637589
 20
-0.0000000000025011
 30
0.0
 40
64.999999999999901
 50
144.4389269145081
 51
155.56107308549139
  0
ARC
  5
E7
  8
1
  6
DASHDOT
 62
     3
 10
197.04974180637589
 20
-0.0000000000025011
 30
0.0
 40
64.999999999999829
 50
264.4389269145081
 51
275.5610730854911
  0
CIRCLE
  5
E8
  8
1
 62
     7
 10
197.04974180637589
 20
-0.0000000000025011
 30
0.0
 40
72.500000000000099
  0
CIRCLE
  5
E9
  8
1
 62
     3
 10
134.2645630975866
 20
-16.823237931666512
 30
0.0
 40
2.5
  0
CIRCLE
  5
EA
  8
1
 62
     7
 10
134.2645630975866
 20
-16.823237931666512
 30
0.0
 40
2.0
  0
CIRCLE
  5
EB
  8
1
 62
     3
 10
259.83492051516532
 20
-16.823237931666512
 30
0.0
 40
2.5
  0
CIRCLE
  5
EC
  8
1
 62
     7
 10
259.83492051516532
 20
-16.823237931666512
 30
0.0
 40
2.0
  0
CIRCLE
  5
ED
  8
1
 62
     3
 10
213.87297973803979
 20
62.785178708786802
 30
0.0
 40
2.5
  0
CIRCLE
  5
EE
  8
1
 62
     7
 10
213.87297973803979
 20
62.785178708786802
 30
0.0
 40
2.0
  0
CIRCLE
  5
EF
  8
1
 62
     7
 10
140.7580905603875
 20
32.499999999997392
 30
0.0
 40
3.2999999999999261
  0
CIRCLE
  5
F0
  8
1
 62
     7
 10
253.34139305236451
 20
32.499999999997293
 30
0.0
 40
3.2999999999998679
  0
CIRCLE
  5
F1
  8
1
 62
     7
 10
197.04974180637589
 20
-65.000000000002444
 30
0.0
 40
3.2999999999998981
  0
CIRCLE
  5
F2
  8
1
 62
     7
 10
140.7580905603875
 20
-32.500000000002508
 30
0.0
 40
5.0
  0
CIRCLE
  5
F3
  8
1
 62
     7
 10
197.04974180637589
 20
64.999999999997286
 30
0.0
 40
5.0
  0
CIRCLE
  5
F4
  8
1
 62
     7
 10
253.34139305236431
 20
-32.500000000002508
 30
0.0
 40
5.0000000000000284
  0
CIRCLE
  5
F5
  8
1
 62
     7
 10
197.04974180637589
 20
-0.0000000000025011
 30
0.0
 40
20.750000000002501
  0
CIRCLE
  5
F6
  8
1
 62
     7
 10
197.04974180637589
 20
-0.0000000000025011
 30
0.0
 40
23.50000000000249
  0
CIRCLE
  5
F7
  8
1
 62
     7
 10
197.04974180637589
 20
-0.0000000000025011
 30
0.0
 40
35.0
  0
CIRCLE
  5
F8
  8
1
 62
     7
 10
197.04974180637589
 20
64.999999999997286
 30
0.0
 40
6.0999999999999943
  0
CIRCLE
  5
F9
  8
1
 62
     7
 10
140.7580905603875
 20
-32.500000000002508
 30
0.0
 40
6.1000000000000218
  0
CIRCLE
  5
FA
  8
1
 62
     7
 10
253.34139305236431
 20
-32.500000000002508
 30
0.0
 40
6.0999999999999943
  0
TEXT
  5
FC
  8
1
 62
     7
 10
-117.3489498135288
 20
120.1088282826699
 30
0.0
 40
5.0
  1
RNB 5
 41
0.9
  7
SIMPLEX
  0
ENDSEC
  0
EOF
