  0
SECTION
  2
HEADER
  9
$ACADVER
  1
AC1009
  9
$INSBASE
 10
0
 20
0
  9
$EXTMIN
 10
4017.619676324819
 20
-757.5772595809176
  9
$EXTMAX
 10
4478.619676324841
 20
-573.575745519207
  9
$LIMMIN
 10
4017.619676324819
 20
-757.5772595809176
  9
$LIMMAX
 10
4478.619676324841
 20
-573.575745519207
  9
$VIEWCTR
 10
10
 20
10
  9
$VIEWSIZE
 40
10
  9
$SNAPMODE
 70
0
  9
$SNAPUNIT
 10
1
 20
1
  9
$SNAPBASE
 10
0
 20
0
  9
$SNAPANG
 50
0
  9
$SNAPSTYLE
 70
0
  9
$SNAPISOPAIR
 70
0
  9
$GRIDMODE
 70
0
  9
$GRIDUNIT
 10
0
 20
0
  9
$ORTHOMODE
 70
0
  9
$REGENMODE
 70
1
  9
$FILLMODE
 70
1
  9
$QTEXTMODE
 70
0
  9
$DRAGMODE
 70
2
  9
$LTSCALE
 40
1
  9
$OSMODE
 70
0
  9
$ATTMODE
 70
1
  9
$TEXTSIZE
 40
3.5
  9
$TRACEWID
 40
0.5
  9
$TEXTSTYLE
  7
STANDARD
  9
$CLAYER
  8
0
  9
$CELTYPE
  6
BYLAYER
  9
$CECOLOR
 62
256
  9
$DIMSCALE
 40
1
  9
$DIMASZ
 40
0.18
  9
$DIMEXO
 40
0.0625
  9
$DIMDLI
 40
0.38
  9
$DIMRND
 40
0
  9
$DIMDLE
 40
0
  9
$DIMEXE
 40
0.18
  9
$DIMTP
 40
0
  9
$DIMTM
 40
0
  9
$DIMTXT
 40
0.18
  9
$DIMCEN
 40
0.09
  9
$DIMTSZ
 40
0
  9
$DIMTOL
 70
0
  9
$DIMLIM
 70
0
  9
$DIMTIH
 70
1
  9
$DIMTOH
 70
1
  9
$DIMSE1
 70
0
  9
$DIMSE2
 70
0
  9
$DIMTAD
 70
0
  9
$DIMZIN
 70
0
  9
$DIMBLK
  1

  9
$DIMASO
 70
1
  9
$DIMSHO
 70
1
  9
$DIMPOST
  1

  9
$DIMAPOST
  1

  9
$DIMALT
 70
0
  9
$DIMALTD
 70
2
  9
$DIMALTF
 40
25.4
  9
$DIMLFAC
 40
1
  9
$DIMTOFL
 70
0
  9
$DIMTVP
 40
0
  9
$DIMTIX
 70
0
  9
$DIMSOXD
 70
0
  9
$DIMSAH
 70
0
  9
$DIMBLK1
  1

  9
$DIMBLK2
  1

  9
$DIMSTYLE
  2
*UNNAMED
  9
$DIMCLRD
 70
0
  9
$DIMCLRE
 70
0
  9
$DIMCLRT
 70
0
  9
$DIMTFAC
 40
1
  9
$DIMGAP
 40
0.09
  9
$LUNITS
 70
2
  9
$LUPREC
 70
4
  9
$AXISMODE
 70
0
  9
$AXISUNIT
 10
0
 20
0
  9
$SKETCHINC
 40
0.1
  9
$FILLETRAD
 40
2
  9
$AUNITS
 70
0
  9
$AUPREC
 70
0
  9
$MENU
  1
ACAD
  9
$ELEVATION
 40
0
  9
$THICKNESS
 40
0
  9
$VIEWDIR
 10
0
 20
0
 30
1
  9
$LIMCHECK
 70
0
  9
$BLIPMODE
 70
1
  9
$CHAMFERA
 40
0
  9
$CHAMFERB
 40
0
  9
$FASTZOOM
 70
1
  9
$SKPOLY
 70
0
  9
$ANGBASE
 50
0
  9
$ANGDIR
 70
0
  9
$PDMODE
 70
0
  9
$PDSIZE
 40
0
  9
$PLINEWID
 40
0
  9
$COORDS
 70
2
  0
ENDSEC
  0
SECTION
  2
TABLES
  0
TABLE
  2
DIMSTYLE
 70
0
  0
ENDTAB
  0
TABLE
  2
LTYPE
 70
9
  0
LTYPE
  2
CONTINUOUS
 70
64
  3
Solid line
 72
65
 73
0
 40
0
  0
LTYPE
  2
BORDER
 70
64
  3
__ __ . __ __ .
 72
65
 73
6
 40
21.23026315789574
 49
6.065789473684498
 49
-3.032894736842249
 49
6.065789473684498
 49
-3.032894736842249
 49
0
 49
-3.032894736842249
  0
LTYPE
  2
CENTER
 70
64
  3
____ _ ____ _
 72
65
 73
4
 40
24.26315789473799
 49
15.16447368421124
 49
-3.032894736842249
 49
3.032894736842249
 49
-3.032894736842249
  0
LTYPE
  2
DASHDOT
 70
64
  3
__ . __ . __ .
 72
65
 73
4
 40
12.131578947369
 49
6.065789473684498
 49
-3.032894736842249
 49
0
 49
-3.032894736842249
  0
LTYPE
  2
DASHED
 70
64
  3
__ __ __ __ __
 72
65
 73
2
 40
9.098684210526747
 49
6.065789473684498
 49
-3.032894736842249
  0
LTYPE
  2
DIVIDE
 70
64
  3
__ . . __ . . 
 72
65
 73
6
 40
15.16447368421124
 49
6.065789473684498
 49
-3.032894736842249
 49
0
 49
-3.032894736842249
 49
0
 49
-3.032894736842249
  0
LTYPE
  2
DOT
 70
64
  3
..............
 72
65
 73
4
 40
6.065789473684498
 49
0
 49
-3.032894736842249
 49
0
 49
-3.032894736842249
  0
LTYPE
  2
HIDDEN
 70
64
  3
_ _ _ _ _ _ _
 72
65
 73
2
 40
4.549342105263373
 49
3.032894736842249
 49
-1.516447368421124
  0
LTYPE
  2
PHANTOM
 70
64
  3
_____ _ _ _____ _ _ 
 72
65
 73
6
 40
30.32894736842249
 49
15.16447368421124
 49
-3.032894736842249
 49
3.032894736842249
 49
-3.032894736842249
 49
3.032894736842249
 49
-3.032894736842249
  0
ENDTAB
  0
TABLE
  2
LAYER
 70
3
  0
LAYER
  2
1
 70
0
 62
7
  6
CONTINUOUS
  0
LAYER
  2
0
 70
0
 62
7
  6
CONTINUOUS
  0
ENDTAB
  0
TABLE
  2
STYLE
 70
4
  0
STYLE
  2
STANDARD
 70
0
 40
0
 41
1
 50
0
 71
0
 42
3.5
  3
txt
  4

  0
STYLE
  2
SIMPLEX
 70
0
 40
0
 41
1
 50
0
 71
0
 42
3.5
  3
simplex
  4

  0
STYLE
  2
COMPLEX
 70
0
 40
0
 41
1
 50
0
 71
0
 42
3.5
  3
complex
  4

  0
STYLE
  2
ITALIC
 70
0
 40
0
 41
1
 50
0
 71
0
 42
3.5
  3
italic
  4

  0
ENDTAB
  0
TABLE
  2
VIEW
 70
0
  0
ENDTAB
  0
ENDSEC
  0
SECTION
  2
BLOCKS
  0
ENDSEC
  0
SECTION
  2
ENTITIES
  0
LINE
  8
1
 62
3
  6
DASHDOT
 10
4145.61967632483
 20
-676.5772595809249
 30
0
 11
4145.61967632483
 21
-692.5772595809249
 31
0
  0
LINE
  8
1
 62
3
  6
DASHDOT
 10
4153.61967632483
 20
-684.577259580914
 30
0
 11
4137.61967632483
 21
-684.577259580914
 31
0
  0
LINE
  8
1
 62
7
 10
4147.0630519978
 20
-687.0772595809067
 30
0
 11
4148.506427670782
 21
-684.5772595809067
 31
0
  0
LINE
  8
1
 62
7
 10
4144.176300651841
 20
-687.0772595808958
 30
0
 11
4147.0630519978
 21
-687.0772595809067
 31
0
  0
LINE
  8
1
 62
7
 10
4142.732924978882
 20
-684.5772595808958
 30
0
 11
4144.176300651841
 21
-687.0772595808958
 31
0
  0
LINE
  8
1
 62
7
 10
4144.176300651852
 20
-682.077259580914
 30
0
 11
4142.732924978882
 21
-684.5772595808958
 31
0
  0
LINE
  8
1
 62
7
 10
4147.0630519978
 20
-682.0772595808958
 30
0
 11
4144.176300651852
 21
-682.077259580914
 31
0
  0
LINE
  8
1
 62
7
 10
4148.506427670782
 20
-684.5772595809067
 30
0
 11
4147.0630519978
 21
-682.0772595808958
 31
0
  0
LINE
  8
1
 62
3
  6
DASHDOT
 10
4098.619676324819
 20
-739.5772595809067
 30
0
 11
4082.619676324819
 21
-739.5772595809067
 31
0
  0
LINE
  8
1
 62
3
  6
DASHDOT
 10
4090.61967632483
 20
-747.577259580914
 30
0
 11
4090.61967632483
 21
-731.577259580914
 31
0
  0
LINE
  8
1
 62
7
 10
4088.119676324841
 20
-741.0206352538553
 30
0
 11
4090.619676324841
 21
-742.4640109268439
 31
0
  0
LINE
  8
1
 62
7
 10
4088.119676324841
 20
-738.1338839079144
 30
0
 11
4088.119676324841
 21
-741.0206352538553
 31
0
  0
LINE
  8
1
 62
7
 10
4090.619676324841
 20
-736.690508234944
 30
0
 11
4088.119676324841
 21
-738.1338839079144
 31
0
  0
LINE
  8
1
 62
7
 10
4093.119676324841
 20
-738.1338839079144
 30
0
 11
4090.619676324841
 21
-736.690508234944
 31
0
  0
LINE
  8
1
 62
7
 10
4093.119676324841
 20
-741.0206352538662
 30
0
 11
4093.119676324841
 21
-738.1338839079144
 31
0
  0
LINE
  8
1
 62
7
 10
4090.619676324841
 20
-742.4640109268439
 30
0
 11
4093.119676324841
 21
-741.0206352538662
 31
0
  0
LINE
  8
1
 62
3
  6
DASHDOT
 10
4035.61967632483
 20
-692.5772595809067
 30
0
 11
4035.61967632483
 21
-676.5772595809067
 31
0
  0
LINE
  8
1
 62
3
  6
DASHDOT
 10
4035.61967632483
 20
-692.5772595809067
 30
0
 11
4035.61967632483
 21
-676.5772595809067
 31
0
  0
LINE
  8
1
 62
3
  6
DASHDOT
 10
4027.619676324819
 20
-684.5772595809067
 30
0
 11
4043.619676324819
 21
-684.5772595809067
 31
0
  0
LINE
  8
1
 62
3
  6
DASHDOT
 10
4027.619676324819
 20
-684.5772595809067
 30
0
 11
4043.619676324819
 21
-684.5772595809067
 31
0
  0
LINE
  8
1
 62
7
 10
4034.17630065187
 20
-682.0772595808958
 30
0
 11
4032.7329249789
 21
-684.5772595808958
 31
0
  0
LINE
  8
1
 62
7
 10
4037.063051997811
 20
-682.0772595808958
 30
0
 11
4034.17630065187
 21
-682.0772595808958
 31
0
  0
LINE
  8
1
 62
7
 10
4038.506427670793
 20
-684.5772595808958
 30
0
 11
4037.063051997811
 21
-682.0772595808958
 31
0
  0
LINE
  8
1
 62
7
 10
4037.063051997811
 20
-687.0772595808958
 30
0
 11
4038.506427670793
 21
-684.5772595808958
 31
0
  0
LINE
  8
1
 62
7
 10
4034.17630065187
 20
-687.0772595808958
 30
0
 11
4037.063051997811
 21
-687.0772595808958
 31
0
  0
LINE
  8
1
 62
7
 10
4032.7329249789
 20
-684.5772595808958
 30
0
 11
4034.17630065187
 21
-687.0772595808958
 31
0
  0
LINE
  8
1
 62
3
  6
DASHDOT
 10
4082.619676324841
 20
-629.5772595809067
 30
0
 11
4098.619676324841
 21
-629.5772595809067
 31
0
  0
LINE
  8
1
 62
3
  6
DASHDOT
 10
4090.61967632483
 20
-621.5772595808958
 30
0
 11
4090.61967632483
 21
-637.5772595808958
 31
0
  0
LINE
  8
1
 62
3
  6
DASHDOT
 10
4090.61967632483
 20
-621.5772595809067
 30
0
 11
4090.61967632483
 21
-637.5772595809067
 31
0
  0
LINE
  8
1
 62
3
  6
DASHDOT
 10
4082.619676324841
 20
-629.5772595809067
 30
0
 11
4098.619676324841
 21
-629.5772595809067
 31
0
  0
LINE
  8
1
 62
7
 10
4093.11967632483
 20
-628.1338839079363
 30
0
 11
4090.619676324841
 21
-626.6905082349549
 31
0
  0
LINE
  8
1
 62
7
 10
4093.119676324819
 20
-631.0206352538771
 30
0
 11
4093.11967632483
 21
-628.1338839079363
 31
0
  0
LINE
  8
1
 62
7
 10
4090.61967632483
 20
-632.4640109268439
 30
0
 11
4093.119676324819
 21
-631.0206352538771
 31
0
  0
LINE
  8
1
 62
7
 10
4088.119676324841
 20
-631.0206352538953
 30
0
 11
4090.61967632483
 21
-632.4640109268439
 31
0
  0
LINE
  8
1
 62
7
 10
4088.11967632483
 20
-628.1338839079363
 30
0
 11
4088.119676324841
 21
-631.0206352538953
 31
0
  0
LINE
  8
1
 62
7
 10
4090.619676324841
 20
-626.6905082349549
 30
0
 11
4088.11967632483
 21
-628.1338839079363
 31
0
  0
LINE
  8
1
 62
3
  6
DASHDOT
 10
4350.61967632483
 20
-692.5772595809067
 30
0
 11
4350.61967632483
 21
-676.5772595809067
 31
0
  0
LINE
  8
1
 62
3
  6
DASHDOT
 10
4397.619676324841
 20
-629.5772595809067
 30
0
 11
4413.619676324841
 21
-629.5772595809067
 31
0
  0
LINE
  8
1
 62
3
  6
DASHDOT
 10
4460.619676324841
 20
-676.5772595809249
 30
0
 11
4460.619676324841
 21
-692.5772595809249
 31
0
  0
LINE
  8
1
 62
3
  6
DASHDOT
 10
4413.61967632483
 20
-739.5772595809067
 30
0
 11
4397.61967632483
 21
-739.5772595809067
 31
0
  0
LINE
  8
1
 62
3
  6
DASHDOT
 10
4350.61967632483
 20
-692.5772595809067
 30
0
 11
4350.61967632483
 21
-676.5772595809067
 31
0
  0
LINE
  8
1
 62
3
  6
DASHDOT
 10
4342.61967632483
 20
-684.5772595809067
 30
0
 11
4358.61967632483
 21
-684.5772595809067
 31
0
  0
LINE
  8
1
 62
3
  6
DASHDOT
 10
4405.619676324841
 20
-621.5772595808958
 30
0
 11
4405.619676324841
 21
-637.5772595808958
 31
0
  0
LINE
  8
1
 62
3
  6
DASHDOT
 10
4468.619676324841
 20
-684.577259580914
 30
0
 11
4452.619676324841
 21
-684.577259580914
 31
0
  0
LINE
  8
1
 62
3
  6
DASHDOT
 10
4405.61967632483
 20
-747.577259580914
 30
0
 11
4405.61967632483
 21
-731.577259580914
 31
0
  0
LINE
  8
1
 62
3
  6
DASHDOT
 10
4342.61967632483
 20
-684.5772595809067
 30
0
 11
4358.61967632483
 21
-684.5772595809067
 31
0
  0
LINE
  8
1
 62
3
  6
DASHDOT
 10
4405.619676324841
 20
-621.5772595809067
 30
0
 11
4405.619676324841
 21
-637.5772595809067
 31
0
  0
LINE
  8
1
 62
3
  6
DASHDOT
 10
4397.619676324841
 20
-629.5772595809067
 30
0
 11
4413.619676324841
 21
-629.5772595809067
 31
0
  0
LINE
  8
1
 62
3
  6
DASHDOT
 10
4436.796590861082
 20
-666.5772595809067
 30
0
 11
4429.86838763081
 21
-670.5772595808958
 31
0
  0
LINE
  8
1
 62
3
  6
DASHDOT
 10
4436.796590861082
 20
-702.5772595809067
 30
0
 11
4429.868387630821
 21
-698.5772595809067
 31
0
  0
LINE
  8
1
 62
3
  6
DASHDOT
 10
4405.619676324841
 20
-720.5772595809067
 30
0
 11
4405.619676324841
 21
-712.577259580914
 31
0
  0
LINE
  8
1
 62
3
  6
DASHDOT
 10
4374.4427617886
 20
-702.5772595809067
 30
0
 11
4381.370965018872
 21
-698.5772595809067
 31
0
  0
LINE
  8
1
 62
3
  6
DASHDOT
 10
4374.4427617886
 20
-666.5772595809067
 30
0
 11
4381.370965018861
 21
-670.5772595809067
 31
0
  0
LINE
  8
1
 62
3
  6
DASHDOT
 10
4431.33248924595
 20
-665.1131579657667
 30
0
 11
4435.332489245931
 21
-672.0413611960357
 31
0
  0
LINE
  8
1
 62
3
  6
DASHDOT
 10
4435.332489245942
 20
-697.1131579657667
 30
0
 11
4431.33248924595
 21
-704.0413611960357
 31
0
  0
LINE
  8
1
 62
3
  6
DASHDOT
 10
4409.619676324841
 20
-716.5772595809067
 30
0
 11
4401.619676324852
 21
-716.5772595809067
 31
0
  0
LINE
  8
1
 62
3
  6
DASHDOT
 10
4379.906863403739
 20
-704.0413611960357
 30
0
 11
4375.906863403739
 21
-697.113157965774
 31
0
  0
LINE
  8
1
 62
3
  6
DASHDOT
 10
4375.906863403739
 20
-672.0413611960357
 30
0
 11
4379.906863403732
 21
-665.1131579657849
 31
0
  0
LINE
  8
1
 62
3
  6
DASHDOT
 10
4401.619676324841
 20
-652.5772595809067
 30
0
 11
4409.61967632483
 21
-652.5772595809067
 31
0
  0
LINE
  8
1
 62
3
  6
DASHDOT
 10
4405.619676324841
 20
-648.5772595809067
 30
0
 11
4405.619676324841
 21
-656.5772595808958
 31
0
  0
LINE
  8
1
 62
3
 10
4451.388193029739
 20
-606.1209549303858
 30
0
 11
4452.888193029739
 21
-603.5228787190354
 31
0
  0
LINE
  8
1
 62
3
 10
4453.563692844691
 20
-603.9128787190457
 30
0
 11
4452.063692844691
 21
-606.5109549303852
 31
0
  0
LINE
  8
1
 62
3
 10
4452.177996351482
 20
-603.1129754569556
 30
0
 11
4450.677996351482
 21
-605.711051668306
 31
0
  0
LINE
  8
1
 62
3
 10
4450.002496536519
 20
-605.3210516683066
 30
0
 11
4451.502496536519
 21
-602.7229754569562
 31
0
  0
LINE
  8
1
 62
3
 10
4451.72594293721
 20
-606.3159549303964
 30
0
 11
4453.22594293721
 21
-603.7178787190351
 31
0
  0
LINE
  8
1
 62
3
 10
4450.340246444001
 20
-605.5160516683063
 30
0
 11
4451.840246444001
 21
-602.917975456945
 31
0
  0
LINE
  8
1
 62
7
 10
4451.033094690611
 20
-605.9160032993568
 30
0
 11
4452.539986223103
 21
-606.7859906034626
 31
0
  0
LINE
  8
1
 62
7
 10
4449.526203158119
 20
-605.0460159952511
 30
0
 11
4451.033094690611
 21
-605.9160032993568
 31
0
  0
LINE
  8
1
 62
3
 10
4043.351159619931
 20
-603.5228787190354
 30
0
 11
4044.851159619931
 21
-606.1209549303858
 31
0
  0
LINE
  8
1
 62
3
 10
4044.17565980498
 20
-606.5109549303852
 30
0
 11
4042.67565980498
 21
-603.9128787190457
 31
0
  0
LINE
  8
1
 62
3
 10
4045.561356298193
 20
-605.711051668306
 30
0
 11
4044.061356298193
 21
-603.1129754569556
 31
0
  0
LINE
  8
1
 62
3
 10
4044.736856113141
 20
-602.7229754569562
 30
0
 11
4046.236856113141
 21
-605.3210516683066
 31
0
  0
LINE
  8
1
 62
3
 10
4043.01340971245
 20
-603.7178787190351
 30
0
 11
4044.51340971245
 21
-606.3159549303964
 31
0
  0
LINE
  8
1
 62
3
 10
4044.39910620567
 20
-602.917975456945
 30
0
 11
4045.89910620567
 21
-605.5160516683063
 31
0
  0
LINE
  8
1
 62
3
 10
4217.729676324831
 20
-602.8844170349366
 30
0
 11
4217.729676324831
 21
-599.8844170349366
 31
0
  0
LINE
  8
1
 62
3
 10
4218.509676324829
 20
-599.8844170349366
 30
0
 11
4218.509676324829
 21
-602.8844170349366
 31
0
  0
LINE
  8
1
 62
3
 10
4218.11967632483
 20
-599.8844170349366
 30
0
 11
4218.11967632483
 21
-602.8844170349366
 31
0
  0
LINE
  8
1
 62
3
  6
DASHDOT
 10
4407.119676324841
 20
-684.5772595809067
 30
0
 11
4404.119676324841
 21
-684.5772595809067
 31
0
  0
LINE
  8
1
 62
3
  6
DASHDOT
 10
4405.619676324841
 20
-686.0772595809067
 30
0
 11
4405.619676324841
 21
-683.0772595809067
 31
0
  0
LINE
  8
1
 62
3
  6
DASHDOT
 10
4092.11967632483
 20
-684.5772595809067
 30
0
 11
4089.11967632483
 21
-684.5772595809067
 31
0
  0
LINE
  8
1
 62
3
  6
DASHDOT
 10
4090.61967632483
 20
-686.0772595809067
 30
0
 11
4090.61967632483
 21
-683.0772595809067
 31
0
  0
LINE
  8
1
 62
3
  6
DASHDOT
 10
4302.61967632483
 20
-684.5772595809067
 30
0
 11
4305.61967632483
 21
-684.5772595809067
 31
0
  0
LINE
  8
1
 62
7
 10
4085.549676324819
 20
-692.3096827439767
 30
0
 11
4085.549676324819
 21
-693.3757288092565
 31
0
  0
LINE
  8
1
 62
7
 10
4095.689676324822
 20
-692.3096827439767
 30
0
 11
4095.689676324822
 21
-693.3757288092565
 31
0
  0
LINE
  8
1
 62
7
 10
4089.119676324819
 20
-695.0757288092464
 30
0
 11
4089.119676324819
 21
-691.9257288092558
 31
0
  0
LINE
  8
1
 62
7
 10
4087.24967632482
 20
-695.0757288092464
 30
0
 11
4089.119676324819
 21
-695.0757288092464
 31
0
  0
LINE
  8
1
 62
7
 10
4092.119676324819
 20
-695.0757288092464
 30
0
 11
4092.119676324819
 21
-691.9257288092558
 31
0
  0
LINE
  8
1
 62
7
 10
4093.989676324822
 20
-695.0757288092464
 30
0
 11
4092.119676324819
 21
-695.0757288092464
 31
0
  0
LINE
  8
1
 62
7
 10
4043.699313019852
 20
-606.7858980985149
 30
0
 11
4052.624275651599
 21
-622.244687616626
 31
0
  0
LINE
  8
1
 62
7
 10
4043.699313019852
 20
-606.7858980985149
 30
0
 11
4045.20625795906
 21
-605.9160032993568
 31
0
  0
LINE
  8
1
 62
7
 10
4045.20625795906
 20
-605.9160032993568
 30
0
 11
4046.713202898269
 21
-605.0461085001989
 31
0
  0
LINE
  8
1
 62
7
 10
4055.638075141462
 20
-620.5047414576945
 30
0
 11
4046.713202898269
 21
-605.0461085001989
 31
0
  0
LINE
  8
1
 62
7
 10
4054.12080558161
 20
-621.3567531413755
 30
0
 11
4045.20625795906
 21
-605.9160032993568
 31
0
  0
LINE
  8
1
 62
7
 10
4203.61967632483
 20
-757.5772595809067
 30
0
 11
4203.61967632483
 21
-611.5772595809067
 31
0
  0
LINE
  8
1
 62
7
 10
4223.61967632483
 20
-611.5772595809067
 30
0
 11
4223.61967632483
 21
-757.5772595809067
 31
0
  0
LINE
  8
1
 62
7
 10
4243.61967632483
 20
-757.5772595809067
 30
0
 11
4243.61967632483
 21
-611.5772595809067
 31
0
  0
LINE
  8
1
 62
7
 10
4259.61967632483
 20
-692.0772595809067
 30
0
 11
4302.61967632483
 21
-692.0772595809067
 31
0
  0
LINE
  8
1
 62
7
 10
4253.61967632483
 20
-663.5772595809067
 30
0
 11
4253.61967632483
 21
-705.5772595809067
 31
0
  0
LINE
  8
1
 62
7
 10
4259.61967632483
 20
-677.0772595809067
 30
0
 11
4259.61967632483
 21
-692.0772595809067
 31
0
  0
LINE
  8
1
 62
7
 10
4462.063051997811
 20
-687.0772595809067
 30
0
 11
4463.506427670793
 21
-684.5772595809067
 31
0
  0
LINE
  8
1
 62
7
 10
4459.176300651852
 20
-687.0772595808958
 30
0
 11
4462.063051997811
 21
-687.0772595809067
 31
0
  0
LINE
  8
1
 62
7
 10
4457.732924978889
 20
-684.5772595808958
 30
0
 11
4459.176300651852
 21
-687.0772595808958
 31
0
  0
LINE
  8
1
 62
7
 10
4459.17630065186
 20
-682.077259580914
 30
0
 11
4457.732924978889
 21
-684.5772595808958
 31
0
  0
LINE
  8
1
 62
7
 10
4462.063051997811
 20
-682.0772595808958
 30
0
 11
4459.17630065186
 21
-682.077259580914
 31
0
  0
LINE
  8
1
 62
7
 10
4463.506427670793
 20
-684.5772595809067
 30
0
 11
4462.063051997811
 21
-682.0772595808958
 31
0
  0
LINE
  8
1
 62
7
 10
4410.689676324841
 20
-693.3757288092565
 30
0
 11
4410.689676324841
 21
-692.3096827439767
 31
0
  0
LINE
  8
1
 62
7
 10
4400.549676324841
 20
-693.3757288092565
 30
0
 11
4400.549676324841
 21
-692.3096827439767
 31
0
  0
LINE
  8
1
 62
7
 10
4407.119676324841
 20
-691.9257288092558
 30
0
 11
4407.119676324841
 21
-695.0757288092464
 31
0
  0
LINE
  8
1
 62
7
 10
4407.119676324841
 20
-695.0757288092464
 30
0
 11
4408.989676324851
 21
-695.0757288092464
 31
0
  0
LINE
  8
1
 62
7
 10
4404.119676324841
 20
-691.9257288092558
 30
0
 11
4404.119676324841
 21
-695.0757288092464
 31
0
  0
LINE
  8
1
 62
7
 10
4404.119676324841
 20
-695.0757288092464
 30
0
 11
4402.249676324849
 21
-695.0757288092464
 31
0
  0
LINE
  8
1
 62
7
 10
4403.119676324841
 20
-741.0206352538553
 30
0
 11
4405.619676324841
 21
-742.4640109268439
 31
0
  0
LINE
  8
1
 62
7
 10
4403.119676324841
 20
-738.1338839079144
 30
0
 11
4403.119676324841
 21
-741.0206352538553
 31
0
  0
LINE
  8
1
 62
7
 10
4405.619676324841
 20
-736.690508234944
 30
0
 11
4403.119676324841
 21
-738.1338839079144
 31
0
  0
LINE
  8
1
 62
7
 10
4408.119676324841
 20
-738.1338839079144
 30
0
 11
4405.619676324841
 21
-736.690508234944
 31
0
  0
LINE
  8
1
 62
7
 10
4408.119676324841
 20
-741.0206352538662
 30
0
 11
4408.119676324841
 21
-738.1338839079144
 31
0
  0
LINE
  8
1
 62
7
 10
4405.619676324841
 20
-742.4640109268439
 30
0
 11
4408.119676324841
 21
-741.0206352538662
 31
0
  0
LINE
  8
1
 62
7
 10
4349.17630065187
 20
-682.0772595808958
 30
0
 11
4347.7329249789
 21
-684.5772595808958
 31
0
  0
LINE
  8
1
 62
7
 10
4352.063051997822
 20
-682.0772595808958
 30
0
 11
4349.17630065187
 21
-682.0772595808958
 31
0
  0
LINE
  8
1
 62
7
 10
4353.506427670793
 20
-684.5772595808958
 30
0
 11
4352.063051997822
 21
-682.0772595808958
 31
0
  0
LINE
  8
1
 62
7
 10
4352.063051997822
 20
-687.0772595808958
 30
0
 11
4353.506427670793
 21
-684.5772595808958
 31
0
  0
LINE
  8
1
 62
7
 10
4349.17630065187
 20
-687.0772595808958
 30
0
 11
4352.063051997822
 21
-687.0772595808958
 31
0
  0
LINE
  8
1
 62
7
 10
4347.7329249789
 20
-684.5772595808958
 30
0
 11
4349.17630065187
 21
-687.0772595808958
 31
0
  0
LINE
  8
1
 62
7
 10
4408.119676324841
 20
-628.1338839079363
 30
0
 11
4405.619676324841
 21
-626.6905082349549
 31
0
  0
LINE
  8
1
 62
7
 10
4408.11967632483
 20
-631.0206352538771
 30
0
 11
4408.119676324841
 21
-628.1338839079363
 31
0
  0
LINE
  8
1
 62
7
 10
4405.619676324841
 20
-632.4640109268439
 30
0
 11
4408.11967632483
 21
-631.0206352538771
 31
0
  0
LINE
  8
1
 62
7
 10
4403.119676324841
 20
-631.0206352538953
 30
0
 11
4405.619676324841
 21
-632.4640109268439
 31
0
  0
LINE
  8
1
 62
7
 10
4403.119676324841
 20
-628.1338839079363
 30
0
 11
4403.119676324841
 21
-631.0206352538953
 31
0
  0
LINE
  8
1
 62
7
 10
4405.619676324841
 20
-626.6905082349549
 30
0
 11
4403.119676324841
 21
-628.1338839079363
 31
0
  0
LINE
  8
1
 62
7
 10
4443.615076998059
 20
-622.2446876166309
 30
0
 11
4452.539986223103
 21
-606.7859906034626
 31
0
  0
LINE
  8
1
 62
7
 10
4449.526203158119
 20
-605.0460159952511
 30
0
 11
4440.601277508195
 21
-620.5047414576994
 31
0
  0
LINE
  8
1
 62
7
 10
4451.033094690611
 20
-605.9160032993568
 30
0
 11
4442.11854706805
 21
-621.3567531413755
 31
0
  0
LINE
  8
1
 62
7
 10
4253.61967632483
 20
-705.5772595809067
 30
0
 11
4253.61967632483
 21
-757.5772595809067
 31
0
  0
LINE
  8
1
 62
7
 10
4258.61967632483
 20
-705.5772595809067
 30
0
 11
4253.61967632483
 21
-705.5772595809067
 31
0
  0
LINE
  8
1
 62
7
 10
4259.61967632483
 20
-692.0772595809067
 30
0
 11
4259.61967632483
 21
-704.5772595809067
 31
0
  0
LINE
  8
1
 62
7
 10
4258.61967632483
 20
-705.5772595809067
 30
0
 11
4259.61967632483
 21
-704.5772595809067
 31
0
  0
LINE
  8
1
 62
7
 10
4193.61967632483
 20
-611.5772595809067
 30
0
 11
4193.61967632483
 21
-757.5772595809067
 31
0
  0
LINE
  8
1
 62
7
 10
4193.61967632483
 20
-757.5772595809067
 30
0
 11
4253.61967632483
 21
-757.5772595809067
 31
0
  0
LINE
  8
1
 62
3
  6
DASHDOT
 10
4190.61967632483
 20
-684.5772595809067
 30
0
 11
4193.61967632483
 21
-684.5772595809067
 31
0
  0
LINE
  8
1
 62
7
 10
4253.61967632483
 20
-611.5772595809067
 30
0
 11
4253.61967632483
 21
-663.5772595809067
 31
0
  0
LINE
  8
1
 62
7
 10
4253.61967632483
 20
-663.5772595809067
 30
0
 11
4258.61967632483
 21
-663.5772595809067
 31
0
  0
LINE
  8
1
 62
7
 10
4259.61967632483
 20
-664.5772595809067
 30
0
 11
4259.61967632483
 21
-677.0772595809067
 31
0
  0
LINE
  8
1
 62
7
 10
4259.61967632483
 20
-664.5772595809067
 30
0
 11
4258.61967632483
 21
-663.5772595809067
 31
0
  0
LINE
  8
1
 62
7
 10
4253.61967632483
 20
-611.5772595809067
 30
0
 11
4193.61967632483
 21
-611.5772595809067
 31
0
  0
LINE
  8
1
 62
7
 10
4218.98967632483
 20
-602.8844170349366
 30
0
 11
4217.24967632483
 21
-602.8844170349366
 31
0
  0
LINE
  8
1
 62
7
 10
4218.98967632483
 20
-611.5772595809067
 30
0
 11
4218.98967632483
 21
-602.8844170349366
 31
0
  0
LINE
  8
1
 62
7
 10
4217.24967632483
 20
-602.8844170349366
 30
0
 11
4217.24967632483
 21
-611.5772595809067
 31
0
  0
LINE
  8
1
 62
7
 10
4302.61967632483
 20
-684.5772595809067
 30
0
 11
4302.61967632483
 21
-692.0772595809067
 31
0
  0
LINE
  8
1
 62
7
 10
4282.61967632483
 20
-677.0772595809067
 30
0
 11
4259.61967632483
 21
-677.0772595809067
 31
0
  0
LINE
  8
1
 62
7
 10
4282.61967632483
 20
-677.0772595809067
 30
0
 11
4282.61967632483
 21
-678.0772595809067
 31
0
  0
LINE
  8
1
 62
7
 10
4302.61967632483
 20
-678.0772595809067
 30
0
 11
4282.61967632483
 21
-678.0772595809067
 31
0
  0
LINE
  8
1
 62
7
 10
4302.61967632483
 20
-680.8356021941145
 30
0
 11
4282.61967632483
 21
-680.8356021941145
 31
0
  0
LINE
  8
1
 62
7
 10
4282.61967632483
 20
-680.8356021941145
 30
0
 11
4282.61967632483
 21
-688.3189169676843
 31
0
  0
LINE
  8
1
 62
7
 10
4302.61967632483
 20
-688.3189169676843
 30
0
 11
4282.61967632483
 21
-688.3189169676843
 31
0
  0
LINE
  8
1
 62
3
 10
4302.61967632483
 20
-680.8356021941145
 30
0
 11
4282.61967632483
 21
-688.3189169676843
 31
0
  0
LINE
  8
1
 62
3
 10
4282.61967632483
 20
-680.8356021941145
 30
0
 11
4302.61967632483
 21
-688.3189169676843
 31
0
  0
LINE
  8
1
 62
7
 10
4302.61967632483
 20
-678.0772595809067
 30
0
 11
4302.61967632483
 21
-684.5772595809067
 31
0
  0
LINE
  8
1
 62
7
 10
4409.361333711629
 20
-678.0772595809067
 30
0
 11
4401.87801893806
 21
-678.0772595809067
 31
0
  0
LINE
  8
1
 62
7
 10
4399.119676324841
 20
-680.8356021941145
 30
0
 11
4399.119676324841
 21
-688.3189169676843
 31
0
  0
LINE
  8
1
 62
7
 10
4258.61967632483
 20
-663.5772595809067
 30
0
 11
4258.61967632483
 21
-705.5772595809067
 31
0
  0
ARC
  8
1
 62
7
 10
4090.619676324819
 20
-683.9722595808962
 30
0
 40
8.745000000006861
 50
312.4257962926948
 51
227.5742037073228
  0
ARC
  8
1
 62
7
 10
4090.61967632483
 20
-684.5772595809067
 30
0
 40
7.5
 50
0
 51
180
  0
ARC
  8
1
 62
7
 10
4090.61967632483
 20
-684.5772595809067
 30
0
 40
7.500000000010914
 50
180
 51
0
  0
ARC
  8
1
 62
7
 10
4405.619676324841
 20
-683.9722595808962
 30
0
 40
8.745000000011769
 50
312.42579629273
 51
227.5742037073228
  0
ARC
  8
1
 62
7
 10
4405.619676324841
 20
-684.5772595809067
 30
0
 40
7.5
 50
0
 51
180
  0
ARC
  8
1
 62
7
 10
4405.619676324841
 20
-684.5772595809067
 30
0
 40
7.5
 50
180
 51
0
  0
CIRCLE
  8
1
 62
7
 10
4145.61967632483
 20
-684.5772595808958
 30
0
 40
6.999999999989086
  0
CIRCLE
  8
1
 62
7
 10
4145.61967632483
 20
-684.5772595808958
 30
0
 40
5
  0
CIRCLE
  8
1
 62
7
 10
4145.61967632483
 20
-684.5772595808958
 30
0
 40
6.099999999991269
  0
CIRCLE
  8
1
 62
7
 10
4090.619676324841
 20
-739.5772595808958
 30
0
 40
7
  0
CIRCLE
  8
1
 62
7
 10
4090.619676324841
 20
-739.5772595808958
 30
0
 40
5.000000000010914
  0
CIRCLE
  8
1
 62
7
 10
4090.619676324841
 20
-739.5772595808958
 30
0
 40
6.099999999999
  0
CIRCLE
  8
1
 62
7
 10
4035.619676324841
 20
-684.5772595808958
 30
0
 40
6.999999999989086
  0
CIRCLE
  8
1
 62
7
 10
4035.619676324841
 20
-684.5772595808958
 30
0
 40
5
  0
CIRCLE
  8
1
 62
7
 10
4035.619676324841
 20
-684.5772595808958
 30
0
 40
6.099999999998545
  0
CIRCLE
  8
1
 62
7
 10
4090.619676324841
 20
-629.5772595809067
 30
0
 40
7
  0
CIRCLE
  8
1
 62
7
 10
4090.619676324841
 20
-629.5772595809067
 30
0
 40
4.999999999989086
  0
CIRCLE
  8
1
 62
7
 10
4090.619676324841
 20
-629.5772595809067
 30
0
 40
6.099999999998545
  0
CIRCLE
  8
1
 62
7
 10
4090.61967632483
 20
-684.5772595809067
 30
0
 40
2.125000000010914
  0
CIRCLE
  8
1
 62
7
 10
4090.61967632483
 20
-684.5772595809067
 30
0
 40
1.000000000010914
  0
CIRCLE
  8
1
 62
7
 10
4087.33467632483
 20
-693.5007288092565
 30
0
 40
0.850000000009004
  0
CIRCLE
  8
1
 62
7
 10
4093.90467632483
 20
-693.5007288092565
 30
0
 40
0.8500000000099135
  0
CIRCLE
  8
1
 62
7
 10
4090.61967632483
 20
-684.5772595809067
 30
0
 40
16.00000000001091
  0
CIRCLE
  8
1
 62
7
 10
4090.61967632483
 20
-684.5772595809067
 30
0
 40
73.00000000001091
  0
CIRCLE
  8
1
 62
7
 10
4377.906863403739
 20
-700.5772595809067
 30
0
 40
2.400000000012705
  0
CIRCLE
  8
1
 62
3
 10
4377.906863403739
 20
-700.5772595809067
 30
0
 40
3.000000000016393
  0
CIRCLE
  8
1
 62
7
 10
4405.619676324841
 20
-716.5772595809067
 30
0
 40
2.399999999990541
  0
CIRCLE
  8
1
 62
3
 10
4405.619676324841
 20
-716.5772595809067
 30
0
 40
3
  0
CIRCLE
  8
1
 62
7
 10
4405.619676324841
 20
-629.5772595809067
 30
0
 40
7
  0
CIRCLE
  8
1
 62
7
 10
4350.619676324841
 20
-684.5772595808958
 30
0
 40
6.999999999989086
  0
CIRCLE
  8
1
 62
7
 10
4405.619676324841
 20
-739.5772595808958
 30
0
 40
7
  0
CIRCLE
  8
1
 62
7
 10
4460.619676324841
 20
-684.5772595808958
 30
0
 40
6.999999999989086
  0
CIRCLE
  8
1
 62
7
 10
4460.619676324841
 20
-684.5772595808958
 30
0
 40
5
  0
CIRCLE
  8
1
 62
7
 10
4460.619676324841
 20
-684.5772595808958
 30
0
 40
6.099999999991269
  0
CIRCLE
  8
1
 62
7
 10
4405.619676324841
 20
-684.5772595809067
 30
0
 40
21
  0
CIRCLE
  8
1
 62
7
 10
4377.906863403739
 20
-668.5772595809067
 30
0
 40
2.400000000014524
  0
CIRCLE
  8
1
 62
3
 10
4377.906863403739
 20
-668.5772595809067
 30
0
 40
3.000000000016393
  0
CIRCLE
  8
1
 62
7
 10
4405.619676324841
 20
-652.5772595809067
 30
0
 40
2.400000000008731
  0
CIRCLE
  8
1
 62
3
 10
4405.619676324841
 20
-652.5772595809067
 30
0
 40
3
  0
CIRCLE
  8
1
 62
7
 10
4405.619676324841
 20
-684.5772595809067
 30
0
 40
2.125
  0
CIRCLE
  8
1
 62
7
 10
4405.619676324841
 20
-684.5772595809067
 30
0
 40
1
  0
CIRCLE
  8
1
 62
7
 10
4408.904676324841
 20
-693.5007288092565
 30
0
 40
0.8500000000094587
  0
CIRCLE
  8
1
 62
7
 10
4402.334676324841
 20
-693.5007288092565
 30
0
 40
0.8500000000094587
  0
CIRCLE
  8
1
 62
7
 10
4405.619676324841
 20
-684.5772595809067
 30
0
 40
16
  0
CIRCLE
  8
1
 62
7
 10
4405.619676324841
 20
-739.5772595808958
 30
0
 40
5
  0
CIRCLE
  8
1
 62
7
 10
4405.619676324841
 20
-739.5772595808958
 30
0
 40
6.099999999991269
  0
CIRCLE
  8
1
 62
7
 10
4350.619676324841
 20
-684.5772595808958
 30
0
 40
5
  0
CIRCLE
  8
1
 62
7
 10
4350.619676324841
 20
-684.5772595808958
 30
0
 40
6.099999999998545
  0
CIRCLE
  8
1
 62
7
 10
4405.619676324841
 20
-629.5772595809067
 30
0
 40
5
  0
CIRCLE
  8
1
 62
7
 10
4405.619676324841
 20
-629.5772595809067
 30
0
 40
6.100000000009459
  0
CIRCLE
  8
1
 62
7
 10
4405.619676324841
 20
-684.5772595809067
 30
0
 40
73
  0
CIRCLE
  8
1
 62
7
 10
4433.33248924595
 20
-668.5772595809067
 30
0
 40
2.400000000011796
  0
CIRCLE
  8
1
 62
3
 10
4433.33248924595
 20
-668.5772595809067
 30
0
 40
3.000000000016393
  0
CIRCLE
  8
1
 62
7
 10
4433.33248924595
 20
-700.5772595809067
 30
0
 40
2.400000000008645
  0
CIRCLE
  8
1
 62
3
 10
4433.33248924595
 20
-700.5772595809067
 30
0
 40
2.999999999988038
  0
ARC
  8
1
 62
7
 10
4087.24967632482
 20
-693.3757288092565
 30
0
 40
1.700000000001182
 50
180
 51
270
  0
ARC
  8
1
 62
7
 10
4093.989676324822
 20
-693.3757288092565
 30
0
 40
1.699999999989814
 50
270
 51
0
  0
ARC
  8
1
 62
7
 10
4082.99967632482
 20
-692.3096827439767
 30
0
 40
2.549999999998818
 50
0
 51
47.57420370742247
  0
ARC
  8
1
 62
7
 10
4098.239676324822
 20
-692.3096827439767
 30
0
 40
2.550000000006935
 50
132.4257962925775
 51
180
  0
ARC
  8
1
 62
7
 10
4408.989676324851
 20
-693.3757288092565
 30
0
 40
1.699999999989814
 50
270
 51
0
  0
ARC
  8
1
 62
7
 10
4402.249676324849
 20
-693.3757288092565
 30
0
 40
1.700000000008004
 50
180
 51
270
  0
ARC
  8
1
 62
7
 10
4413.239676324851
 20
-692.3096827439767
 30
0
 40
2.550000000006935
 50
132.4257962925775
 51
180
  0
ARC
  8
1
 62
7
 10
4397.999676324849
 20
-692.3096827439767
 30
0
 40
2.549999999991996
 50
0
 51
47.57420370754314
  0
TEXT
  8
1
 62
7
 10
4038.045800579932
 20
-579.575745519207
 30
0
 40
6
  1
OPB 120N
 41
0.9
  7
SIMPLEX
 72
1
 73
2
 11
4059.645800579932
 21
-576.575745519207
 31
0
  0
ENDSEC
  0
EOF
