  0
SECTION
  2
HEADER
  9
$ACADVER
  1
AC1009
  9
$INSBASE
 10
0.0
 20
0.0
 30
0.0
  9
$EXTMIN
 10
-53.859124981980678
 20
-46.0
 30
0.0
  9
$EXTMAX
 10
299.5
 20
73.901488395560165
 30
0.0
  9
$LIMMIN
 10
-54.5176776037313
 20
-46.0
  9
$LIMMAX
 10
299.5
 20
73.901488395560094
  9
$ORTHOMODE
 70
     0
  9
$REGENMODE
 70
     1
  9
$FILLMODE
 70
     1
  9
$QTEXTMODE
 70
     0
  9
$MIRRTEXT
 70
     1
  9
$DRAGMODE
 70
     2
  9
$LTSCALE
 40
1.0
  9
$OSMODE
 70
    37
  9
$ATTMODE
 70
     1
  9
$TEXTSIZE
 40
3.5
  9
$TRACEWID
 40
0.5
  9
$TEXTSTYLE
  7
STANDARD
  9
$CLAYER
  8
0
  9
$CELTYPE
  6
BYLAYER
  9
$CECOLOR
 62
   256
  9
$DIMSCALE
 40
1.0
  9
$DIMASZ
 40
0.18
  9
$DIMEXO
 40
0.0625
  9
$DIMDLI
 40
0.38
  9
$DIMRND
 40
0.0
  9
$DIMDLE
 40
0.0
  9
$DIMEXE
 40
0.18
  9
$DIMTP
 40
0.0
  9
$DIMTM
 40
0.0
  9
$DIMTXT
 40
0.18
  9
$DIMCEN
 40
0.09
  9
$DIMTSZ
 40
0.0
  9
$DIMTOL
 70
     0
  9
$DIMLIM
 70
     0
  9
$DIMTIH
 70
     1
  9
$DIMTOH
 70
     1
  9
$DIMSE1
 70
     0
  9
$DIMSE2
 70
     0
  9
$DIMTAD
 70
     0
  9
$DIMZIN
 70
     0
  9
$DIMBLK
  1

  9
$DIMASO
 70
     1
  9
$DIMSHO
 70
     1
  9
$DIMPOST
  1

  9
$DIMAPOST
  1

  9
$DIMALT
 70
     0
  9
$DIMALTD
 70
     2
  9
$DIMALTF
 40
25.399999999999999
  9
$DIMLFAC
 40
1.0
  9
$DIMTOFL
 70
     0
  9
$DIMTVP
 40
0.0
  9
$DIMTIX
 70
     0
  9
$DIMSOXD
 70
     0
  9
$DIMSAH
 70
     0
  9
$DIMBLK1
  1

  9
$DIMBLK2
  1

  9
$DIMSTYLE
  2
STANDARD
  9
$DIMCLRD
 70
     0
  9
$DIMCLRE
 70
     0
  9
$DIMCLRT
 70
     0
  9
$DIMTFAC
 40
1.0
  9
$DIMGAP
 40
0.09
  9
$LUNITS
 70
     2
  9
$LUPREC
 70
     4
  9
$SKETCHINC
 40
0.1
  9
$FILLETRAD
 40
2.0
  9
$AUNITS
 70
     0
  9
$AUPREC
 70
     0
  9
$MENU
  1
ACAD
  9
$ELEVATION
 40
0.0
  9
$PELEVATION
 40
0.0
  9
$THICKNESS
 40
0.0
  9
$LIMCHECK
 70
     0
  9
$BLIPMODE
 70
     0
  9
$CHAMFERA
 40
0.0
  9
$CHAMFERB
 40
0.0
  9
$SKPOLY
 70
     0
  9
$TDCREATE
 40
2452095.1184622678
  9
$TDUPDATE
 40
2452095.1189555549
  9
$TDINDWG
 40
0.0005065972
  9
$TDUSRTIMER
 40
0.0005065972
  9
$USRTIMER
 70
     1
  9
$ANGBASE
 50
0.0
  9
$ANGDIR
 70
     0
  9
$PDMODE
 70
     0
  9
$PDSIZE
 40
0.0
  9
$PLINEWID
 40
0.0
  9
$COORDS
 70
     1
  9
$SPLFRAME
 70
     0
  9
$SPLINETYPE
 70
     6
  9
$SPLINESEGS
 70
     8
  9
$ATTDIA
 70
     0
  9
$ATTREQ
 70
     1
  9
$HANDLING
 70
 10241
  9
$HANDSEED
  5
C6
  9
$SURFTAB1
 70
     6
  9
$SURFTAB2
 70
     6
  9
$SURFTYPE
 70
     6
  9
$SURFU
 70
     6
  9
$SURFV
 70
     6
  9
$UCSNAME
  2

  9
$UCSORG
 10
0.0
 20
0.0
 30
0.0
  9
$UCSXDIR
 10
1.0
 20
0.0
 30
0.0
  9
$UCSYDIR
 10
0.0
 20
1.0
 30
0.0
  9
$PUCSNAME
  2

  9
$PUCSORG
 10
0.0
 20
0.0
 30
0.0
  9
$PUCSXDIR
 10
1.0
 20
0.0
 30
0.0
  9
$PUCSYDIR
 10
0.0
 20
1.0
 30
0.0
  9
$USERI1
 70
     0
  9
$USERI2
 70
     0
  9
$USERI3
 70
     0
  9
$USERI4
 70
     0
  9
$USERI5
 70
     0
  9
$USERR1
 40
0.0
  9
$USERR2
 40
0.0
  9
$USERR3
 40
0.0
  9
$USERR4
 40
0.0
  9
$USERR5
 40
0.0
  9
$WORLDVIEW
 70
     1
  9
$SHADEDGE
 70
     3
  9
$SHADEDIF
 70
    70
  9
$TILEMODE
 70
     1
  9
$MAXACTVP
 70
    64
  9
$PLIMCHECK
 70
     0
  9
$PEXTMIN
 10
1.0000000000000000E+020
 20
1.0000000000000000E+020
 30
1.0000000000000000E+020
  9
$PEXTMAX
 10
-1.0000000000000000E+020
 20
-1.0000000000000000E+020
 30
-1.0000000000000000E+020
  9
$PLIMMIN
 10
0.0
 20
0.0
  9
$PLIMMAX
 10
12.0
 20
9.0
  9
$UNITMODE
 70
     0
  9
$VISRETAIN
 70
     1
  9
$PLINEGEN
 70
     0
  9
$PSLTSCALE
 70
     1
  0
ENDSEC
  0
SECTION
  2
TABLES
  0
TABLE
  2
VPORT
 70
     2
  0
VPORT
  2
*ACTIVE
 70
     0
 10
0.0
 20
0.0
 11
1.0
 21
1.0
 12
-32.858141499744931
 22
69.643640806395993
 13
0.0
 23
0.0
 14
1.0
 24
1.0
 15
0.0
 25
0.0
 16
0.0
 26
0.0
 36
1.0
 17
0.0
 27
0.0
 37
0.0
 40
8.9999998296383712
 41
2.4144144144144142
 42
50.0
 43
0.0
 44
0.0
 50
0.0
 51
0.0
 71
     0
 72
   100
 73
     1
 74
     1
 75
     0
 76
     0
 77
     0
 78
     0
  0
ENDTAB
  0
TABLE
  2
LTYPE
 70
     9
  0
LTYPE
  2
CONTINUOUS
 70
     0
  3
Solid line
 72
    65
 73
     0
 40
0.0
  0
LTYPE
  2
BORDER
 70
     0
  3
__ __ . __ __ .
 72
    65
 73
     6
 40
16.3034456791192
 49
4.6581273368912006
 49
-2.329063668445599
 49
4.6581273368912006
 49
-2.329063668445599
 49
0.0
 49
-2.329063668445599
  0
LTYPE
  2
CENTER
 70
     0
  3
____ _ ____ _
 72
    65
 73
     4
 40
18.632509347564799
 49
11.645318342228
 49
-2.329063668445599
 49
2.329063668445599
 49
-2.329063668445599
  0
LTYPE
  2
DASHDOT
 70
     0
  3
__ . __ . __ .
 72
    65
 73
     4
 40
9.3162546737823995
 49
4.6581273368912006
 49
-2.329063668445599
 49
0.0
 49
-2.329063668445599
  0
LTYPE
  2
DASHED
 70
     0
  3
__ __ __ __ __
 72
    65
 73
     2
 40
6.9871910053367996
 49
4.6581273368912006
 49
-2.329063668445599
  0
LTYPE
  2
DIVIDE
 70
     0
  3
__ . . __ . . 
 72
    65
 73
     6
 40
11.645318342228
 49
4.6581273368912006
 49
-2.329063668445599
 49
0.0
 49
-2.329063668445599
 49
0.0
 49
-2.329063668445599
  0
LTYPE
  2
DOT
 70
     0
  3
..............
 72
    65
 73
     4
 40
4.6581273368912006
 49
0.0
 49
-2.329063668445599
 49
0.0
 49
-2.329063668445599
  0
LTYPE
  2
HIDDEN
 70
     0
  3
_ _ _ _ _ _ _
 72
    65
 73
     2
 40
3.4935955026683989
 49
2.329063668445599
 49
-1.164531834222799
  0
LTYPE
  2
PHANTOM
 70
     0
  3
_____ _ _ _____ _ _ 
 72
    65
 73
     6
 40
23.290636684456
 49
11.645318342228
 49
-2.329063668445599
 49
2.329063668445599
 49
-2.329063668445599
 49
2.329063668445599
 49
-2.329063668445599
  0
ENDTAB
  0
TABLE
  2
LAYER
 70
     2
  0
LAYER
  2
0
 70
     0
 62
     7
  6
CONTINUOUS
  0
LAYER
  2
1
 70
     0
 62
     7
  6
CONTINUOUS
  0
ENDTAB
  0
TABLE
  2
STYLE
 70
     4
  0
STYLE
  2
STANDARD
 70
     0
 40
0.0
 41
1.0
 50
0.0
 71
     0
 42
3.5
  3
txt
  4

  0
STYLE
  2
SIMPLEX
 70
     0
 40
0.0
 41
1.0
 50
0.0
 71
     0
 42
3.5
  3
simplex
  4

  0
STYLE
  2
COMPLEX
 70
     0
 40
0.0
 41
1.0
 50
0.0
 71
     0
 42
3.5
  3
complex
  4

  0
STYLE
  2
ITALIC
 70
     0
 40
0.0
 41
1.0
 50
0.0
 71
     0
 42
3.5
  3
italic
  4

  0
ENDTAB
  0
TABLE
  2
VIEW
 70
     0
  0
ENDTAB
  0
TABLE
  2
UCS
 70
     0
  0
ENDTAB
  0
TABLE
  2
APPID
 70
     1
  0
APPID
  2
ACAD
 70
     0
  0
ENDTAB
  0
TABLE
  2
DIMSTYLE
 70
     1
  0
DIMSTYLE
  2
STANDARD
 70
     0
  3

  4

  5

  6

  7

 40
1.0
 41
0.18
 42
0.0625
 43
0.38
 44
0.18
 45
0.0
 46
0.0
 47
0.0
 48
0.0
140
0.18
141
0.09
142
0.0
143
25.399999999999999
144
1.0
145
0.0
146
1.0
147
0.09
 71
     0
 72
     0
 73
     1
 74
     1
 75
     0
 76
     0
 77
     0
 78
     0
170
     0
171
     2
172
     0
173
     0
174
     0
175
     0
176
     0
177
     0
178
     0
  0
ENDTAB
  0
ENDSEC
  0
SECTION
  2
BLOCKS
  0
BLOCK
  8
0
  2
$MODEL_SPACE
 70
     0
 10
0.0
 20
0.0
 30
0.0
  3
$MODEL_SPACE
  1

  0
ENDBLK
  5
20
  8
0
  0
BLOCK
 67
     1
  8
0
  2
$PAPER_SPACE
 70
     0
 10
0.0
 20
0.0
 30
0.0
  3
$PAPER_SPACE
  1

  0
ENDBLK
  5
1C
 67
     1
  8
0
  0
ENDSEC
  0
SECTION
  2
ENTITIES
  0
POINT
  5
33
  8
1
  6
DOT
 62
     7
 10
5.0
 20
0.0
 30
0.0
  0
LINE
  5
34
  8
1
 62
     7
 10
92.349999999999994
 20
-4.799999999999998
 30
0.0
 11
92.200000000000003
 21
-4.799999999999998
 31
0.0
  0
LINE
  5
35
  8
1
 62
     7
 10
92.349999999999994
 20
4.7999999999999989
 30
0.0
 11
92.200000000000003
 21
4.7999999999999989
 31
0.0
  0
LINE
  5
36
  8
1
 62
     7
 10
93.349999999999994
 20
6.4999999999999858
 30
0.0
 11
93.349999999999994
 21
-7.6638694583963467
 31
0.0
  0
LINE
  5
37
  8
1
 62
     7
 10
92.200000000000003
 20
5.0
 30
0.0
 11
92.200000000000003
 21
-5.0000000000000044
 31
0.0
  0
LINE
  5
38
  8
1
 62
     7
 10
93.349999999999994
 20
-5.0000000000000062
 30
0.0
 11
93.499999999999986
 21
-5.0000000000000062
 31
0.0
  0
LINE
  5
39
  8
1
 62
     7
 10
93.349999999999994
 20
5.0
 30
0.0
 11
93.499999999999986
 21
5.0
 31
0.0
  0
LINE
  5
3A
  8
1
 62
     7
 10
-3.0
 20
34.36931771216878
 30
0.0
 11
-3.0
 21
35.436624599306811
 31
0.0
  0
LINE
  5
3B
  8
1
 62
     7
 10
251.65999999999991
 20
61.0
 30
0.0
 11
251.65999999999991
 21
45.963185268212207
 31
0.0
  0
LINE
  5
3C
  8
1
 62
     3
 10
252.97
 20
64.0
 30
0.0
 11
252.97
 21
61.0
 31
0.0
  0
LINE
  5
3D
  8
1
 62
     3
 10
252.19
 20
61.0
 30
0.0
 11
252.19
 21
64.0
 31
0.0
  0
LINE
  5
3E
  8
1
 62
     7
 10
255.33999999999989
 20
61.0
 30
0.0
 11
255.33999999999989
 21
45.963185268212207
 31
0.0
  0
LINE
  5
3F
  8
1
 62
     7
 10
253.5
 20
61.0
 30
0.0
 11
253.5
 21
46.0
 31
0.0
  0
LINE
  5
40
  8
1
 62
     7
 10
251.65999999999991
 20
61.0
 30
0.0
 11
255.33999999999989
 21
61.0
 31
0.0
  0
LINE
  5
41
  8
1
 62
     3
 10
254.03
 20
61.0
 30
0.0
 11
254.03
 21
64.0
 31
0.0
  0
LINE
  5
42
  8
1
 62
     3
 10
254.81
 20
64.0
 30
0.0
 11
254.81
 21
61.0
 31
0.0
  0
LINE
  5
43
  8
1
 62
     3
 10
118.89
 20
64.0
 30
0.0
 11
118.89
 21
61.0
 31
0.0
  0
LINE
  5
44
  8
1
 62
     3
 10
118.11
 20
61.0
 30
0.0
 11
118.11
 21
64.0
 31
0.0
  0
LINE
  5
45
  8
1
 62
     7
 10
117.5799999999999
 20
61.0
 30
0.0
 11
119.42
 21
61.0
 31
0.0
  0
LINE
  5
46
  8
1
 62
     7
 10
117.5799999999999
 20
61.0
 30
0.0
 11
117.5799999999999
 21
35.436624599306811
 31
0.0
  0
LINE
  5
47
  8
1
 62
     7
 10
119.42
 20
61.0
 30
0.0
 11
119.42
 21
35.436624599306811
 31
0.0
  0
LINE
  5
48
  8
1
 62
     7
 10
3.0
 20
35.436624599306811
 30
0.0
 11
3.0
 21
34.36931771216878
 31
0.0
  0
LINE
  5
49
  8
1
 62
     7
 10
-3.0
 20
35.436624599306811
 30
0.0
 11
3.0
 21
35.436624599306811
 31
0.0
  0
LINE
  5
4A
  8
1
 62
     7
 10
-1.8399999999999741
 20
61.0
 30
0.0
 11
1.8399999999999741
 21
61.0
 31
0.0
  0
LINE
  5
4B
  8
1
 62
     7
 10
-1.8399999999999741
 20
61.0
 30
0.0
 11
-1.8399999999999741
 21
35.436624599306811
 31
0.0
  0
LINE
  5
4C
  8
1
 62
     3
 10
-0.5300000000000296
 20
64.0
 30
0.0
 11
-0.5300000000000296
 21
61.0
 31
0.0
  0
LINE
  5
4D
  8
1
 62
     3
 10
-1.3100000000000009
 20
61.0
 30
0.0
 11
-1.3100000000000009
 21
64.0
 31
0.0
  0
LINE
  5
4E
  8
1
 62
     7
 10
1.8399999999999741
 20
61.0
 30
0.0
 11
1.8399999999999741
 21
35.436624599306811
 31
0.0
  0
LINE
  5
4F
  8
1
 62
     7
 10
0.0
 20
61.0
 30
0.0
 11
0.0
 21
35.436624599306811
 31
0.0
  0
LINE
  5
50
  8
1
 62
     3
 10
0.5300000000000296
 20
61.0
 30
0.0
 11
0.5300000000000296
 21
64.0
 31
0.0
  0
LINE
  5
51
  8
1
 62
     3
 10
1.3100000000000009
 20
64.0
 30
0.0
 11
1.3100000000000009
 21
61.0
 31
0.0
  0
LINE
  5
52
  8
1
  6
DASHDOT
 62
     3
 10
0.0
 20
1.5
 30
0.0
 11
0.0
 21
-1.5
 31
0.0
  0
LINE
  5
53
  8
1
  6
DASHDOT
 62
     3
 10
-1.5
 20
0.0
 30
0.0
 11
1.5
 21
0.0
 31
0.0
  0
LINE
  5
54
  8
1
  6
CENTER
 62
     3
 10
31.289475067504739
 20
-31.289475067504831
 30
0.0
 11
26.693280989792189
 21
-26.69328098979226
 31
0.0
  0
LINE
  5
55
  8
1
  6
CENTER
 62
     3
 10
-31.289475067504821
 20
-31.289475067504739
 30
0.0
 11
-26.69328098979226
 21
-26.693280989792189
 31
0.0
  0
LINE
  5
56
  8
1
  6
CENTER
 62
     3
 10
-31.289475067504739
 20
31.289475067504821
 30
0.0
 11
-26.693280989792189
 21
26.69328098979226
 31
0.0
  0
LINE
  5
57
  8
1
  6
CENTER
 62
     3
 10
31.289475067504821
 20
31.28947506750475
 30
0.0
 11
26.69328098979226
 21
26.693280989792189
 31
0.0
  0
LINE
  5
58
  8
1
 62
     7
 10
123.5
 20
-34.5
 30
0.0
 11
93.499999999999986
 21
-34.5
 31
0.0
  0
LINE
  5
59
  8
1
 62
     7
 10
130.49999999999989
 20
-34.5
 30
0.0
 11
130.49999999999989
 21
34.5
 31
0.0
  0
LINE
  5
5A
  8
1
 62
     7
 10
93.499999999999986
 20
34.5
 30
0.0
 11
93.499999999999986
 21
-34.5
 31
0.0
  0
LINE
  5
5B
  8
1
 62
     3
 10
142.5
 20
-3.0000000000000031
 30
0.0
 11
162.5
 21
3.0
 31
0.0
  0
LINE
  5
5C
  8
1
 62
     3
 10
142.5
 20
3.0
 30
0.0
 11
162.5
 21
-3.0000000000000031
 31
0.0
  0
LINE
  5
5D
  8
1
 62
     7
 10
142.5
 20
-3.0000000000000031
 30
0.0
 11
162.5
 21
-3.0000000000000031
 31
0.0
  0
LINE
  5
5E
  8
1
 62
     7
 10
142.5
 20
3.0
 30
0.0
 11
142.5
 21
-3.0000000000000031
 31
0.0
  0
LINE
  5
5F
  8
1
 62
     7
 10
162.5
 20
3.0
 30
0.0
 11
142.5
 21
3.0
 31
0.0
  0
LINE
  5
60
  8
1
 62
     7
 10
142.5
 20
5.0
 30
0.0
 11
131.49999999999989
 21
5.0
 31
0.0
  0
LINE
  5
61
  8
1
 62
     7
 10
142.5
 20
4.0
 30
0.0
 11
142.5
 21
5.0
 31
0.0
  0
LINE
  5
62
  8
1
 62
     7
 10
162.5
 20
4.0
 30
0.0
 11
142.5
 21
4.0
 31
0.0
  0
LINE
  5
63
  8
1
 62
     7
 10
162.5
 20
-5.0000000000000044
 30
0.0
 11
162.5
 21
4.0
 31
0.0
  0
LINE
  5
64
  8
1
 62
     7
 10
131.49999999999989
 20
-5.0000000000000044
 30
0.0
 11
162.5
 21
-5.0000000000000044
 31
0.0
  0
LINE
  5
65
  8
1
 62
     7
 10
131.49999999999989
 20
6.4999999999999858
 30
0.0
 11
131.49999999999989
 21
-7.6638694583963494
 31
0.0
  0
LINE
  5
66
  8
1
 62
     7
 10
91.0
 20
5.0
 30
0.0
 11
91.0
 21
-5.0000000000000044
 31
0.0
  0
LINE
  5
67
  8
1
 62
     7
 10
92.200000000000003
 20
5.0
 30
0.0
 11
91.0
 21
5.0
 31
0.0
  0
LINE
  5
68
  8
1
 62
     7
 10
92.349999999999994
 20
6.4999999999999858
 30
0.0
 11
92.349999999999994
 21
-7.6638694583963494
 31
0.0
  0
LINE
  5
69
  8
1
 62
     7
 10
91.0
 20
-5.0000000000000044
 30
0.0
 11
92.200000000000003
 21
-5.0000000000000044
 31
0.0
  0
LINE
  5
6A
  8
1
 62
     7
 10
115.5
 20
35.436624599306811
 30
0.0
 11
121.5
 21
35.436624599306811
 31
0.0
  0
LINE
  5
6B
  8
1
 62
     7
 10
93.499999999999986
 20
34.5
 30
0.0
 11
123.5
 21
34.5
 31
0.0
  0
LINE
  5
6C
  8
1
 62
     7
 10
123.5
 20
46.0
 30
0.0
 11
127.5
 21
46.0
 31
0.0
  0
LINE
  5
6D
  8
1
 62
     7
 10
127.5
 20
46.0
 30
0.0
 11
127.5
 21
-46.0
 31
0.0
  0
LINE
  5
6E
  8
1
 62
     7
 10
127.5
 20
-46.0
 30
0.0
 11
123.5
 21
-46.0
 31
0.0
  0
LINE
  5
6F
  8
1
 62
     7
 10
130.49999999999989
 20
-34.5
 30
0.0
 11
127.5
 21
-34.5
 31
0.0
  0
LINE
  5
70
  8
1
 62
     7
 10
130.49999999999989
 20
6.4999999999999858
 30
0.0
 11
131.49999999999989
 21
6.4999999999999858
 31
0.0
  0
LINE
  5
71
  8
1
 62
     7
 10
130.49999999999989
 20
-7.6638694583963467
 30
0.0
 11
131.49999999999989
 21
-7.6638694583963494
 31
0.0
  0
LINE
  5
72
  8
1
 62
     7
 10
92.349999999999994
 20
6.4999999999999858
 30
0.0
 11
93.349999999999994
 21
6.4999999999999858
 31
0.0
  0
LINE
  5
73
  8
1
 62
     7
 10
92.349999999999994
 20
-7.6638694583963494
 30
0.0
 11
93.349999999999994
 21
-7.6638694583963467
 31
0.0
  0
LINE
  5
74
  8
1
 62
     7
 10
250.49999999999989
 20
4.0
 30
0.0
 11
256.49999999999989
 21
4.0
 31
0.0
  0
LINE
  5
75
  8
1
 62
     7
 10
249.5
 20
-2.999999999999996
 30
0.0
 11
249.5
 21
3.0
 31
0.0
  0
LINE
  5
76
  8
1
 62
     7
 10
115.5
 20
35.436624599306811
 30
0.0
 11
115.5
 21
34.5
 31
0.0
  0
LINE
  5
77
  8
1
 62
     7
 10
121.5
 20
35.436624599306811
 30
0.0
 11
121.5
 21
34.5
 31
0.0
  0
LINE
  5
78
  8
1
 62
     7
 10
127.5
 20
34.5
 30
0.0
 11
130.49999999999989
 21
34.5
 31
0.0
  0
LINE
  5
79
  8
1
 62
     7
 10
123.5
 20
46.0
 30
0.0
 11
123.5
 21
-46.0
 31
0.0
  0
LINE
  5
7A
  8
1
  6
CENTER
 62
     3
 10
284.7894750675049
 20
31.289475067504721
 30
0.0
 11
280.19328098979241
 21
26.693280989792161
 31
0.0
  0
LINE
  5
7B
  8
1
  6
CENTER
 62
     3
 10
222.2105249324953
 20
31.289475067504888
 30
0.0
 11
226.8067190102079
 21
26.69328098979236
 31
0.0
  0
LINE
  5
7C
  8
1
  6
CENTER
 62
     3
 10
222.21052493249499
 20
-31.289475067504689
 30
0.0
 11
226.80671901020759
 21
-26.693280989792139
 31
0.0
  0
LINE
  5
7D
  8
1
  6
CENTER
 62
     3
 10
284.78947506750461
 20
-31.289475067504888
 30
0.0
 11
280.19328098979207
 21
-26.69328098979236
 31
0.0
  0
LINE
  5
7E
  8
1
  6
DASHDOT
 62
     3
 10
252.0
 20
0.0
 30
0.0
 11
255.0
 21
0.0
 31
0.0
  0
LINE
  5
7F
  8
1
  6
DASHDOT
 62
     3
 10
253.5
 20
1.5
 30
0.0
 11
253.5
 21
-1.5
 31
0.0
  0
LINE
  5
80
  8
1
 62
     7
 10
249.90000000000001
 20
-6.3638694583963513
 30
0.0
 11
249.90000000000001
 21
-5.128498911788121
 31
0.0
  0
LINE
  5
81
  8
1
 62
     7
 10
251.19999999999999
 20
-7.6638694583963467
 30
0.0
 11
252.89999999999989
 21
-7.6638694583963467
 31
0.0
  0
LINE
  5
82
  8
1
 62
     7
 10
252.89999999999989
 20
-4.9638694583963456
 30
0.0
 11
252.89999999999989
 21
-7.6638694583963467
 31
0.0
  0
LINE
  5
83
  8
1
 62
     7
 10
254.09999999999991
 20
-7.6638694583963467
 30
0.0
 11
254.09999999999991
 21
-4.9638694583963456
 31
0.0
  0
LINE
  5
84
  8
1
 62
     7
 10
254.09999999999991
 20
-7.6638694583963467
 30
0.0
 11
255.80000000000001
 21
-7.6638694583963467
 31
0.0
  0
LINE
  5
85
  8
1
 62
     7
 10
257.10000000000002
 20
-5.128498911788121
 30
0.0
 11
257.10000000000002
 21
-6.3638694583963513
 31
0.0
  0
LINE
  5
86
  8
1
 62
     7
 10
-3.5999999999999792
 20
-6.3638694583963513
 30
0.0
 11
-3.5999999999999792
 21
-5.128498911788121
 31
0.0
  0
LINE
  5
87
  8
1
 62
     7
 10
-2.2999999999999821
 20
-7.6638694583963467
 30
0.0
 11
-0.5999999999999801
 21
-7.6638694583963467
 31
0.0
  0
LINE
  5
88
  8
1
 62
     7
 10
-0.5999999999999801
 20
-4.9638694583963456
 30
0.0
 11
-0.5999999999999801
 21
-7.6638694583963467
 31
0.0
  0
LINE
  5
89
  8
1
 62
     7
 10
0.5999999999999944
 20
-7.6638694583963467
 30
0.0
 11
0.5999999999999944
 21
-4.9638694583963456
 31
0.0
  0
LINE
  5
8A
  8
1
 62
     7
 10
0.5999999999999944
 20
-7.6638694583963467
 30
0.0
 11
2.2999999999999972
 21
-7.6638694583963467
 31
0.0
  0
LINE
  5
8B
  8
1
 62
     7
 10
3.599999999999993
 20
-5.128498911788121
 30
0.0
 11
3.599999999999993
 21
-6.3638694583963513
 31
0.0
  0
LINE
  5
8C
  8
1
  6
DASHDOT
 62
     3
 10
165.5
 20
0.0
 30
0.0
 11
162.5
 21
0.0
 31
0.0
  0
LINE
  5
8D
  8
1
  6
DASHDOT
 62
     3
 10
91.0
 20
0.0
 30
0.0
 11
88.0
 21
0.0
 31
0.0
  0
LINE
  5
8E
  8
1
 62
     3
 10
254.41999999999999
 20
64.0
 30
0.0
 11
254.41999999999999
 21
61.0
 31
0.0
  0
LINE
  5
8F
  8
1
 62
     3
 10
252.58000000000001
 20
64.0
 30
0.0
 11
252.58000000000001
 21
61.0
 31
0.0
  0
LINE
  5
90
  8
1
 62
     3
 10
118.5
 20
64.0
 30
0.0
 11
118.5
 21
61.0
 31
0.0
  0
LINE
  5
91
  8
1
 62
     3
 10
0.9200000000000015
 20
64.0
 30
0.0
 11
0.9200000000000015
 21
61.0
 31
0.0
  0
LINE
  5
92
  8
1
 62
     3
 10
-0.9200000000000299
 20
64.0
 30
0.0
 11
-0.9200000000000299
 21
61.0
 31
0.0
  0
ARC
  5
93
  8
1
 62
     7
 10
248.09999999999991
 20
-5.128498911788121
 30
0.0
 40
1.8000000000000109
 50
0.0
 51
46.186938539596113
  0
ARC
  5
94
  8
1
 62
     7
 10
251.19999999999999
 20
-6.3638694583963513
 30
0.0
 40
1.2999999999999821
 50
180.0
 51
270.0
  0
ARC
  5
95
  8
1
 62
     7
 10
255.80000000000001
 20
-6.3638694583963513
 30
0.0
 40
1.2999999999999949
 50
270.0
 51
0.0
  0
ARC
  5
96
  8
1
 62
     7
 10
258.89999999999992
 20
-5.128498911788121
 30
0.0
 40
1.8000000000000389
 50
133.81306146040441
 51
180.0
  0
ARC
  5
97
  8
1
 62
     7
 10
-5.3999999999999764
 20
-5.128498911788121
 30
0.0
 40
1.799999999999996
 50
0.0
 51
46.186938539597001
  0
ARC
  5
98
  8
1
 62
     7
 10
-2.2999999999999821
 20
-6.3638694583963513
 30
0.0
 40
1.299999999999996
 50
180.0
 51
270.0
  0
ARC
  5
99
  8
1
 62
     7
 10
2.2999999999999972
 20
-6.3638694583963513
 30
0.0
 40
1.2999999999999949
 50
270.0
 51
0.0
  0
ARC
  5
9A
  8
1
 62
     7
 10
5.3999999999999906
 20
-5.128498911788121
 30
0.0
 40
1.7999999999999989
 50
133.81306146040311
 51
180.0
  0
ARC
  5
9B
  8
1
  6
CENTER
 62
     3
 10
0.0
 20
0.0
 30
0.0
 40
41.0
 50
310.45707146193382
 51
319.54292853806578
  0
ARC
  5
9C
  8
1
  6
CENTER
 62
     3
 10
0.0
 20
0.0
 30
0.0
 40
41.0
 50
220.45707146193391
 51
229.54292853806589
  0
ARC
  5
9D
  8
1
  6
CENTER
 62
     3
 10
0.0
 20
0.0
 30
0.0
 40
40.999999999999993
 50
130.45707146193391
 51
139.54292853806589
  0
ARC
  5
9E
  8
1
  6
CENTER
 62
     3
 10
0.0
 20
0.0
 30
0.0
 40
41.0
 50
40.457071461933843
 51
49.542928538065908
  0
ARC
  5
9F
  8
1
 62
     7
 10
0.0
 20
0.0
 30
0.0
 40
45.999999999999993
 50
92.292442775955848
 51
87.707557224044137
  0
ARC
  5
A0
  8
1
  6
CENTER
 62
     3
 10
253.5
 20
0.0
 30
0.0
 40
40.999999999999957
 50
40.457071461933843
 51
49.542928538065809
  0
ARC
  5
A1
  8
1
  6
CENTER
 62
     3
 10
253.5
 20
0.0
 30
0.0
 40
40.999999999999957
 50
130.45707146193371
 51
139.54292853806581
  0
ARC
  5
A2
  8
1
  6
CENTER
 62
     3
 10
253.5
 20
0.0
 30
0.0
 40
40.999999999999957
 50
220.45707146193379
 51
229.54292853806581
  0
ARC
  5
A3
  8
1
  6
CENTER
 62
     3
 10
253.5
 20
0.0
 30
0.0
 40
41.000000000000057
 50
310.45707146193382
 51
319.54292853806578
  0
ARC
  5
A4
  8
1
 62
     7
 10
253.5
 20
0.5
 30
0.0
 40
5.9999999999999476
 50
313.81306146040259
 51
226.18693853959709
  0
ARC
  5
A5
  8
1
 62
     7
 10
0.0
 20
0.5
 30
0.0
 40
5.9999999999999991
 50
313.81306146040322
 51
226.18693853959701
  0
CIRCLE
  5
A6
  8
1
 62
     7
 10
0.0
 20
0.0
 30
0.0
 40
13.0
  0
CIRCLE
  5
A7
  8
1
 62
     7
 10
0.0
 20
0.0
 30
0.0
 40
5.0
  0
CIRCLE
  5
A8
  8
1
 62
     7
 10
0.0
 20
0.0
 30
0.0
 40
22.5
  0
CIRCLE
  5
A9
  8
1
 62
     7
 10
0.0
 20
0.0
 30
0.0
 40
31.0
  0
CIRCLE
  5
AA
  8
1
 62
     7
 10
0.0
 20
0.0
 30
0.0
 40
34.5
  0
CIRCLE
  5
AB
  8
1
 62
     7
 10
28.991378028648569
 20
28.991378028648441
 30
0.0
 40
2.25
  0
CIRCLE
  5
AC
  8
1
 62
     7
 10
-28.991378028648398
 20
28.991378028648459
 30
0.0
 40
2.25
  0
CIRCLE
  5
AD
  8
1
 62
     7
 10
-28.991378028648398
 20
-28.991378028648441
 30
0.0
 40
2.25
  0
CIRCLE
  5
AE
  8
1
 62
     7
 10
28.991378028648459
 20
-28.991378028648441
 30
0.0
 40
2.25
  0
CIRCLE
  5
AF
  8
1
 62
     7
 10
253.5
 20
0.0
 30
0.0
 40
5.0
  0
CIRCLE
  5
B0
  8
1
 62
     7
 10
253.5
 20
0.0
 30
0.0
 40
22.5
  0
CIRCLE
  5
B1
  8
1
 62
     7
 10
253.5
 20
0.0
 30
0.0
 40
31.0
  0
CIRCLE
  5
B2
  8
1
 62
     7
 10
253.5
 20
0.0
 30
0.0
 40
34.5
  0
CIRCLE
  5
B3
  8
1
 62
     7
 10
253.5
 20
0.0
 30
0.0
 40
46.0
  0
CIRCLE
  5
B4
  8
1
 62
     7
 10
282.49137802864863
 20
28.991378028648441
 30
0.0
 40
2.25
  0
CIRCLE
  5
B5
  8
1
 62
     7
 10
224.5086219713516
 20
28.991378028648459
 30
0.0
 40
2.25
  0
CIRCLE
  5
B6
  8
1
 62
     7
 10
224.5086219713516
 20
-28.991378028648441
 30
0.0
 40
2.25
  0
CIRCLE
  5
B7
  8
1
 62
     7
 10
282.49137802864851
 20
-28.991378028648441
 30
0.0
 40
2.25
  0
CIRCLE
  5
B8
  8
1
 62
     7
 10
251.5915627261505
 20
-6.3832591205142366
 30
0.0
 40
0.8000000000000113
  0
CIRCLE
  5
B9
  8
1
 62
     7
 10
255.40843727384959
 20
-6.3832591205142366
 30
0.0
 40
0.7999999999998977
  0
CIRCLE
  5
BA
  8
1
 62
     7
 10
-1.908437273849543
 20
-6.3832591205142366
 30
0.0
 40
0.7999999999999971
  0
CIRCLE
  5
BB
  8
1
 62
     7
 10
1.9084372738495561
 20
-6.3832591205142366
 30
0.0
 40
0.7999999999999981
  0
CIRCLE
  5
BC
  8
1
 62
     7
 10
253.5
 20
0.0
 30
0.0
 40
13.0
  0
TEXT
  5
BE
  8
1
 62
     7
 10
-53.859124981980678
 20
69.401488395560094
 30
0.0
 40
4.5
  1
OPB 20N
 41
0.9
  7
SIMPLEX
 72
     1
 11
-40.648410696266389
 21
69.401488395560094
 31
0.0
  0
ENDSEC
  0
EOF
