  0
SECTION
  2
HEADER
  9
$ACADVER
  1
AC1009
  9
$INSBASE
 10
0
 20
0
  9
$EXTMIN
 10
4130.65754900031
 20
-2245.845321488169
  9
$EXTMAX
 10
4870.215509400038
 20
-2023.75721191552
  9
$LIMMIN
 10
4130.65754900031
 20
-2245.845321488169
  9
$LIMMAX
 10
4870.215509400038
 20
-2023.75721191552
  9
$VIEWCTR
 10
10
 20
10
  9
$VIEWSIZE
 40
10
  9
$SNAPMODE
 70
0
  9
$SNAPUNIT
 10
1
 20
1
  9
$SNAPBASE
 10
0
 20
0
  9
$SNAPANG
 50
0
  9
$SNAPSTYLE
 70
0
  9
$SNAPISOPAIR
 70
0
  9
$GRIDMODE
 70
0
  9
$GRIDUNIT
 10
0
 20
0
  9
$ORTHOMODE
 70
0
  9
$REGENMODE
 70
1
  9
$FILLMODE
 70
1
  9
$QTEXTMODE
 70
0
  9
$DRAGMODE
 70
2
  9
$LTSCALE
 40
1
  9
$OSMODE
 70
0
  9
$ATTMODE
 70
1
  9
$TEXTSIZE
 40
3.5
  9
$TRACEWID
 40
0.5
  9
$TEXTSTYLE
  7
STANDARD
  9
$CLAYER
  8
0
  9
$CELTYPE
  6
BYLAYER
  9
$CECOLOR
 62
256
  9
$DIMSCALE
 40
1
  9
$DIMASZ
 40
0.18
  9
$DIMEXO
 40
0.0625
  9
$DIMDLI
 40
0.38
  9
$DIMRND
 40
0
  9
$DIMDLE
 40
0
  9
$DIMEXE
 40
0.18
  9
$DIMTP
 40
0
  9
$DIMTM
 40
0
  9
$DIMTXT
 40
0.18
  9
$DIMCEN
 40
0.09
  9
$DIMTSZ
 40
0
  9
$DIMTOL
 70
0
  9
$DIMLIM
 70
0
  9
$DIMTIH
 70
1
  9
$DIMTOH
 70
1
  9
$DIMSE1
 70
0
  9
$DIMSE2
 70
0
  9
$DIMTAD
 70
0
  9
$DIMZIN
 70
0
  9
$DIMBLK
  1

  9
$DIMASO
 70
1
  9
$DIMSHO
 70
1
  9
$DIMPOST
  1

  9
$DIMAPOST
  1

  9
$DIMALT
 70
0
  9
$DIMALTD
 70
2
  9
$DIMALTF
 40
25.4
  9
$DIMLFAC
 40
1
  9
$DIMTOFL
 70
0
  9
$DIMTVP
 40
0
  9
$DIMTIX
 70
0
  9
$DIMSOXD
 70
0
  9
$DIMSAH
 70
0
  9
$DIMBLK1
  1

  9
$DIMBLK2
  1

  9
$DIMSTYLE
  2
*UNNAMED
  9
$DIMCLRD
 70
0
  9
$DIMCLRE
 70
0
  9
$DIMCLRT
 70
0
  9
$DIMTFAC
 40
1
  9
$DIMGAP
 40
0.09
  9
$LUNITS
 70
2
  9
$LUPREC
 70
4
  9
$AXISMODE
 70
0
  9
$AXISUNIT
 10
0
 20
0
  9
$SKETCHINC
 40
0.1
  9
$FILLETRAD
 40
2
  9
$AUNITS
 70
0
  9
$AUPREC
 70
0
  9
$MENU
  1
ACAD
  9
$ELEVATION
 40
0
  9
$THICKNESS
 40
0
  9
$VIEWDIR
 10
0
 20
0
 30
1
  9
$LIMCHECK
 70
0
  9
$BLIPMODE
 70
1
  9
$CHAMFERA
 40
0
  9
$CHAMFERB
 40
0
  9
$FASTZOOM
 70
1
  9
$SKPOLY
 70
0
  9
$ANGBASE
 50
0
  9
$ANGDIR
 70
0
  9
$PDMODE
 70
0
  9
$PDSIZE
 40
0
  9
$PLINEWID
 40
0
  9
$COORDS
 70
2
  0
ENDSEC
  0
SECTION
  2
TABLES
  0
TABLE
  2
DIMSTYLE
 70
0
  0
ENDTAB
  0
TABLE
  2
LTYPE
 70
9
  0
LTYPE
  2
CONTINUOUS
 70
64
  3
Solid line
 72
65
 73
0
 40
0
  0
LTYPE
  2
BORDER
 70
64
  3
__ __ . __ __ .
 72
65
 73
6
 40
34.05859028156645
 49
9.73102579473327
 49
-4.865512897366635
 49
9.73102579473327
 49
-4.865512897366635
 49
0
 49
-4.865512897366635
  0
LTYPE
  2
CENTER
 70
64
  3
____ _ ____ _
 72
65
 73
4
 40
38.92410317893308
 49
24.32756448683318
 49
-4.865512897366635
 49
4.865512897366635
 49
-4.865512897366635
  0
LTYPE
  2
DASHDOT
 70
64
  3
__ . __ . __ .
 72
65
 73
4
 40
19.46205158946654
 49
9.73102579473327
 49
-4.865512897366635
 49
0
 49
-4.865512897366635
  0
LTYPE
  2
DASHED
 70
64
  3
__ __ __ __ __
 72
65
 73
2
 40
14.59653869209991
 49
9.73102579473327
 49
-4.865512897366635
  0
LTYPE
  2
DIVIDE
 70
64
  3
__ . . __ . . 
 72
65
 73
6
 40
24.32756448683318
 49
9.73102579473327
 49
-4.865512897366635
 49
0
 49
-4.865512897366635
 49
0
 49
-4.865512897366635
  0
LTYPE
  2
DOT
 70
64
  3
..............
 72
65
 73
4
 40
9.73102579473327
 49
0
 49
-4.865512897366635
 49
0
 49
-4.865512897366635
  0
LTYPE
  2
HIDDEN
 70
64
  3
_ _ _ _ _ _ _
 72
65
 73
2
 40
7.298269346049953
 49
4.865512897366635
 49
-2.432756448683318
  0
LTYPE
  2
PHANTOM
 70
64
  3
_____ _ _ _____ _ _ 
 72
65
 73
6
 40
48.65512897366635
 49
24.32756448683318
 49
-4.865512897366635
 49
4.865512897366635
 49
-4.865512897366635
 49
4.865512897366635
 49
-4.865512897366635
  0
ENDTAB
  0
TABLE
  2
LAYER
 70
3
  0
LAYER
  2
1
 70
0
 62
7
  6
CONTINUOUS
  0
LAYER
  2
0
 70
0
 62
7
  6
CONTINUOUS
  0
ENDTAB
  0
TABLE
  2
STYLE
 70
4
  0
STYLE
  2
STANDARD
 70
0
 40
0
 41
1
 50
0
 71
0
 42
3.5
  3
txt
  4

  0
STYLE
  2
SIMPLEX
 70
0
 40
0
 41
1
 50
0
 71
0
 42
3.5
  3
simplex
  4

  0
STYLE
  2
COMPLEX
 70
0
 40
0
 41
1
 50
0
 71
0
 42
3.5
  3
complex
  4

  0
STYLE
  2
ITALIC
 70
0
 40
0
 41
1
 50
0
 71
0
 42
3.5
  3
italic
  4

  0
ENDTAB
  0
TABLE
  2
VIEW
 70
0
  0
ENDTAB
  0
ENDSEC
  0
SECTION
  2
BLOCKS
  0
ENDSEC
  0
SECTION
  2
ENTITIES
  0
LINE
  8
1
 62
7
 10
4532.207754700025
 20
-2049.845321488147
 30
0
 11
4474.207754700025
 21
-2049.84532148814
 31
0
  0
LINE
  8
1
 62
7
 10
4532.207754700025
 20
-2235.84532148818
 30
0
 11
4474.207754700025
 21
-2235.845321488187
 31
0
  0
LINE
  8
1
 62
3
  6
DASHDOT
 10
4402.816697116014
 20
-2195.245321488189
 30
0
 11
4448.207754700025
 21
-2195.245321488189
 31
0
  0
LINE
  8
1
 62
3
  6
DASHDOT
 10
4448.207754700025
 20
-2090.44532148815
 30
0
 11
4402.816697116014
 21
-2090.44532148815
 31
0
  0
LINE
  8
1
 62
7
 10
4407.007754700034
 20
-2093.945321488161
 30
0
 11
4406.328730374266
 21
-2093.945321488161
 31
0
  0
LINE
  8
1
 62
7
 10
4407.307754700015
 20
-2087.24532148816
 30
0
 11
4407.307754700015
 21
-2093.645321488158
 31
0
  0
LINE
  8
1
 62
7
 10
4406.328730374266
 20
-2086.945321488161
 30
0
 11
4407.007754700034
 21
-2086.945321488161
 31
0
  0
LINE
  8
1
 62
7
 10
4446.107754700065
 20
-2146.345321488169
 30
0
 11
4445.428730374334
 21
-2146.34532148818
 31
0
  0
LINE
  8
1
 62
7
 10
4446.407754699984
 20
-2139.64532148815
 30
0
 11
4446.407754700064
 21
-2146.045321488159
 31
0
  0
LINE
  8
1
 62
7
 10
4445.428730374203
 20
-2139.34532148818
 30
0
 11
4446.107754699974
 21
-2139.345321488169
 31
0
  0
LINE
  8
1
 62
7
 10
4447.407754700013
 20
-2139.045321488159
 30
0
 11
4447.407754700013
 21
-2146.64532148815
 31
0
  0
LINE
  8
1
 62
7
 10
4446.407754700013
 20
-2139.045321488159
 30
0
 11
4447.407754700013
 21
-2139.045321488159
 31
0
  0
LINE
  8
1
 62
7
 10
4446.407754700013
 20
-2146.64532148815
 30
0
 11
4446.407754700013
 21
-2139.045321488159
 31
0
  0
LINE
  8
1
 62
7
 10
4447.407754700013
 20
-2146.64532148815
 30
0
 11
4446.407754700013
 21
-2146.64532148815
 31
0
  0
LINE
  8
1
 62
7
 10
4447.407754700013
 20
-2141.845321488147
 30
0
 11
4446.407754700013
 21
-2142.845321488147
 31
0
  0
LINE
  8
1
 62
7
 10
4447.407754700013
 20
-2142.845321488147
 30
0
 11
4446.407754700013
 21
-2143.845321488147
 31
0
  0
LINE
  8
1
 62
7
 10
4448.207754700025
 20
-2138.845321488169
 30
0
 11
4448.207754700025
 21
-2146.845321488169
 31
0
  0
LINE
  8
1
 62
7
 10
4447.407754700013
 20
-2138.845321488169
 30
0
 11
4448.207754700025
 21
-2138.845321488169
 31
0
  0
LINE
  8
1
 62
7
 10
4447.407754700013
 20
-2146.845321488169
 30
0
 11
4447.407754700013
 21
-2138.845321488169
 31
0
  0
LINE
  8
1
 62
7
 10
4448.207754700025
 20
-2146.845321488169
 30
0
 11
4447.407754700013
 21
-2146.845321488169
 31
0
  0
LINE
  8
1
 62
3
  6
DASHDOT
 10
4404.708754700017
 20
-2195.245321488131
 30
0
 11
4401.708754700017
 21
-2195.245321488131
 31
0
  0
LINE
  8
1
 62
7
 10
4350.400254700025
 20
-2144.895321488158
 30
0
 11
4351.015254700015
 21
-2144.895321488158
 31
0
  0
LINE
  8
1
 62
7
 10
4348.657754700024
 20
-2142.53782148817
 30
0
 11
4348.657754700024
 21
-2143.152821488179
 31
0
  0
LINE
  8
1
 62
7
 10
4351.015254700015
 20
-2140.795321488159
 30
0
 11
4350.400254700025
 21
-2140.795321488159
 31
0
  0
LINE
  8
1
 62
7
 10
4352.757754700005
 20
-2143.152821488179
 30
0
 11
4352.757754700005
 21
-2142.53782148817
 31
0
  0
LINE
  8
1
 62
7
 10
4259.657754700024
 20
-2231.53782148817
 30
0
 11
4259.657754700024
 21
-2232.152821488179
 31
0
  0
LINE
  8
1
 62
7
 10
4262.015254700015
 20
-2229.795321488177
 30
0
 11
4261.400254700025
 21
-2229.795321488177
 31
0
  0
LINE
  8
1
 62
7
 10
4263.757754700027
 20
-2232.152821488179
 30
0
 11
4263.757754700027
 21
-2231.53782148817
 31
0
  0
LINE
  8
1
 62
7
 10
4261.400254700025
 20
-2233.895321488158
 30
0
 11
4262.015254700015
 21
-2233.895321488158
 31
0
  0
LINE
  8
1
 62
7
 10
4173.015254700015
 20
-2140.79532148817
 30
0
 11
4172.400254700025
 21
-2140.79532148817
 31
0
  0
LINE
  8
1
 62
7
 10
4174.757754700005
 20
-2143.152821488179
 30
0
 11
4174.757754700005
 21
-2142.53782148817
 31
0
  0
LINE
  8
1
 62
7
 10
4172.400254700025
 20
-2144.895321488179
 30
0
 11
4173.015254700015
 21
-2144.895321488179
 31
0
  0
LINE
  8
1
 62
7
 10
4170.657754700024
 20
-2142.53782148817
 30
0
 11
4170.657754700024
 21
-2143.152821488179
 31
0
  0
LINE
  8
1
 62
7
 10
4263.757754700016
 20
-2054.152821488157
 30
0
 11
4263.757754700016
 21
-2053.53782148817
 31
0
  0
LINE
  8
1
 62
7
 10
4261.400254700025
 20
-2055.895321488158
 30
0
 11
4262.015254700015
 21
-2055.895321488158
 31
0
  0
LINE
  8
1
 62
7
 10
4259.657754700024
 20
-2053.53782148817
 30
0
 11
4259.657754700024
 21
-2054.152821488157
 31
0
  0
LINE
  8
1
 62
7
 10
4262.015254700015
 20
-2051.79532148817
 30
0
 11
4261.400254700025
 21
-2051.79532148817
 31
0
  0
LINE
  8
1
 62
7
 10
4201.707754700016
 20
-2164.23902148817
 30
0
 11
4201.707754700016
 21
-2198.845321488169
 31
0
  0
LINE
  8
1
 62
7
 10
4204.577254700013
 20
-2175.591721488169
 30
0
 11
4204.577254700013
 21
-2110.499421488169
 31
0
  0
LINE
  8
1
 62
7
 10
4318.838254700016
 20
-2118.16192148816
 30
0
 11
4318.838254700016
 21
-2175.591721488169
 31
0
  0
LINE
  8
1
 62
7
 10
4228.961354700024
 20
-2085.71482148817
 30
0
 11
4294.454154700024
 21
-2085.71482148817
 31
0
  0
LINE
  8
1
 62
7
 10
4294.454154700024
 20
-2199.975821488158
 30
0
 11
4228.961354700024
 21
-2199.975821488158
 31
0
  0
LINE
  8
1
 62
7
 10
4317.707754700016
 20
-2202.845321488169
 30
0
 11
4205.707754700016
 21
-2202.845321488169
 31
0
  0
LINE
  8
1
 62
7
 10
4406.306754700015
 20
-2093.945321488161
 30
0
 11
4406.306754700015
 21
-2098.056021488169
 31
0
  0
LINE
  8
1
 62
7
 10
4407.908754700025
 20
-2086.445321488201
 30
0
 11
4407.908754700025
 21
-2085.84632148817
 31
0
  0
LINE
  8
1
 62
7
 10
4406.306754700015
 20
-2198.745321488171
 30
0
 11
4406.306754700015
 21
-2199.844321488169
 31
0
  0
LINE
  8
1
 62
7
 10
4406.306754700015
 20
-2198.745321488171
 30
0
 11
4406.306754700015
 21
-2199.245321488131
 31
0
  0
LINE
  8
1
 62
7
 10
4407.908754700025
 20
-2191.245321488131
 30
0
 11
4407.908754700025
 21
-2188.69792148816
 31
0
  0
LINE
  8
1
 62
7
 10
4408.107754700025
 20
-2199.245321488131
 30
0
 11
4408.107754700025
 21
-2199.095321488169
 31
0
  0
LINE
  8
1
 62
7
 10
4408.107754700025
 20
-2086.445321488201
 30
0
 11
4408.107754700025
 21
-2094.445321488201
 31
0
  0
LINE
  8
1
 62
7
 10
4408.107754700025
 20
-2094.445321488201
 30
0
 11
4407.307754700015
 21
-2094.445321488201
 31
0
  0
LINE
  8
1
 62
7
 10
4407.307754700015
 20
-2094.445321488201
 30
0
 11
4407.307754700015
 21
-2086.445321488201
 31
0
  0
LINE
  8
1
 62
7
 10
4407.307754700015
 20
-2086.445321488201
 30
0
 11
4408.107754700025
 21
-2086.445321488201
 31
0
  0
LINE
  8
1
 62
7
 10
4407.307754700015
 20
-2087.24532148816
 30
0
 11
4407.307754700015
 21
-2093.645321488158
 31
0
  0
LINE
  8
1
 62
7
 10
4407.307754700015
 20
-2087.245321488171
 30
0
 11
4407.307754700015
 21
-2093.645321488158
 31
0
  0
LINE
  8
1
 62
7
 10
4406.306754700015
 20
-2191.245321488131
 30
0
 11
4406.306754700015
 21
-2191.745321488171
 31
0
  0
LINE
  8
1
 62
7
 10
4407.307754700015
 20
-2191.245321488131
 30
0
 11
4408.107754700025
 21
-2191.245321488131
 31
0
  0
LINE
  8
1
 62
7
 10
4407.307754700015
 20
-2199.245321488131
 30
0
 11
4407.307754700015
 21
-2191.245321488131
 31
0
  0
LINE
  8
1
 62
7
 10
4408.107754700025
 20
-2199.245321488131
 30
0
 11
4407.307754700015
 21
-2199.245321488131
 31
0
  0
LINE
  8
1
 62
7
 10
4445.428730374265
 20
-2050.345321488147
 30
0
 11
4446.107754700003
 21
-2050.345321488147
 31
0
  0
LINE
  8
1
 62
7
 10
4446.407754700013
 20
-2050.64532148815
 30
0
 11
4446.407754700013
 21
-2057.045321488159
 31
0
  0
LINE
  8
1
 62
7
 10
4446.107754700003
 20
-2057.345321488147
 30
0
 11
4445.428730374265
 21
-2057.345321488147
 31
0
  0
LINE
  8
1
 62
7
 10
4447.407754700013
 20
-2050.045321488159
 30
0
 11
4447.407754700013
 21
-2057.64532148815
 31
0
  0
LINE
  8
1
 62
7
 10
4447.407754700013
 20
-2057.64532148815
 30
0
 11
4446.407754700013
 21
-2057.64532148815
 31
0
  0
LINE
  8
1
 62
7
 10
4446.407754700013
 20
-2057.64532148815
 30
0
 11
4446.407754700013
 21
-2050.045321488159
 31
0
  0
LINE
  8
1
 62
7
 10
4446.407754700013
 20
-2050.045321488159
 30
0
 11
4447.407754700013
 21
-2050.045321488159
 31
0
  0
LINE
  8
1
 62
7
 10
4446.407754700013
 20
-2053.845321488147
 30
0
 11
4447.407754700013
 21
-2054.845321488147
 31
0
  0
LINE
  8
1
 62
7
 10
4446.407754700013
 20
-2052.845321488147
 30
0
 11
4447.407754700013
 21
-2053.845321488147
 31
0
  0
LINE
  8
1
 62
7
 10
4448.207754700025
 20
-2049.845321488147
 30
0
 11
4448.207754700025
 21
-2057.845321488147
 31
0
  0
LINE
  8
1
 62
7
 10
4448.207754700025
 20
-2057.845321488147
 30
0
 11
4447.407754700013
 21
-2057.845321488147
 31
0
  0
LINE
  8
1
 62
7
 10
4447.407754700013
 20
-2057.845321488147
 30
0
 11
4447.407754700013
 21
-2049.845321488147
 31
0
  0
LINE
  8
1
 62
7
 10
4447.407754700013
 20
-2049.845321488147
 30
0
 11
4448.207754700025
 21
-2049.845321488147
 31
0
  0
LINE
  8
1
 62
7
 10
4448.207754700025
 20
-2050.645321488158
 30
0
 11
4448.207754700025
 21
-2057.045321488159
 31
0
  0
LINE
  8
1
 62
7
 10
4446.107754700003
 20
-2235.34532148818
 30
0
 11
4445.428730374265
 21
-2235.34532148818
 31
0
  0
LINE
  8
1
 62
7
 10
4446.407754700013
 20
-2228.645321488179
 30
0
 11
4446.407754700013
 21
-2235.045321488177
 31
0
  0
LINE
  8
1
 62
7
 10
4445.428730374265
 20
-2228.34532148818
 30
0
 11
4446.107754700003
 21
-2228.34532148818
 31
0
  0
LINE
  8
1
 62
7
 10
4447.407754700013
 20
-2228.045321488177
 30
0
 11
4447.407754700013
 21
-2235.645321488179
 31
0
  0
LINE
  8
1
 62
7
 10
4446.407754700013
 20
-2228.045321488177
 30
0
 11
4447.407754700013
 21
-2228.045321488177
 31
0
  0
LINE
  8
1
 62
7
 10
4446.407754700013
 20
-2235.645321488179
 30
0
 11
4446.407754700013
 21
-2228.045321488177
 31
0
  0
LINE
  8
1
 62
7
 10
4447.407754700013
 20
-2235.645321488179
 30
0
 11
4446.407754700013
 21
-2235.645321488179
 31
0
  0
LINE
  8
1
 62
7
 10
4447.407754700013
 20
-2230.84532148818
 30
0
 11
4446.407754700013
 21
-2231.84532148818
 31
0
  0
LINE
  8
1
 62
7
 10
4447.407754700013
 20
-2231.84532148818
 30
0
 11
4446.407754700013
 21
-2232.84532148818
 31
0
  0
LINE
  8
1
 62
7
 10
4448.207754700025
 20
-2227.84532148818
 30
0
 11
4448.207754700025
 21
-2235.84532148818
 31
0
  0
LINE
  8
1
 62
7
 10
4447.407754700013
 20
-2227.84532148818
 30
0
 11
4448.207754700025
 21
-2227.84532148818
 31
0
  0
LINE
  8
1
 62
7
 10
4447.407754700013
 20
-2235.84532148818
 30
0
 11
4447.407754700013
 21
-2227.84532148818
 31
0
  0
LINE
  8
1
 62
7
 10
4448.207754700025
 20
-2235.84532148818
 30
0
 11
4447.407754700013
 21
-2235.84532148818
 31
0
  0
LINE
  8
1
 62
7
 10
4448.207754700025
 20
-2066.445321488161
 30
0
 11
4448.207754700025
 21
-2045.84532148817
 31
0
  0
LINE
  8
1
 62
7
 10
4407.008754700005
 20
-2198.745321488171
 30
0
 11
4406.329730374274
 21
-2198.745321488171
 31
0
  0
LINE
  8
1
 62
7
 10
4406.329730374274
 20
-2191.745321488171
 30
0
 11
4407.008754700005
 21
-2191.745321488171
 31
0
  0
LINE
  8
1
 62
7
 10
4406.306754700015
 20
-2157.86402148817
 30
0
 11
4404.707754700025
 21
-2157.86402148817
 31
0
  0
LINE
  8
1
 62
7
 10
4409.707754700025
 20
-2098.229821488169
 30
0
 11
4409.707754700025
 21
-2086.595321488169
 31
0
  0
LINE
  8
1
 62
7
 10
4409.707754700025
 20
-2086.595321488169
 30
0
 11
4408.107754700025
 21
-2086.595321488169
 31
0
  0
LINE
  8
1
 62
7
 10
4409.707754700025
 20
-2098.229821488169
 30
0
 11
4409.707754700025
 21
-2086.595321488169
 31
0
  0
LINE
  8
1
 62
7
 10
4408.107754700025
 20
-2187.62252148817
 30
0
 11
4404.931424700023
 21
-2185.51422148817
 31
0
  0
LINE
  8
1
 62
7
 10
4406.308754700015
 20
-2184.935121488167
 30
0
 11
4409.418984700024
 21
-2186.99962148816
 31
0
  0
LINE
  8
1
 62
7
 10
4406.308754700015
 20
-2184.935121488167
 30
0
 11
4406.308754700015
 21
-2183.46482148817
 31
0
  0
LINE
  8
1
 62
7
 10
4404.931424700023
 20
-2098.968921488157
 30
0
 11
4408.107754700025
 21
-2096.860521488167
 31
0
  0
LINE
  8
1
 62
7
 10
4404.931424700023
 20
-2186.72172148817
 30
0
 11
4408.107754700025
 21
-2188.83012148816
 31
0
  0
LINE
  8
1
 62
7
 10
4406.308754700015
 20
-2102.225821488158
 30
0
 11
4406.308754700015
 21
-2100.75552148816
 31
0
  0
LINE
  8
1
 62
7
 10
4409.418984699973
 20
-2098.691021488167
 30
0
 11
4406.308754700015
 21
-2100.75552148816
 31
0
  0
LINE
  8
1
 62
7
 10
4404.931424700023
 20
-2100.176421488158
 30
0
 11
4408.107754700025
 21
-2098.068121488169
 31
0
  0
LINE
  8
1
 62
7
 10
4404.707754700025
 20
-2127.826621488169
 30
0
 11
4406.306754700015
 21
-2127.826621488169
 31
0
  0
POLYLINE
  8
1
 62
3
  6
DASHED
 66
1
  0
VERTEX
  8
1
 10
4406.306754700015
 20
-2156.74752148817
 30
0
  0
VERTEX
  8
1
 10
4406.306754700015
 20
-2156.74752148817
 30
0
  0
SEQEND
  8
1
  0
POLYLINE
  8
1
 62
3
  6
DASHED
 66
1
  0
VERTEX
  8
1
 10
4406.306754700015
 20
-2156.74752148817
 30
0
  0
VERTEX
  8
1
 10
4406.306754700015
 20
-2156.74752148817
 30
0
  0
SEQEND
  8
1
  0
POLYLINE
  8
1
 62
3
  6
DASHED
 66
1
  0
VERTEX
  8
1
 10
4406.306754700015
 20
-2156.74752148817
 30
0
  0
VERTEX
  8
1
 10
4406.306754700015
 20
-2156.74752148817
 30
0
  0
SEQEND
  8
1
  0
POLYLINE
  8
1
 62
3
  6
DASHED
 66
1
  0
VERTEX
  8
1
 10
4406.306754700015
 20
-2150.48903148817
 30
0
  0
VERTEX
  8
1
 10
4406.306754700015
 20
-2150.48903148817
 30
0
  0
SEQEND
  8
1
  0
POLYLINE
  8
1
 62
3
  6
DASHED
 66
1
  0
VERTEX
  8
1
 10
4406.306754700015
 20
-2150.489041488169
 30
0
  0
VERTEX
  8
1
 10
4406.306754700015
 20
-2150.489041488169
 30
0
  0
SEQEND
  8
1
  0
POLYLINE
  8
1
 62
3
  6
DASHED
 66
1
  0
VERTEX
  8
1
 10
4406.306754700015
 20
-2135.201601488169
 30
0
  0
VERTEX
  8
1
 10
4406.306754700015
 20
-2135.201601488169
 30
0
  0
SEQEND
  8
1
  0
POLYLINE
  8
1
 62
3
  6
DASHED
 66
1
  0
VERTEX
  8
1
 10
4406.306754700015
 20
-2135.201601488169
 30
0
  0
VERTEX
  8
1
 10
4406.306754700015
 20
-2135.201601488169
 30
0
  0
SEQEND
  8
1
  0
LINE
  8
1
 62
7
 10
4408.107754700025
 20
-2187.62252148817
 30
0
 11
4408.107754700025
 21
-2199.095321488169
 31
0
  0
LINE
  8
1
 62
7
 10
4409.707754700025
 20
-2199.095321488169
 30
0
 11
4409.707754700025
 21
-2187.460821488169
 31
0
  0
LINE
  8
1
 62
7
 10
4408.107754700025
 20
-2086.595321488169
 30
0
 11
4408.107754700025
 21
-2098.068121488169
 31
0
  0
LINE
  8
1
 62
7
 10
4404.931424700023
 20
-2185.51422148817
 30
0
 11
4404.931424700023
 21
-2186.72172148817
 31
0
  0
LINE
  8
1
 62
7
 10
4404.707754700025
 20
-2186.308221488161
 30
0
 11
4404.707754700025
 21
-2099.382421488171
 31
0
  0
LINE
  8
1
 62
7
 10
4404.931424700023
 20
-2098.968921488157
 30
0
 11
4404.931424700023
 21
-2100.176421488158
 31
0
  0
LINE
  8
1
 62
7
 10
4406.306754700015
 20
-2085.84632148817
 30
0
 11
4406.306754700015
 21
-2086.945321488161
 31
0
  0
LINE
  8
1
 62
7
 10
4406.306754700015
 20
-2102.263121488158
 30
0
 11
4406.306754700015
 21
-2183.42752148817
 31
0
  0
LINE
  8
1
 62
7
 10
4406.306754700015
 20
-2187.63462148817
 30
0
 11
4406.306754700015
 21
-2191.745321488171
 31
0
  0
LINE
  8
1
 62
7
 10
4407.908754700025
 20
-2096.992721488167
 30
0
 11
4407.908754700025
 21
-2094.445321488201
 31
0
  0
LINE
  8
1
 62
7
 10
4407.908754700025
 20
-2185.99722148817
 30
0
 11
4407.908754700025
 21
-2099.693421488158
 31
0
  0
LINE
  8
1
 62
7
 10
4407.908754700025
 20
-2199.844321488169
 30
0
 11
4407.908754700025
 21
-2199.245321488131
 31
0
  0
LINE
  8
1
 62
7
 10
4408.107754700025
 20
-2199.095321488169
 30
0
 11
4409.707754700025
 21
-2199.095321488169
 31
0
  0
LINE
  8
1
 62
7
 10
4409.707754700025
 20
-2191.395321488158
 30
0
 11
4408.107754700025
 21
-2191.395321488158
 31
0
  0
LINE
  8
1
 62
7
 10
4408.107754700025
 20
-2094.29532148817
 30
0
 11
4409.707754700025
 21
-2094.29532148817
 31
0
  0
LINE
  8
1
 62
7
 10
4448.207754700025
 20
-2142.845321488169
 30
0
 11
4448.207754700025
 21
-2202.845321488169
 31
0
  0
LINE
  8
1
 62
7
 10
4448.207754700025
 20
-2139.645321488158
 30
0
 11
4448.207754700025
 21
-2146.045321488159
 31
0
  0
LINE
  8
1
 62
7
 10
4474.207754700025
 20
-2245.845321488169
 30
0
 11
4454.207754700025
 21
-2245.845321488169
 31
0
  0
LINE
  8
1
 62
7
 10
4448.207754700025
 20
-2239.845321488169
 30
0
 11
4448.207754700025
 21
-2142.845321488169
 31
0
  0
LINE
  8
1
 62
7
 10
4454.207754700025
 20
-2039.84532148817
 30
0
 11
4474.207754700025
 21
-2039.84532148817
 31
0
  0
LINE
  8
1
 62
7
 10
4448.207754700025
 20
-2142.845321488169
 30
0
 11
4448.207754700025
 21
-2066.445321488161
 31
0
  0
LINE
  8
1
 62
7
 10
4536.907754699995
 20
-2115.345321488169
 30
0
 11
4536.907754699995
 21
-2170.345321488169
 31
0
  0
LINE
  8
1
 62
7
 10
4737.207754700025
 20
-2156.043280459277
 30
0
 11
4734.941088033354
 21
-2156.043280459277
 31
0
  0
LINE
  8
1
 62
7
 10
4737.207754700025
 20
-2152.643280459291
 30
0
 11
4737.207754700025
 21
-2156.043280459277
 31
0
  0
LINE
  8
1
 62
7
 10
4741.207754700025
 20
-2156.043280459277
 30
0
 11
4743.474421366675
 21
-2156.043280459277
 31
0
  0
LINE
  8
1
 62
7
 10
4741.207754700025
 20
-2152.643280459291
 30
0
 11
4741.207754700025
 21
-2156.043280459277
 31
0
  0
LINE
  8
1
 62
7
 10
4732.941088033354
 20
-2154.043280459277
 30
0
 11
4732.941088033354
 21
-2153.200037136167
 31
0
  0
LINE
  8
1
 62
7
 10
4745.474421366675
 20
-2154.043280459277
 30
0
 11
4745.474421366675
 21
-2153.200037136167
 31
0
  0
LINE
  8
1
 62
7
 10
4744.475581576434
 20
-2134.345321488147
 30
0
 11
4733.939927823573
 21
-2134.345321488147
 31
0
  0
LINE
  8
1
 62
7
 10
4730.707754700025
 20
-2137.57749461173
 30
0
 11
4730.707754700025
 21
-2148.113148364558
 31
0
  0
LINE
  8
1
 62
7
 10
4537.307754700015
 20
-2170.345321488169
 30
0
 11
4538.207754700025
 21
-2169.045321488177
 31
0
  0
LINE
  8
1
 62
7
 10
4537.307754700015
 20
-2170.345321488169
 30
0
 11
4532.207754700025
 21
-2170.345321488169
 31
0
  0
LINE
  8
1
 62
7
 10
4596.207754700025
 20
-2152.84532148818
 30
0
 11
4538.207754700025
 21
-2152.84532148818
 31
0
  0
LINE
  8
1
 62
7
 10
4596.207754700025
 20
-2134.34532148818
 30
0
 11
4596.207754700025
 21
-2152.84532148818
 31
0
  0
LINE
  8
1
 62
3
 10
4583.707754700025
 20
-2142.84532148818
 30
0
 11
4571.207754700025
 21
-2148.11314836459
 31
0
  0
LINE
  8
1
 62
3
 10
4583.707754700025
 20
-2142.84532148818
 30
0
 11
4596.207754700025
 21
-2148.11314836459
 31
0
  0
LINE
  8
1
 62
7
 10
4571.207754700025
 20
-2142.84532148818
 30
0
 11
4571.207754700025
 21
-2148.11314836459
 31
0
  0
LINE
  8
1
 62
7
 10
4571.207754700025
 20
-2148.11314836459
 30
0
 11
4596.207754700025
 21
-2148.11314836459
 31
0
  0
LINE
  8
1
 62
7
 10
4538.207754700025
 20
-2116.645321488158
 30
0
 11
4536.907754699995
 21
-2115.345321488169
 31
0
  0
LINE
  8
1
 62
7
 10
4538.207754700025
 20
-2116.645321488158
 30
0
 11
4538.207754700025
 21
-2169.045321488177
 31
0
  0
LINE
  8
1
 62
7
 10
4532.207754700025
 20
-2115.345321488169
 30
0
 11
4536.907754699995
 21
-2115.345321488169
 31
0
  0
LINE
  8
1
 62
7
 10
4532.207754700025
 20
-2049.845321488147
 30
0
 11
4532.207754700025
 21
-2235.84532148818
 31
0
  0
LINE
  8
1
 62
7
 10
4538.207754700025
 20
-2132.84532148818
 30
0
 11
4571.207754700025
 21
-2132.84532148818
 31
0
  0
LINE
  8
1
 62
3
 10
4571.207754700025
 20
-2137.577494611759
 30
0
 11
4583.707754700025
 21
-2142.84532148818
 31
0
  0
LINE
  8
1
 62
3
 10
4596.207754700025
 20
-2137.577494611759
 30
0
 11
4583.707754700025
 21
-2142.84532148818
 31
0
  0
LINE
  8
1
 62
7
 10
4571.207754700025
 20
-2137.577494611759
 30
0
 11
4571.207754700025
 21
-2142.845321488169
 31
0
  0
LINE
  8
1
 62
7
 10
4571.207754700025
 20
-2132.84532148818
 30
0
 11
4571.207754700025
 21
-2134.34532148818
 31
0
  0
LINE
  8
1
 62
7
 10
4596.207754700025
 20
-2134.34532148818
 30
0
 11
4571.207754700025
 21
-2134.34532148818
 31
0
  0
LINE
  8
1
 62
7
 10
4596.207754700025
 20
-2137.577494611759
 30
0
 11
4571.207754700025
 21
-2137.577494611759
 31
0
  0
LINE
  8
1
 62
3
  6
DASHDOT
 10
4401.707754700025
 20
-2142.845321488155
 30
0
 11
4404.707754700025
 21
-2142.845321488155
 31
0
  0
LINE
  8
1
 62
7
 10
4448.207754700025
 20
-2050.64532148815
 30
0
 11
4448.207754700025
 21
-2057.045321488159
 31
0
  0
LINE
  8
1
 62
7
 10
4448.207754700025
 20
-2228.645321488158
 30
0
 11
4448.207754700025
 21
-2235.04532148817
 31
0
  0
LINE
  8
1
 62
7
 10
4408.107754700025
 20
-2087.24532148816
 30
0
 11
4408.107754700025
 21
-2093.64532148815
 31
0
  0
LINE
  8
1
 62
7
 10
4321.707754700016
 20
-2086.845321488169
 30
0
 11
4321.707754700016
 21
-2198.845321488169
 31
0
  0
LINE
  8
1
 62
7
 10
4201.707754700016
 20
-2086.845321488169
 30
0
 11
4201.707754700016
 21
-2164.23902148817
 31
0
  0
LINE
  8
1
 62
7
 10
4205.707754700016
 20
-2082.845321488169
 30
0
 11
4317.707754700016
 21
-2082.845321488169
 31
0
  0
LINE
  8
1
 62
7
 10
4318.838254700016
 20
-2110.098921488169
 30
0
 11
4318.838254700016
 21
-2118.16192148816
 31
0
  0
LINE
  8
1
 62
7
 10
4204.577254700013
 20
-2110.098921488169
 30
0
 11
4204.577254700013
 21
-2110.499421488169
 31
0
  0
LINE
  8
1
 62
7
 10
4311.233654700013
 20
-2191.686921488169
 30
0
 11
4272.324854700023
 21
-2157.86402148817
 31
0
  0
LINE
  8
1
 62
7
 10
4212.181854700016
 20
-2094.00372148817
 30
0
 11
4251.090654700024
 21
-2127.826621488169
 31
0
  0
LINE
  8
1
 62
7
 10
4310.238354700015
 20
-2092.748921488167
 30
0
 11
4271.275204700015
 21
-2126.619021488167
 31
0
  0
LINE
  8
1
 62
3
  6
DASHED
 10
4300.529754700016
 20
-2101.188521488158
 30
0
 11
4296.478854700014
 21
-2104.70992148817
 31
0
  0
LINE
  8
1
 62
7
 10
4272.324854700023
 20
-2127.826621488169
 30
0
 11
4311.322654700013
 21
-2093.92632148816
 31
0
  0
LINE
  8
1
 62
7
 10
4310.489954700014
 20
-2193.92852148817
 30
0
 11
4310.818834708564
 21
-2194.048239498588
 31
0
  0
LINE
  8
1
 62
7
 10
4310.479554700015
 20
-2091.738521488161
 30
0
 11
4310.443354700016
 21
-2091.626321488157
 31
0
  0
LINE
  8
1
 62
7
 10
4312.790954700014
 20
-2094.063121488161
 30
0
 11
4312.910672710445
 21
-2093.734241479618
 31
0
  0
LINE
  8
1
 62
7
 10
4316.157754700024
 20
-2090.75282148817
 30
0
 11
4316.157754700024
 21
-2090.137821488169
 31
0
  0
LINE
  8
1
 62
7
 10
4314.415254700024
 20
-2088.395321488158
 30
0
 11
4313.800254700015
 21
-2088.395321488158
 31
0
  0
LINE
  8
1
 62
7
 10
4312.057754700015
 20
-2090.137821488169
 30
0
 11
4312.057754700015
 21
-2090.75282148817
 31
0
  0
LINE
  8
1
 62
7
 10
4313.800254700015
 20
-2092.495321488171
 30
0
 11
4314.415254700024
 21
-2092.495321488171
 31
0
  0
LINE
  8
1
 62
7
 10
4212.935954700025
 20
-2193.952121488171
 30
0
 11
4212.972154700016
 21
-2194.06432148817
 31
0
  0
LINE
  8
1
 62
7
 10
4210.624554700015
 20
-2191.627521488167
 30
0
 11
4210.504836689584
 21
-2191.95640149671
 31
0
  0
LINE
  8
1
 62
7
 10
4207.257754700005
 20
-2194.937821488179
 30
0
 11
4207.257754700005
 21
-2195.55282148817
 31
0
  0
LINE
  8
1
 62
7
 10
4209.000254700005
 20
-2197.29532148817
 30
0
 11
4209.615254700014
 21
-2197.29532148817
 31
0
  0
LINE
  8
1
 62
7
 10
4211.357754700014
 20
-2195.55282148817
 30
0
 11
4211.357754700014
 21
-2194.937821488179
 31
0
  0
LINE
  8
1
 62
7
 10
4209.615254700014
 20
-2193.195321488179
 30
0
 11
4209.000254700005
 21
-2193.195321488179
 31
0
  0
LINE
  8
1
 62
7
 10
4316.157754700024
 20
-2195.55282148817
 30
0
 11
4316.157754700024
 21
-2194.937821488157
 31
0
  0
LINE
  8
1
 62
7
 10
4314.415254700024
 20
-2193.195321488161
 30
0
 11
4313.800254700015
 21
-2193.195321488161
 31
0
  0
LINE
  8
1
 62
7
 10
4312.057754700015
 20
-2194.937821488157
 30
0
 11
4312.057754700015
 21
-2195.55282148817
 31
0
  0
LINE
  8
1
 62
7
 10
4313.800254700015
 20
-2197.29532148817
 30
0
 11
4314.415254700024
 21
-2197.29532148817
 31
0
  0
LINE
  8
1
 62
7
 10
4212.925554700015
 20
-2091.762121488157
 30
0
 11
4212.596674691476
 21
-2091.64240347774
 31
0
  0
LINE
  8
1
 62
7
 10
4207.257754700005
 20
-2090.137821488169
 30
0
 11
4207.257754700005
 21
-2090.75282148817
 31
0
  0
LINE
  8
1
 62
7
 10
4209.000254700005
 20
-2092.495321488171
 30
0
 11
4209.615254700014
 21
-2092.495321488171
 31
0
  0
LINE
  8
1
 62
7
 10
4211.357754700014
 20
-2090.75282148817
 30
0
 11
4211.357754700014
 21
-2090.137821488169
 31
0
  0
LINE
  8
1
 62
7
 10
4209.615254700014
 20
-2088.395321488158
 30
0
 11
4209.000254700005
 21
-2088.395321488158
 31
0
  0
LINE
  8
1
 62
7
 10
4310.183954700025
 20
-2192.894521488171
 30
0
 11
4271.275204700015
 21
-2159.07162148816
 31
0
  0
LINE
  8
1
 62
7
 10
4251.090654700024
 20
-2157.86402148817
 30
0
 11
4212.092854700016
 21
-2191.76432148816
 31
0
  0
LINE
  8
1
 62
7
 10
4252.140304700025
 20
-2126.619021488167
 30
0
 11
4213.231554700004
 21
-2092.796121488161
 31
0
  0
LINE
  8
1
 62
7
 10
4252.140304700025
 20
-2159.07162148816
 30
0
 11
4213.177154700014
 21
-2192.941721488161
 31
0
  0
LINE
  8
1
 62
7
 10
4474.207754700025
 20
-2039.84532148817
 30
0
 11
4474.207754700025
 21
-2245.845321488169
 31
0
  0
LINE
  8
1
 62
7
 10
4520.207754700025
 20
-2049.845321488147
 30
0
 11
4520.207754700025
 21
-2235.84532148818
 31
0
  0
LINE
  8
1
 62
7
 10
4497.207754700025
 20
-2049.845321488147
 30
0
 11
4497.207754700025
 21
-2235.845321488179
 31
0
  0
LINE
  8
1
 62
3
 10
4488.117754700023
 20
-2037.044626178398
 30
0
 11
4488.117754700023
 21
-2034.044626178398
 31
0
  0
LINE
  8
1
 62
3
 10
4488.897754700021
 20
-2034.044626178398
 30
0
 11
4488.897754700021
 21
-2037.044626178398
 31
0
  0
LINE
  8
1
 62
3
 10
4488.507754700024
 20
-2034.044626178398
 30
0
 11
4488.507754700024
 21
-2037.044626178398
 31
0
  0
LINE
  8
1
 62
7
 10
4489.377754700024
 20
-2037.044626178398
 30
0
 11
4487.637754700025
 21
-2037.044626178398
 31
0
  0
LINE
  8
1
 62
7
 10
4489.377754700024
 20
-2049.845321488147
 30
0
 11
4489.377754700024
 21
-2037.044626178398
 31
0
  0
LINE
  8
1
 62
7
 10
4487.637754700025
 20
-2037.044626178398
 30
0
 11
4487.637754700025
 21
-2049.845321488147
 31
0
  0
LINE
  8
1
 62
3
 10
4795.949880382411
 20
-2045.385076872866
 30
0
 11
4797.449880382411
 21
-2042.787000661516
 31
0
  0
LINE
  8
1
 62
3
 10
4798.125380197363
 20
-2043.177000661525
 30
0
 11
4796.625380197363
 21
-2045.775076872866
 31
0
  0
LINE
  8
1
 62
3
 10
4796.739683704153
 20
-2042.377097399436
 30
0
 11
4795.239683704153
 21
-2044.975173610787
 31
0
  0
LINE
  8
1
 62
3
 10
4794.564183889191
 20
-2044.585173610787
 30
0
 11
4796.064183889191
 21
-2041.987097399437
 31
0
  0
LINE
  8
1
 62
3
 10
4796.287630289881
 20
-2045.580076872877
 30
0
 11
4797.787630289881
 21
-2042.982000661516
 31
0
  0
LINE
  8
1
 62
3
 10
4794.901933796672
 20
-2044.780173610787
 30
0
 11
4796.401933796672
 21
-2042.182097399425
 31
0
  0
LINE
  8
1
 62
7
 10
4787.206499480572
 20
-2063.189056828705
 30
0
 11
4797.101666245867
 21
-2046.050125241836
 31
0
  0
LINE
  8
1
 62
7
 10
4795.594782043282
 20
-2045.180125241837
 30
0
 11
4785.707754700033
 21
-2062.30495893618
 31
0
  0
LINE
  8
1
 62
7
 10
4794.087897840697
 20
-2044.310125241838
 30
0
 11
4784.192731075403
 21
-2061.449056828706
 31
0
  0
LINE
  8
1
 62
7
 10
4794.087897840697
 20
-2044.310125241838
 30
0
 11
4795.594782043282
 21
-2045.180125241837
 31
0
  0
LINE
  8
1
 62
7
 10
4795.594782043282
 20
-2045.180125241837
 30
0
 11
4797.101666245867
 21
-2046.050125241836
 31
0
  0
LINE
  8
1
 62
3
 10
4203.465629017629
 20
-2042.787000661538
 30
0
 11
4204.965629017629
 21
-2045.385076872887
 31
0
  0
LINE
  8
1
 62
3
 10
4204.290129202677
 20
-2045.775076872888
 30
0
 11
4202.790129202677
 21
-2043.177000661547
 31
0
  0
LINE
  8
1
 62
3
 10
4205.675825695887
 20
-2044.975173610808
 30
0
 11
4204.175825695887
 21
-2042.377097399457
 31
0
  0
LINE
  8
1
 62
3
 10
4204.851325510849
 20
-2041.987097399459
 30
0
 11
4206.351325510849
 21
-2044.585173610808
 31
0
  0
LINE
  8
1
 62
3
 10
4203.127879110159
 20
-2042.982000661537
 30
0
 11
4204.627879110159
 21
-2045.580076872898
 31
0
  0
LINE
  8
1
 62
3
 10
4204.513575603367
 20
-2042.182097399447
 30
0
 11
4206.013575603367
 21
-2044.780173610809
 31
0
  0
LINE
  8
1
 62
7
 10
4203.813843154167
 20
-2046.050125241851
 30
0
 11
4208.70821956548
 21
-2054.527433857616
 31
0
  0
LINE
  8
1
 62
7
 10
4210.207754700019
 20
-2053.644704898371
 30
0
 11
4205.320727356759
 21
-2045.180125241858
 31
0
  0
LINE
  8
1
 62
7
 10
4211.72198797065
 20
-2052.787433857616
 30
0
 11
4206.827611559347
 21
-2044.310125241867
 31
0
  0
LINE
  8
1
 62
7
 10
4205.320727356759
 20
-2045.180125241858
 30
0
 11
4206.827611559347
 21
-2044.310125241867
 31
0
  0
LINE
  8
1
 62
7
 10
4203.813843154167
 20
-2046.050125241851
 30
0
 11
4205.320727356759
 21
-2045.180125241858
 31
0
  0
LINE
  8
1
 62
7
 10
4448.207754700025
 20
-2112.475733569248
 30
0
 11
4448.207754700025
 21
-2083.345321488169
 31
0
  0
LINE
  8
1
 62
7
 10
4444.207754700025
 20
-2202.345321488169
 30
0
 11
4448.207754700025
 21
-2202.345321488169
 31
0
  0
LINE
  8
1
 62
7
 10
4409.707754700025
 20
-2083.345321488169
 30
0
 11
4409.707754700025
 21
-2202.345321488169
 31
0
  0
LINE
  8
1
 62
7
 10
4413.707754700025
 20
-2083.345321488169
 30
0
 11
4409.707754700025
 21
-2083.345321488169
 31
0
  0
LINE
  8
1
 62
7
 10
4444.207754700025
 20
-2094.408506976887
 30
0
 11
4444.207754700025
 21
-2083.345321488169
 31
0
  0
LINE
  8
1
 62
7
 10
4413.707754700025
 20
-2202.345321488169
 30
0
 11
4444.207754700025
 21
-2202.345321488169
 31
0
  0
LINE
  8
1
 62
7
 10
4448.207754700025
 20
-2083.345321488169
 30
0
 11
4444.207754700025
 21
-2083.345321488169
 31
0
  0
LINE
  8
1
 62
7
 10
4413.707754700025
 20
-2115.71190113612
 30
0
 11
4413.707754700025
 21
-2202.345321488169
 31
0
  0
LINE
  8
1
 62
7
 10
4444.207754700025
 20
-2083.345321488169
 30
0
 11
4413.707754700025
 21
-2083.345321488169
 31
0
  0
LINE
  8
1
 62
7
 10
4409.707754700025
 20
-2202.345321488169
 30
0
 11
4413.707754700025
 21
-2202.345321488169
 31
0
  0
LINE
  8
1
 62
7
 10
4413.707754700025
 20
-2094.408506976887
 30
0
 11
4444.207754700025
 21
-2094.408506976887
 31
0
  0
LINE
  8
1
 62
7
 10
4444.207754700025
 20
-2095.53021296118
 30
0
 11
4444.207754700025
 21
-2094.408506976887
 31
0
  0
LINE
  8
1
 62
7
 10
4413.707754700025
 20
-2083.345321488169
 30
0
 11
4413.707754700025
 21
-2094.408506976887
 31
0
  0
LINE
  8
1
 62
7
 10
4431.257766824955
 20
-2102.52250207134
 30
0
 11
4432.462780103805
 21
-2102.52250207134
 31
0
  0
LINE
  8
1
 62
7
 10
4432.712780103794
 20
-2102.455514773227
 30
0
 11
4443.957754700025
 21
-2095.963225663068
 31
0
  0
LINE
  8
1
 62
7
 10
4444.207754700025
 20
-2115.711901136127
 30
0
 11
4444.207754700025
 21
-2095.53021296118
 31
0
  0
LINE
  8
1
 62
7
 10
4413.903373985505
 20
-2096.53399012464
 30
0
 11
4421.573101114945
 21
-2102.419178741478
 31
0
  0
LINE
  8
1
 62
7
 10
4413.707754700025
 20
-2094.408506976887
 30
0
 11
4413.707754700025
 21
-2096.13731345448
 31
0
  0
LINE
  8
1
 62
7
 10
4432.596754700034
 20
-2112.695321488161
 30
0
 11
4432.596754700034
 21
-2102.504218593337
 31
0
  0
LINE
  8
1
 62
7
 10
4432.696754700025
 20
-2137.845321488169
 30
0
 11
4432.844152541985
 21
-2137.845321488169
 31
0
  0
LINE
  8
1
 62
7
 10
4444.207754700025
 20
-2202.345321488169
 30
0
 11
4444.207754700025
 21
-2115.71190113612
 31
0
  0
LINE
  8
1
 62
7
 10
4413.707754700025
 20
-2096.13731345448
 30
0
 11
4413.707754700025
 21
-2115.71190113612
 31
0
  0
LINE
  8
1
 62
7
 10
4421.607754700003
 20
-2137.845321488169
 30
0
 11
4421.547570473865
 21
-2137.845321488169
 31
0
  0
LINE
  8
1
 62
7
 10
4421.707754700025
 20
-2102.492813352869
 30
0
 11
4421.707754700025
 21
-2137.745321488171
 31
0
  0
LINE
  8
1
 62
7
 10
4444.207754700025
 20
-2191.282135999441
 30
0
 11
4413.707754700025
 21
-2191.282135999441
 31
0
  0
LINE
  8
1
 62
7
 10
4444.207754700025
 20
-2191.282135999441
 30
0
 11
4444.207754700025
 21
-2190.160430015148
 31
0
  0
LINE
  8
1
 62
7
 10
4432.462780103805
 20
-2183.168140904999
 30
0
 11
4421.877481829445
 21
-2183.168140904999
 31
0
  0
LINE
  8
1
 62
7
 10
4443.957754700025
 20
-2189.72741731326
 30
0
 11
4432.712780103794
 21
-2183.2351282031
 31
0
  0
LINE
  8
1
 62
7
 10
4444.207754700025
 20
-2190.160430015148
 30
0
 11
4444.207754700025
 21
-2169.9787418402
 31
0
  0
LINE
  8
1
 62
7
 10
4421.573101114945
 20
-2183.27146423485
 30
0
 11
4413.903373985505
 21
-2189.15665285171
 31
0
  0
LINE
  8
1
 62
7
 10
4413.707754700025
 20
-2189.55332952184
 30
0
 11
4413.707754700025
 21
-2191.282135999441
 31
0
  0
LINE
  8
1
 62
7
 10
4432.596754700034
 20
-2183.186424382991
 30
0
 11
4432.596754700034
 21
-2147.945321488161
 31
0
  0
LINE
  8
1
 62
7
 10
4432.844152541985
 20
-2147.845321488169
 30
0
 11
4432.696754700025
 21
-2147.845321488169
 31
0
  0
LINE
  8
1
 62
7
 10
4413.707754700025
 20
-2169.9787418402
 30
0
 11
4413.707754700025
 21
-2189.55332952184
 31
0
  0
LINE
  8
1
 62
7
 10
4421.547570473865
 20
-2147.845321488169
 30
0
 11
4421.607754700003
 21
-2147.845321488169
 31
0
  0
LINE
  8
1
 62
7
 10
4421.707754700025
 20
-2147.945321488161
 30
0
 11
4421.707754700025
 21
-2183.197829623469
 31
0
  0
LINE
  8
1
 62
7
 10
4448.207754700025
 20
-2202.345321488169
 30
0
 11
4448.207754700025
 21
-2112.475733569248
 31
0
  0
LINE
  8
1
 62
7
 10
4421.877481829445
 20
-2102.52250207134
 30
0
 11
4431.257766824955
 21
-2102.52250207134
 31
0
  0
LINE
  8
1
 62
7
 10
4432.596754700034
 20
-2137.745321488171
 30
0
 11
4432.596754700034
 21
-2112.695321488161
 31
0
  0
LINE
  8
1
 62
3
  6
DASHDOT
 10
4596.207754700025
 20
-2142.845321488156
 30
0
 11
4599.207754700025
 21
-2142.845321488156
 31
0
  0
LINE
  8
1
 62
3
  6
DASHDOT
 10
4739.207754700025
 20
-2059.845321488137
 30
0
 11
4739.207754700025
 21
-2077.845321488147
 31
0
  0
LINE
  8
1
 62
7
 10
4741.707754700025
 20
-2067.401945815167
 30
0
 11
4739.207754700025
 21
-2065.958570142197
 31
0
  0
LINE
  8
1
 62
7
 10
4741.707754700025
 20
-2070.288697161119
 30
0
 11
4741.707754700025
 21
-2067.401945815167
 31
0
  0
LINE
  8
1
 62
7
 10
4739.207754700025
 20
-2071.732072834088
 30
0
 11
4741.707754700025
 21
-2070.288697161119
 31
0
  0
LINE
  8
1
 62
7
 10
4736.707754700025
 20
-2070.288697161119
 30
0
 11
4739.207754700025
 21
-2071.732072834088
 31
0
  0
LINE
  8
1
 62
7
 10
4736.707754700025
 20
-2067.401945815167
 30
0
 11
4736.707754700025
 21
-2070.288697161119
 31
0
  0
LINE
  8
1
 62
7
 10
4739.207754700025
 20
-2065.958570142197
 30
0
 11
4736.707754700025
 21
-2067.401945815167
 31
0
  0
LINE
  8
1
 62
3
  6
DASHDOT
 10
4730.207754700025
 20
-2068.845321488147
 30
0
 11
4748.207754700025
 21
-2068.845321488147
 31
0
  0
LINE
  8
1
 62
3
  6
DASHDOT
 10
4739.207754700025
 20
-2099.845321488147
 30
0
 11
4739.207754700025
 21
-2107.845321488137
 31
0
  0
LINE
  8
1
 62
3
  6
DASHDOT
 10
4735.207754700025
 20
-2103.845321488147
 30
0
 11
4743.207754700013
 21
-2103.845321488147
 31
0
  0
LINE
  8
1
 62
3
  6
DASHDOT
 10
4822.207754700025
 20
-2142.845321488137
 30
0
 11
4804.207754700025
 21
-2142.845321488137
 31
0
  0
LINE
  8
1
 62
7
 10
4814.651130373001
 20
-2145.345321488147
 30
0
 11
4816.094506045972
 21
-2142.845321488147
 31
0
  0
LINE
  8
1
 62
7
 10
4811.764379027053
 20
-2145.345321488147
 30
0
 11
4814.651130373001
 21
-2145.345321488147
 31
0
  0
LINE
  8
1
 62
7
 10
4810.321003354072
 20
-2142.845321488137
 30
0
 11
4811.764379027053
 21
-2145.345321488147
 31
0
  0
LINE
  8
1
 62
7
 10
4811.764379027042
 20
-2140.345321488147
 30
0
 11
4810.321003354072
 21
-2142.845321488137
 31
0
  0
LINE
  8
1
 62
7
 10
4814.65113037299
 20
-2140.345321488147
 30
0
 11
4811.764379027042
 21
-2140.345321488147
 31
0
  0
LINE
  8
1
 62
7
 10
4816.094506045972
 20
-2142.845321488147
 30
0
 11
4814.65113037299
 21
-2140.345321488147
 31
0
  0
LINE
  8
1
 62
3
  6
DASHDOT
 10
4813.207754700025
 20
-2133.845321488137
 30
0
 11
4813.207754700025
 21
-2151.845321488147
 31
0
  0
LINE
  8
1
 62
3
  6
DASHDOT
 10
4776.446847062753
 20
-2164.345321488148
 30
0
 11
4769.518643832487
 21
-2160.345321488154
 31
0
  0
LINE
  8
1
 62
3
  6
DASHDOT
 10
4774.982745447615
 20
-2158.88121987301
 30
0
 11
4770.982745447621
 21
-2165.809423103277
 31
0
  0
LINE
  8
1
 62
3
  6
DASHDOT
 10
4776.446847062754
 20
-2121.345321488148
 30
0
 11
4769.518643832488
 21
-2125.345321488143
 31
0
  0
LINE
  8
1
 62
3
  6
DASHDOT
 10
4770.982745447616
 20
-2119.881219873011
 30
0
 11
4774.982745447611
 21
-2126.809423103277
 31
0
  0
LINE
  8
1
 62
7
 10
4736.707754700025
 20
-2218.288697161118
 30
0
 11
4739.207754700025
 21
-2219.732072834088
 31
0
  0
LINE
  8
1
 62
7
 10
4736.707754700025
 20
-2215.401945815167
 30
0
 11
4736.707754700025
 21
-2218.288697161118
 31
0
  0
LINE
  8
1
 62
7
 10
4739.207754700025
 20
-2213.958570142196
 30
0
 11
4736.707754700025
 21
-2215.401945815167
 31
0
  0
LINE
  8
1
 62
7
 10
4741.707754700025
 20
-2215.401945815167
 30
0
 11
4739.207754700025
 21
-2213.958570142196
 31
0
  0
LINE
  8
1
 62
7
 10
4741.707754700025
 20
-2218.288697161118
 30
0
 11
4741.707754700025
 21
-2215.401945815167
 31
0
  0
LINE
  8
1
 62
7
 10
4739.207754700025
 20
-2219.732072834088
 30
0
 11
4741.707754700025
 21
-2218.288697161118
 31
0
  0
LINE
  8
1
 62
3
  6
DASHDOT
 10
4739.207754700025
 20
-2207.845321488137
 30
0
 11
4739.207754700025
 21
-2225.845321488147
 31
0
  0
LINE
  8
1
 62
3
  6
DASHDOT
 10
4748.207754700025
 20
-2216.845321488137
 30
0
 11
4730.207754700025
 21
-2216.845321488137
 31
0
  0
LINE
  8
1
 62
3
  6
DASHDOT
 10
4739.207754700023
 20
-2185.845321488147
 30
0
 11
4739.207754700023
 21
-2177.845321488158
 31
0
  0
LINE
  8
1
 62
3
  6
DASHDOT
 10
4743.207754700023
 20
-2181.845321488147
 30
0
 11
4735.207754700034
 21
-2181.845321488147
 31
0
  0
LINE
  8
1
 62
3
  6
DASHDOT
 10
4656.207754700025
 20
-2142.845321488147
 30
0
 11
4674.207754700025
 21
-2142.845321488147
 31
0
  0
LINE
  8
1
 62
7
 10
4663.764379027053
 20
-2140.345321488147
 30
0
 11
4662.321003354072
 21
-2142.845321488137
 31
0
  0
LINE
  8
1
 62
7
 10
4666.65113037299
 20
-2140.345321488147
 30
0
 11
4663.764379027053
 21
-2140.345321488147
 31
0
  0
LINE
  8
1
 62
7
 10
4668.094506045972
 20
-2142.845321488137
 30
0
 11
4666.65113037299
 21
-2140.345321488147
 31
0
  0
LINE
  8
1
 62
7
 10
4666.651130373001
 20
-2145.345321488147
 30
0
 11
4668.094506045972
 21
-2142.845321488137
 31
0
  0
LINE
  8
1
 62
7
 10
4663.764379027053
 20
-2145.345321488137
 30
0
 11
4666.651130373001
 21
-2145.345321488147
 31
0
  0
LINE
  8
1
 62
7
 10
4662.321003354072
 20
-2142.845321488137
 30
0
 11
4663.764379027053
 21
-2145.345321488137
 31
0
  0
LINE
  8
1
 62
3
  6
DASHDOT
 10
4665.207754700025
 20
-2133.845321488137
 30
0
 11
4665.207754700025
 21
-2151.845321488147
 31
0
  0
LINE
  8
1
 62
3
  6
DASHDOT
 10
4703.432763952431
 20
-2126.809423103285
 30
0
 11
4707.432763952425
 21
-2119.881219873019
 31
0
  0
LINE
  8
1
 62
3
  6
DASHDOT
 10
4707.432763952431
 20
-2165.809423103285
 30
0
 11
4703.432763952436
 21
-2158.881219873018
 31
0
  0
LINE
  8
1
 62
3
  6
DASHDOT
 10
4739.207754700025
 20
-2144.345321488107
 30
0
 11
4739.207754700025
 21
-2141.345321488107
 31
0
  0
LINE
  8
1
 62
3
  6
DASHDOT
 10
4740.707754700025
 20
-2142.845321488107
 30
0
 11
4737.707754700025
 21
-2142.845321488107
 31
0
  0
LINE
  8
1
 62
3
  6
DASHDOT
 10
4261.707754700016
 20
-2144.345321488129
 30
0
 11
4261.707754700016
 21
-2141.345321488129
 31
0
  0
LINE
  8
1
 62
3
  6
DASHDOT
 10
4263.207754700016
 20
-2142.845321488129
 30
0
 11
4260.207754700016
 21
-2142.845321488129
 31
0
  0
LINE
  8
1
 62
3
  6
DASHDOT
 10
4261.707754700016
 20
-2049.345321488169
 30
0
 11
4261.707754700016
 21
-2058.345321488169
 31
0
  0
LINE
  8
1
 62
3
  6
DASHDOT
 10
4257.207754700016
 20
-2053.845321488169
 30
0
 11
4266.207754700016
 21
-2053.845321488169
 31
0
  0
LINE
  8
1
 62
3
  6
DASHDOT
 10
4261.707754700035
 20
-2227.345321488169
 30
0
 11
4261.707754700035
 21
-2236.345321488169
 31
0
  0
LINE
  8
1
 62
3
  6
DASHDOT
 10
4257.207754700035
 20
-2231.845321488169
 30
0
 11
4266.207754700035
 21
-2231.845321488169
 31
0
  0
LINE
  8
1
 62
3
  6
DASHDOT
 10
4350.707754700035
 20
-2138.345321488169
 30
0
 11
4350.707754700035
 21
-2147.345321488169
 31
0
  0
LINE
  8
1
 62
3
  6
DASHDOT
 10
4346.207754700035
 20
-2142.845321488169
 30
0
 11
4355.207754700035
 21
-2142.845321488169
 31
0
  0
LINE
  8
1
 62
3
  6
DASHDOT
 10
4172.707754699998
 20
-2147.345321488169
 30
0
 11
4172.707754699998
 21
-2138.345321488169
 31
0
  0
LINE
  8
1
 62
3
  6
DASHDOT
 10
4168.207754699998
 20
-2142.845321488169
 30
0
 11
4177.207754699998
 21
-2142.845321488169
 31
0
  0
LINE
  8
1
 62
3
  6
DASHDOT
 10
4314.107754700014
 20
-2085.595310012856
 30
0
 11
4314.107754700014
 21
-2095.295332963465
 31
0
  0
LINE
  8
1
 62
3
  6
DASHDOT
 10
4309.25774322471
 20
-2090.445321488161
 30
0
 11
4318.957766175318
 21
-2090.445321488161
 31
0
  0
LINE
  8
1
 62
3
  6
DASHDOT
 10
4209.307754700015
 20
-2085.595310012856
 30
0
 11
4209.307754700015
 21
-2095.295332963465
 31
0
  0
LINE
  8
1
 62
3
  6
DASHDOT
 10
4204.457743224711
 20
-2090.445321488161
 30
0
 11
4214.157766175319
 21
-2090.445321488161
 31
0
  0
LINE
  8
1
 62
3
  6
DASHDOT
 10
4318.957766175318
 20
-2195.245321488098
 30
0
 11
4309.25774322471
 21
-2195.245321488098
 31
0
  0
LINE
  8
1
 62
3
  6
DASHDOT
 10
4314.107754700014
 20
-2190.395310012793
 30
0
 11
4314.107754700014
 21
-2200.095332963403
 31
0
  0
LINE
  8
1
 62
3
  6
DASHDOT
 10
4214.157766175319
 20
-2195.245321488098
 30
0
 11
4204.457743224711
 21
-2195.245321488098
 31
0
  0
LINE
  8
1
 62
3
  6
DASHDOT
 10
4209.307754700015
 20
-2190.395310012793
 30
0
 11
4209.307754700015
 21
-2200.095332963403
 31
0
  0
LINE
  8
1
 62
3
 10
4419.317754700022
 20
-2070.544626178419
 30
0
 11
4419.317754700022
 21
-2067.544626178419
 31
0
  0
LINE
  8
1
 62
3
 10
4420.097754700021
 20
-2067.544626178419
 30
0
 11
4420.097754700021
 21
-2070.544626178419
 31
0
  0
LINE
  8
1
 62
3
 10
4419.707754700025
 20
-2067.544626178419
 30
0
 11
4419.707754700025
 21
-2070.544626178419
 31
0
  0
LINE
  8
1
 62
7
 10
4420.577754700023
 20
-2070.544626178419
 30
0
 11
4418.837754700025
 21
-2070.544626178419
 31
0
  0
LINE
  8
1
 62
7
 10
4420.577754700023
 20
-2083.345321488169
 30
0
 11
4420.577754700023
 21
-2070.544626178419
 31
0
  0
LINE
  8
1
 62
7
 10
4418.837754700025
 20
-2070.544626178419
 30
0
 11
4418.837754700025
 21
-2083.345321488169
 31
0
  0
LINE
  8
1
 62
3
 10
4867.227433188691
 20
-2069.406552869586
 30
0
 11
4869.825509400042
 21
-2067.906552869589
 31
0
  0
LINE
  8
1
 62
3
 10
4870.215509400038
 20
-2068.582052684549
 30
0
 11
4867.617433188691
 21
-2070.082052684538
 31
0
  0
LINE
  8
1
 62
3
 10
4869.415412666028
 20
-2067.196467892405
 30
0
 11
4866.817336454676
 21
-2068.696467892403
 31
0
  0
LINE
  8
1
 62
3
 10
4866.427336454667
 20
-2068.020968077446
 30
0
 11
4869.025412666019
 21
-2066.520968077449
 31
0
  0
LINE
  8
1
 62
3
 10
4867.422433188681
 20
-2069.744302777069
 30
0
 11
4870.020509400039
 21
-2068.244302777062
 31
0
  0
LINE
  8
1
 62
3
 10
4866.622336454672
 20
-2068.358717984925
 30
0
 11
4869.220412666029
 21
-2066.858717984917
 31
0
  0
LINE
  8
1
 62
7
 10
4829.265642330578
 20
-2092.859554758758
 30
0
 11
4867.89238482168
 21
-2070.558394583589
 31
0
  0
LINE
  8
1
 62
7
 10
4867.022384821677
 20
-2069.051510381004
 30
0
 11
4828.408371289823
 21
-2091.345321488127
 31
0
  0
LINE
  8
1
 62
7
 10
4866.152384821677
 20
-2067.544626178419
 30
0
 11
4827.525642330577
 21
-2089.845786353588
 31
0
  0
LINE
  8
1
 62
7
 10
4866.152384821677
 20
-2067.544626178419
 30
0
 11
4867.022384821677
 21
-2069.051510381004
 31
0
  0
LINE
  8
1
 62
7
 10
4867.022384821677
 20
-2069.051510381004
 30
0
 11
4867.89238482168
 21
-2070.558394583589
 31
0
  0
LINE
  8
1
 62
3
 10
4131.089999999996
 20
-2067.906552869611
 30
0
 11
4133.688076211347
 21
-2069.406552869607
 31
0
  0
LINE
  8
1
 62
3
 10
4133.298076211347
 20
-2070.08205268456
 30
0
 11
4130.7
 21
-2068.582052684571
 31
0
  0
LINE
  8
1
 62
3
 10
4134.098172945362
 20
-2068.696467892425
 30
0
 11
4131.50009673401
 21
-2067.196467892427
 31
0
  0
LINE
  8
1
 62
3
 10
4131.890096734019
 20
-2066.520968077471
 30
0
 11
4134.488172945371
 21
-2068.020968077468
 31
0
  0
LINE
  8
1
 62
3
 10
4130.895
 20
-2068.244302777084
 30
0
 11
4133.493076211357
 21
-2069.744302777091
 31
0
  0
LINE
  8
1
 62
3
 10
4131.695096734009
 20
-2066.858717984939
 30
0
 11
4134.293172945366
 21
-2068.358717984947
 31
0
  0
LINE
  8
1
 62
7
 10
4133.023124578358
 20
-2070.558394583611
 30
0
 11
4201.707754700016
 21
-2110.213484273563
 31
0
  0
LINE
  8
1
 62
7
 10
4201.707754700016
 20
-2108.204305336784
 30
0
 11
4133.893124578361
 21
-2069.051510381026
 31
0
  0
LINE
  8
1
 62
7
 10
4201.707754700016
 20
-2106.195126400004
 30
0
 11
4134.763124578361
 21
-2067.544626178441
 31
0
  0
LINE
  8
1
 62
7
 10
4133.893124578361
 20
-2069.051510381026
 30
0
 11
4134.763124578361
 21
-2067.544626178441
 31
0
  0
LINE
  8
1
 62
7
 10
4133.023124578358
 20
-2070.558394583611
 30
0
 11
4133.893124578361
 21
-2069.051510381026
 31
0
  0
ARC
  8
1
 62
7
 10
4413.707754700025
 20
-2090.445321488161
 30
0
 40
9.000000000009374
 50
163.3984504010468
 51
196.6015495989227
  0
ARC
  8
1
 62
7
 10
4452.807754700015
 20
-2142.845321488049
 30
0
 40
8.999999999988791
 50
163.3984504019321
 51
196.6015496000362
  0
ARC
  8
1
 62
7
 10
4348.657754700024
 20
-2144.895321488158
 30
0
 40
1.742500000000291
 50
0
 51
90
  0
ARC
  8
1
 62
7
 10
4348.657754700024
 20
-2140.795321488159
 30
0
 40
1.74250000001075
 50
270
 51
0
  0
ARC
  8
1
 62
7
 10
4352.757754700005
 20
-2140.795321488159
 30
0
 40
1.742499999989377
 50
180
 51
270
  0
ARC
  8
1
 62
7
 10
4352.757754700005
 20
-2144.895321488158
 30
0
 40
1.742499999978918
 50
90
 51
180
  0
ARC
  8
1
 62
7
 10
4259.657754700024
 20
-2229.795321488177
 30
0
 40
1.742499999993015
 50
270
 51
0
  0
ARC
  8
1
 62
7
 10
4263.757754700027
 20
-2229.795321488177
 30
0
 40
1.742500000012115
 50
180
 51
270
  0
ARC
  8
1
 62
7
 10
4263.757754700027
 20
-2233.895321488158
 30
0
 40
1.742499999978918
 50
90
 51
180
  0
ARC
  8
1
 62
7
 10
4259.657754700024
 20
-2233.895321488158
 30
0
 40
1.742500000000291
 50
0
 51
90
  0
ARC
  8
1
 62
7
 10
4174.757754700005
 20
-2140.79532148817
 30
0
 40
1.742499999989377
 50
180
 51
270
  0
ARC
  8
1
 62
7
 10
4174.757754700005
 20
-2144.895321488179
 30
0
 40
1.742499999999836
 50
90
 51
180
  0
ARC
  8
1
 62
7
 10
4170.657754700024
 20
-2144.895321488179
 30
0
 40
1.742500000000291
 50
0
 51
90
  0
ARC
  8
1
 62
7
 10
4170.657754700024
 20
-2140.79532148817
 30
0
 40
1.742499999999836
 50
270
 51
0
  0
ARC
  8
1
 62
7
 10
4263.757754700016
 20
-2055.895321488158
 30
0
 40
1.742500000001201
 50
90
 51
180
  0
ARC
  8
1
 62
7
 10
4259.657754700024
 20
-2055.895321488158
 30
0
 40
1.742500000000291
 50
0
 51
90
  0
ARC
  8
1
 62
7
 10
4259.657754700024
 20
-2051.79532148817
 30
0
 40
1.742499999999836
 50
270
 51
0
  0
ARC
  8
1
 62
7
 10
4263.757754700016
 20
-2051.79532148817
 30
0
 40
1.742500000001201
 50
180
 51
270
  0
ARC
  8
1
 62
7
 10
4261.707754700016
 20
-2142.845321488169
 30
0
 40
65.84998666065745
 50
135.1954879152768
 51
150.1792710508029
  0
ARC
  8
1
 62
7
 10
4261.707754700016
 20
-2142.845321488169
 30
0
 40
65.84998666066466
 50
46.20099892768329
 51
60.17927105079495
  0
ARC
  8
1
 62
7
 10
4261.707754700016
 20
-2142.845321488169
 30
0
 40
65.84998666065482
 50
226.2009935138272
 51
240.1792710508025
  0
ARC
  8
1
 62
7
 10
4261.707754700016
 20
-2142.845321488169
 30
0
 40
65.84998666066652
 50
315.1954879152913
 51
330.1792710508013
  0
ARC
  8
1
 62
7
 10
4205.707754700016
 20
-2198.845321488169
 30
0
 40
4
 50
180
 51
270
  0
ARC
  8
1
 62
7
 10
4317.707754700016
 20
-2198.845321488169
 30
0
 40
4
 50
270
 51
0
  0
ARC
  8
1
 62
7
 10
4205.707754700016
 20
-2086.845321488169
 30
0
 40
4
 50
90
 51
180
  0
ARC
  8
1
 62
7
 10
4317.707754700016
 20
-2086.845321488169
 30
0
 40
4
 50
0
 51
90
  0
ARC
  8
1
 62
7
 10
4452.807754700015
 20
-2053.845321488147
 30
0
 40
8.999999999996783
 50
163.3984504010319
 51
196.6015495989764
  0
ARC
  8
1
 62
7
 10
4452.807754700015
 20
-2231.84532148818
 30
0
 40
9.00000000000003
 50
163.3984504009626
 51
196.6015495989681
  0
ARC
  8
1
 62
7
 10
4413.708754700006
 20
-2195.245321488171
 30
0
 40
8.999999999993058
 50
163.3984504009493
 51
196.6015495989563
  0
ARC
  8
1
 62
7
 10
4405.386404700025
 20
-2184.94682148817
 30
0
 40
0.727222427392261
 50
223.0792846867388
 51
231.274983947413
  0
ARC
  8
1
 62
7
 10
4405.264874700025
 20
-2185.05092148817
 30
0
 40
0.5674395646943735
 50
206.8287646987006
 51
223.7831904452418
  0
ARC
  8
1
 62
7
 10
4405.153084700015
 20
-2185.100521488169
 30
0
 40
0.4453300112171825
 50
180.0128659149818
 51
207.625515437145
  0
ARC
  8
1
 62
7
 10
4409.006449700025
 20
-2187.636021488171
 30
0
 40
0.7583899253615631
 50
43.09090095931479
 51
57.0473920534
  0
ARC
  8
1
 62
7
 10
4409.150630700025
 20
-2187.51062148817
 30
0
 40
0.5674390293078788
 50
26.82879204130501
 51
43.78985110152
  0
ARC
  8
1
 62
7
 10
4409.262421700013
 20
-2187.46092148817
 30
0
 40
0.4453330112399503
 50
0.01286582825097616
 51
27.61421076524369
  0
ARC
  8
1
 62
7
 10
4406.654974700015
 20
-2183.42752148817
 30
0
 40
0.3482200000007651
 50
180
 51
186.1490417800752
  0
ARC
  8
1
 62
7
 10
4405.151444700024
 20
-2099.383621488169
 30
0
 40
0.4436876856538143
 50
164.3217409893292
 51
179.8450387260203
  0
ARC
  8
1
 62
7
 10
4405.239564700024
 20
-2099.416521488161
 30
0
 40
0.5374830307951672
 50
144.1611947991038
 51
163.4835249456294
  0
ARC
  8
1
 62
7
 10
4405.388844700044
 20
-2099.53562148816
 30
0
 40
0.728273263564119
 50
128.9092296751242
 51
143.4416433161981
  0
ARC
  8
1
 62
7
 10
4405.386404700025
 20
-2186.154421488161
 30
0
 40
0.7272224273913291
 50
223.0792846866603
 51
231.2700550789589
  0
ARC
  8
1
 62
7
 10
4405.264874700025
 20
-2186.258421488167
 30
0
 40
0.5674395646960155
 50
206.8287646990285
 51
223.790479940799
  0
ARC
  8
1
 62
7
 10
4405.153084700015
 20
-2186.308021488169
 30
0
 40
0.4453300449000636
 50
180.0257318273789
 51
207.6255154372487
  0
ARC
  8
1
 62
7
 10
4406.654224700033
 20
-2102.263121488158
 30
0
 40
0.3474777847758136
 50
173.8377115214798
 51
180
  0
ARC
  8
1
 62
7
 10
4409.243441700034
 20
-2098.22492148817
 30
0
 40
0.464331548954296
 50
335.5481512118219
 51
359.395367138431
  0
ARC
  8
1
 62
7
 10
4409.123483700024
 20
-2098.161621488161
 30
0
 40
0.5998015696996739
 50
318.2239859426975
 51
334.7869137790453
  0
ARC
  8
1
 62
7
 10
4408.964949700044
 20
-2098.006221488157
 30
0
 40
0.8216439747085564
 50
303.5451104582429
 51
317.5076690036684
  0
ARC
  8
1
 62
7
 10
4405.151444700024
 20
-2100.59122148816
 30
0
 40
0.4437147196112469
 50
164.3093086654644
 51
179.8450387254918
  0
ARC
  8
1
 62
7
 10
4405.239564700024
 20
-2100.624121488169
 30
0
 40
0.5374830307994274
 50
144.1611947984751
 51
163.47330521439
  0
ARC
  8
1
 62
7
 10
4405.388844700044
 20
-2100.743221488169
 30
0
 40
0.7283510804765283
 50
128.9042888136054
 51
143.4416433156521
  0
ARC
  8
1
 62
7
 10
4407.107754700025
 20
-2199.844321488169
 30
0
 40
0.8010000000103901
 50
180
 51
0
  0
ARC
  8
1
 62
7
 10
4407.107754700025
 20
-2085.84632148817
 30
0
 40
0.8010000000003856
 50
0
 51
180
  0
ARC
  8
1
 62
7
 10
4739.207754700025
 20
-2142.845321488107
 30
0
 40
92.99999999994807
 50
74.08727299193164
 51
76.53656471902197
  0
ARC
  8
1
 62
7
 10
4739.207754699994
 20
-2142.845321488107
 30
0
 40
92.9999999999649
 50
315.3656471940651
 51
317.8149389211721
  0
ARC
  8
1
 62
7
 10
4739.207754700025
 20
-2142.102821488147
 30
0
 40
11.45749999998358
 50
309.8633768731401
 51
230.1366231267063
  0
ARC
  8
1
 62
7
 10
4739.207754700025
 20
-2142.845321488147
 30
0
 40
10
 50
0
 51
180
  0
ARC
  8
1
 62
7
 10
4739.207754700025
 20
-2142.845321488147
 30
0
 40
10
 50
270
 51
0
  0
ARC
  8
1
 62
7
 10
4739.207754700025
 20
-2142.845321488147
 30
0
 40
10
 50
180
 51
270
  0
ARC
  8
1
 62
7
 10
4261.707754700016
 20
-2142.845321488169
 30
0
 40
57.80003963060395
 50
134.6646694288084
 51
171.2706515743468
  0
ARC
  8
1
 62
7
 10
4261.707754700016
 20
-2142.845321488169
 30
0
 40
57.79994421744596
 50
46.92780574195929
 51
81.2712675745602
  0
ARC
  8
1
 62
7
 10
4261.707754700016
 20
-2142.845321488169
 30
0
 40
57.8000396306145
 50
314.6646694288183
 51
351.2706515743271
  0
ARC
  8
1
 62
7
 10
4261.707754700016
 20
-2142.845321488169
 30
0
 40
57.79994421744878
 50
226.927805741957
 51
261.2712675745561
  0
ARC
  8
1
 62
7
 10
4238.035054700024
 20
-2142.845321488169
 30
0
 40
21.50002068027443
 50
310.9998845673294
 51
49.00011543268885
  0
ARC
  8
1
 62
7
 10
4285.380454700015
 20
-2142.845321488169
 30
0
 40
19.90000103140175
 50
131.000094025108
 51
228.9999059748946
  0
ARC
  8
1
 62
7
 10
4311.889754700013
 20
-2190.93222148816
 30
0
 40
1.000019649813873
 50
228.9978682722425
 51
297.490088266498
  0
ARC
  8
1
 62
7
 10
4314.107754700014
 20
-2195.245321488171
 30
0
 40
3.849992088303879
 50
159.999601629392
 51
117.1427549461199
  0
ARC
  8
1
 62
7
 10
4309.527754700016
 20
-2092.04532148817
 30
0
 40
1.000002659994014
 50
315.2836000433482
 51
17.8660321357758
  0
ARC
  8
1
 62
7
 10
4314.107754700014
 20
-2090.445321488161
 30
0
 40
3.849992088303724
 50
249.9996016293983
 51
197.8636195289113
  0
ARC
  8
1
 62
7
 10
4238.035054700024
 20
-2142.845321488169
 30
0
 40
19.90000103140755
 50
311.0000940251213
 51
48.99990597487618
  0
ARC
  8
1
 62
7
 10
4285.380454700015
 20
-2142.845321488169
 30
0
 40
21.50002068028233
 50
130.9998845673111
 51
229.0001154326706
  0
ARC
  8
1
 62
7
 10
4261.707754700016
 20
-2142.845321488169
 30
0
 40
52.3520316826373
 50
227.5472165068595
 51
312.4527834931405
  0
ARC
  8
1
 62
7
 10
4261.707754700016
 20
-2142.845321488169
 30
0
 40
52.35198850215833
 50
134.2125508068837
 51
225.7874491931084
  0
ARC
  8
1
 62
7
 10
4261.707754700016
 20
-2142.845321488169
 30
0
 40
52.35203168264435
 50
47.54721650686655
 51
132.4527834931334
  0
ARC
  8
1
 62
7
 10
4261.707754700016
 20
-2142.845321488169
 30
0
 40
52.35198850216097
 50
314.2125508069031
 51
45.78744919310493
  0
ARC
  8
1
 62
7
 10
4261.707754700016
 20
-2142.845321488169
 30
0
 40
50.75000706758929
 50
47.75491130269598
 51
132.2450886972918
  0
ARC
  8
1
 62
7
 10
4261.707754700016
 20
-2142.845321488169
 30
0
 40
50.74999900541302
 50
134.0610655259775
 51
225.9389344740229
  0
ARC
  8
1
 62
7
 10
4261.707754700016
 20
-2142.845321488169
 30
0
 40
50.75000706758085
 50
227.7549113027095
 51
312.2450886973027
  0
ARC
  8
1
 62
7
 10
4261.707754700016
 20
-2142.845321488169
 30
0
 40
50.74999900541904
 50
314.0610655259837
 51
45.93893447401585
  0
ARC
  8
1
 62
7
 10
4261.707754700016
 20
-2142.845321488169
 30
0
 40
45.10206033264474
 50
228.6054659877072
 51
311.3945340123075
  0
ARC
  8
1
 62
7
 10
4261.707754700016
 20
-2142.845321488169
 30
0
 40
45.10204269530782
 50
133.4406640186533
 51
226.5593359813478
  0
ARC
  8
1
 62
7
 10
4261.707754700016
 20
-2142.845321488169
 30
0
 40
45.10206033265393
 50
48.60546598769128
 51
131.394534012294
  0
ARC
  8
1
 62
7
 10
4261.707754700016
 20
-2142.845321488169
 30
0
 40
45.10204269531381
 50
313.4406640186588
 51
46.55933598133995
  0
ARC
  8
1
 62
7
 10
4261.707754700016
 20
-2142.845321488169
 30
0
 40
43.50003150918843
 50
48.88731594415989
 51
131.1126840558437
  0
ARC
  8
1
 62
7
 10
4261.707754700016
 20
-2142.845321488169
 30
0
 40
43.49999166126464
 50
133.2352558936907
 51
226.764744106311
  0
ARC
  8
1
 62
7
 10
4261.707754700016
 20
-2142.845321488169
 30
0
 40
43.50003150918294
 50
228.8873159441472
 51
311.1126840558492
  0
ARC
  8
1
 62
7
 10
4261.707754700016
 20
-2142.845321488169
 30
0
 40
43.49999166126348
 50
313.2352558936856
 51
46.76474410631278
  0
ARC
  8
1
 62
7
 10
4261.707754700016
 20
-2142.845321488169
 30
0
 40
38.35200493650831
 50
229.9541422235573
 51
310.0458577764437
  0
ARC
  8
1
 62
7
 10
4261.707754700016
 20
-2142.845321488169
 30
0
 40
38.35202644060394
 50
132.458366318969
 51
227.5416336810213
  0
ARC
  8
1
 62
7
 10
4261.707754700016
 20
-2142.845321488169
 30
0
 40
38.35200493650785
 50
49.954142223555
 51
130.045857776444
  0
ARC
  8
1
 62
7
 10
4261.707754700016
 20
-2142.845321488169
 30
0
 40
38.35202644059445
 50
312.4583663189746
 51
47.541633681035
  0
ARC
  8
1
 62
7
 10
4261.707754700016
 20
-2142.845321488169
 30
0
 40
36.74999435387456
 50
50.34803540383379
 51
129.6519645961706
  0
ARC
  8
1
 62
7
 10
4261.707754700016
 20
-2142.845321488169
 30
0
 40
36.74996890040202
 50
132.1717824907273
 51
227.828217509267
  0
ARC
  8
1
 62
7
 10
4261.707754700016
 20
-2142.845321488169
 30
0
 40
36.74999435386952
 50
230.3480354038199
 51
309.6519645961757
  0
ARC
  8
1
 62
7
 10
4261.707754700016
 20
-2142.845321488169
 30
0
 40
36.74996890039554
 50
312.1717824907288
 51
47.82821750927693
  0
ARC
  8
1
 62
7
 10
4261.707754700016
 20
-2142.845321488169
 30
0
 40
31.85198373993676
 50
231.8014515526685
 51
308.1985484473431
  0
ARC
  8
1
 62
7
 10
4261.707754700016
 20
-2142.845321488169
 30
0
 40
31.85196718070329
 50
131.1155303638195
 51
228.8844696361691
  0
ARC
  8
1
 62
7
 10
4261.707754700016
 20
-2142.845321488169
 30
0
 40
31.85198373995004
 50
51.80145155266856
 51
128.1985484473199
  0
ARC
  8
1
 62
7
 10
4261.707754700016
 20
-2142.845321488169
 30
0
 40
31.85196718069371
 50
311.1155303638259
 51
48.88446963618537
  0
ARC
  8
1
 62
7
 10
4261.707754700016
 20
-2142.845321488169
 30
0
 40
30.24994531234734
 50
52.38101073773652
 51
127.6189892622689
  0
ARC
  8
1
 62
7
 10
4261.707754700016
 20
-2142.845321488169
 30
0
 40
30.24995165350918
 50
130.6951404305634
 51
229.3048595694371
  0
ARC
  8
1
 62
7
 10
4261.707754700016
 20
-2142.845321488169
 30
0
 40
30.249945312342
 50
232.38101073772
 51
307.6189892622745
  0
ARC
  8
1
 62
7
 10
4261.707754700016
 20
-2142.845321488169
 30
0
 40
30.24995165351427
 50
310.6951404305734
 51
49.3048595694261
  0
ARC
  8
1
 62
7
 10
4261.707754700016
 20
-2142.845321488169
 30
0
 40
24.60195673721839
 50
235.0420743092909
 51
304.9579256907229
  0
ARC
  8
1
 62
7
 10
4261.707754700016
 20
-2142.845321488169
 30
0
 40
24.601988988286
 50
128.7701228968327
 51
231.229877103168
  0
ARC
  8
1
 62
7
 10
4261.707754700016
 20
-2142.845321488169
 30
0
 40
24.60195673723113
 50
55.04207430929101
 51
124.9579256906951
  0
ARC
  8
1
 62
7
 10
4261.707754700016
 20
-2142.845321488169
 30
0
 40
24.60198898829546
 50
308.7701228968585
 51
51.22987710314085
  0
ARC
  8
1
 62
7
 10
4261.707754700016
 20
-2142.845321488169
 30
0
 40
23.0000066967441
 50
56.04247930863137
 51
123.9575206913762
  0
ARC
  8
1
 62
7
 10
4261.707754700016
 20
-2142.845321488169
 30
0
 40
22.99997036737281
 50
128.0490298928145
 51
231.9509701071695
  0
ARC
  8
1
 62
7
 10
4261.707754700016
 20
-2142.845321488169
 30
0
 40
23.00000669673143
 50
236.0424793085992
 51
303.9575206913933
  0
ARC
  8
1
 62
7
 10
4261.707754700016
 20
-2142.845321488169
 30
0
 40
22.99997036736514
 50
308.0490298928323
 51
51.9509701071838
  0
ARC
  8
1
 62
7
 10
4261.707754700016
 20
-2142.845321488169
 30
0
 40
17.60198860789595
 50
240.6890044785023
 51
299.31099552149
  0
ARC
  8
1
 62
7
 10
4261.707754700016
 20
-2142.845321488169
 30
0
 40
17.60200314083481
 50
124.6827396424737
 51
235.3172603575086
  0
ARC
  8
1
 62
7
 10
4261.707754700016
 20
-2142.845321488169
 30
0
 40
17.60198860789422
 50
60.68900447850925
 51
119.3109955214985
  0
ARC
  8
1
 62
7
 10
4261.707754700016
 20
-2142.845321488169
 30
0
 40
17.60200314082541
 50
304.6827396424841
 51
55.31726035753361
  0
ARC
  8
1
 62
7
 10
4261.707754700016
 20
-2142.845321488169
 30
0
 40
15.99995860140318
 50
62.12745940614272
 51
117.8725405938688
  0
ARC
  8
1
 62
7
 10
4261.707754700016
 20
-2142.845321488169
 30
0
 40
16.00002832327104
 50
123.7070311280774
 51
236.2929688719235
  0
ARC
  8
1
 62
7
 10
4261.707754700016
 20
-2142.845321488169
 30
0
 40
15.99995860139524
 50
242.1274594061129
 51
297.8725405938755
  0
ARC
  8
1
 62
7
 10
4261.707754700016
 20
-2142.845321488169
 30
0
 40
16.00002832327949
 50
303.7070311281199
 51
56.29296887187925
  0
ARC
  8
1
 62
7
 10
4261.707754700016
 20
-2142.845321488169
 30
0
 40
57.79994421743559
 50
278.7287324254413
 51
313.0721942580404
  0
ARC
  8
1
 62
7
 10
4261.707754700016
 20
-2142.845321488169
 30
0
 40
57.80003963061038
 50
188.3078370547972
 51
225.3353305711919
  0
ARC
  8
1
 62
7
 10
4261.707754700016
 20
-2142.845321488169
 30
0
 40
57.79994421744544
 50
98.72873242544249
 51
133.0721942580433
  0
ARC
  8
1
 62
7
 10
4261.707754700016
 20
-2142.845321488169
 30
0
 40
57.80003963061157
 50
8.729348425682241
 51
45.33533057118132
  0
ARC
  8
1
 62
7
 10
4261.707754700016
 20
-2142.845321488169
 30
0
 40
56.19797954990289
 50
47.09740772787716
 51
132.9025922721174
  0
ARC
  8
1
 62
7
 10
4261.707754700016
 20
-2142.845321488169
 30
0
 40
56.19805532160347
 50
134.540841905955
 51
225.4591580940375
  0
ARC
  8
1
 62
7
 10
4261.707754700016
 20
-2142.845321488169
 30
0
 40
56.19797954989394
 50
227.0974077278788
 51
312.9025922721266
  0
ARC
  8
1
 62
7
 10
4261.707754700016
 20
-2142.845321488169
 30
0
 40
56.19805532160111
 50
314.5408419059678
 51
45.4591580940397
  0
ARC
  8
1
 62
7
 10
4261.707754700016
 20
-2142.845321488169
 30
0
 40
10.10199595153281
 50
245.2553020776476
 51
294.7446979223899
  0
ARC
  8
1
 62
7
 10
4261.707754700016
 20
-2142.845321488169
 30
0
 40
10.10200252973232
 50
123.8534608106864
 51
236.1465391892791
  0
ARC
  8
1
 62
7
 10
4261.707754700016
 20
-2142.845321488169
 30
0
 40
10.10199595154081
 50
65.25530207762307
 51
114.7446979223394
  0
ARC
  8
1
 62
7
 10
4261.707754700016
 20
-2142.845321488169
 30
0
 40
10.10200252972731
 50
303.8534608107551
 51
56.14653918927937
  0
ARC
  8
1
 62
7
 10
4261.707754700016
 20
-2142.845321488169
 30
0
 40
8.499996890791101
 50
64.94959235371179
 51
115.0504076462438
  0
ARC
  8
1
 62
7
 10
4261.707754700016
 20
-2142.845321488169
 30
0
 40
8.500001684109542
 50
126.0161186599141
 51
233.983881340048
  0
ARC
  8
1
 62
7
 10
4261.707754700016
 20
-2142.845321488169
 30
0
 40
8.499996890789255
 50
244.9495923537601
 51
295.0504076462843
  0
ARC
  8
1
 62
7
 10
4261.707754700016
 20
-2142.845321488169
 30
0
 40
8.500001684099676
 50
306.0161186599321
 51
53.98388134010577
  0
ARC
  8
1
 62
7
 10
4316.157754700024
 20
-2092.495321488171
 30
0
 40
1.742500000001201
 50
90
 51
180
  0
ARC
  8
1
 62
7
 10
4316.157754700024
 20
-2088.395321488158
 30
0
 40
1.742500000000291
 50
180
 51
270
  0
ARC
  8
1
 62
7
 10
4312.057754700015
 20
-2088.395321488158
 30
0
 40
1.74250000001075
 50
270
 51
0
  0
ARC
  8
1
 62
7
 10
4312.057754700015
 20
-2092.495321488171
 30
0
 40
1.742500000000291
 50
0
 51
90
  0
ARC
  8
1
 62
7
 10
4309.527754700016
 20
-2092.04532148817
 30
0
 40
2.599966732470162
 50
313.6582157423316
 51
334.9285169287682
  0
ARC
  8
1
 62
7
 10
4213.887754700013
 20
-2193.645321488158
 30
0
 40
1.000002659993368
 50
135.2836000433115
 51
197.8660321361908
  0
ARC
  8
1
 62
7
 10
4209.307754700015
 20
-2195.245321488171
 30
0
 40
3.84999208830757
 50
69.99960162941913
 51
17.86361952896557
  0
ARC
  8
1
 62
7
 10
4207.257754700005
 20
-2193.195321488179
 30
0
 40
1.742499999999836
 50
270
 51
0
  0
ARC
  8
1
 62
7
 10
4207.257754700005
 20
-2197.29532148817
 30
0
 40
1.742500000000291
 50
0
 51
90
  0
ARC
  8
1
 62
7
 10
4211.357754700014
 20
-2197.29532148817
 30
0
 40
1.742499999999836
 50
90
 51
180
  0
ARC
  8
1
 62
7
 10
4211.357754700014
 20
-2193.195321488179
 30
0
 40
1.742500000000291
 50
180
 51
270
  0
ARC
  8
1
 62
7
 10
4213.887754700013
 20
-2193.645321488158
 30
0
 40
2.599966732476084
 50
133.6582157422071
 51
154.9285169287682
  0
ARC
  8
1
 62
7
 10
4316.157754700024
 20
-2197.29532148817
 30
0
 40
1.742499999999836
 50
90
 51
180
  0
ARC
  8
1
 62
7
 10
4316.157754700024
 20
-2193.195321488161
 30
0
 40
1.742500000000291
 50
180
 51
270
  0
ARC
  8
1
 62
7
 10
4312.057754700015
 20
-2193.195321488161
 30
0
 40
1.742499999996198
 50
270
 51
0
  0
ARC
  8
1
 62
7
 10
4312.057754700015
 20
-2197.29532148817
 30
0
 40
1.742500000000291
 50
0
 51
90
  0
ARC
  8
1
 62
7
 10
4311.889754700013
 20
-2190.93222148816
 30
0
 40
2.600072100923764
 50
229.0000227118678
 51
252.8580174013645
  0
ARC
  8
1
 62
7
 10
4211.525754700016
 20
-2094.758421488167
 30
0
 40
1.00001964980495
 50
48.99786827179806
 51
117.4900882655615
  0
ARC
  8
1
 62
7
 10
4209.307754700015
 20
-2090.445321488161
 30
0
 40
3.849992088302169
 50
339.9996016294619
 51
297.1427549463978
  0
ARC
  8
1
 62
7
 10
4207.257754700005
 20
-2088.395321488158
 30
0
 40
1.74250000001075
 50
270
 51
0
  0
ARC
  8
1
 62
7
 10
4207.257754700005
 20
-2092.495321488171
 30
0
 40
1.742500000000291
 50
0
 51
90
  0
ARC
  8
1
 62
7
 10
4211.357754700014
 20
-2092.495321488171
 30
0
 40
1.742500000001201
 50
90
 51
180
  0
ARC
  8
1
 62
7
 10
4211.357754700014
 20
-2088.395321488158
 30
0
 40
1.742500000000291
 50
180
 51
270
  0
ARC
  8
1
 62
7
 10
4211.525754700016
 20
-2094.758421488167
 30
0
 40
2.600072100920586
 50
49.00002271178039
 51
72.85801740121111
  0
ARC
  8
1
 62
7
 10
4261.707754700016
 20
-2142.845321488169
 30
0
 40
65.84998666066622
 50
29.82072894919868
 51
44.80453248934852
  0
ARC
  8
1
 62
7
 10
4261.707754700016
 20
-2142.845321488169
 30
0
 40
65.84998666066161
 50
299.8207289492092
 51
313.7989466813255
  0
ARC
  8
1
 62
7
 10
4261.707754700016
 20
-2142.845321488169
 30
0
 40
65.84998666066221
 50
119.8207289491934
 51
133.7989466813275
  0
ARC
  8
1
 62
7
 10
4261.707754700016
 20
-2142.845321488169
 30
0
 40
65.84998666066939
 50
209.8207289491971
 51
224.8045324893435
  0
ARC
  8
1
 62
7
 10
4739.207754700025
 20
-2142.845321488147
 30
0
 40
103
 50
0
 51
58.99866356016156
  0
ARC
  8
1
 62
7
 10
4739.207754700025
 20
-2142.845321488147
 30
0
 40
102.9999999999839
 50
61.00133643982964
 51
0
  0
ARC
  8
1
 62
7
 10
4739.207754700025
 20
-2142.845321488147
 30
0
 40
101
 50
0
 51
58.9788330364382
  0
ARC
  8
1
 62
7
 10
4739.207754700025
 20
-2142.845321488147
 30
0
 40
101.0000000000026
 50
61.02116696355608
 51
0
  0
ARC
  8
1
 62
7
 10
4470.105919328374
 20
-2142.84532148814
 30
0
 40
37.50916462834707
 50
133.6656603986326
 51
172.2063802544325
  0
ARC
  8
1
 62
7
 10
4371.693848449705
 20
-2142.845321488209
 30
0
 40
50.01390625030474
 50
5.84099806815817
 51
32.85518229736018
  0
ARC
  8
1
 62
7
 10
4470.105919328374
 20
-2142.84532148818
 30
0
 40
37.50916462835571
 50
187.7936197455792
 51
226.3343396013675
  0
ARC
  8
1
 62
7
 10
4371.693848449705
 20
-2142.845321488129
 30
0
 40
50.01390625029114
 50
327.1448177026564
 51
354.1590019318543
  0
ARC
  8
1
 62
7
 10
4421.877481829445
 20
-2102.02250207134
 30
0
 40
0.4999999999914284
 50
232.4999999998127
 51
250.1563719333482
  0
ARC
  8
1
 62
7
 10
4432.462780103805
 20
-2102.02250207134
 30
0
 40
0.5
 50
270
 51
285.5422682249503
  0
ARC
  8
1
 62
7
 10
4414.207754700025
 20
-2096.13731345448
 30
0
 40
0.5
 50
180
 51
232.4999999995163
  0
ARC
  8
1
 62
7
 10
4443.707754700025
 20
-2095.53021296118
 30
0
 40
0.4999999999962997
 50
300.0000000002448
 51
0
  0
ARC
  8
1
 62
7
 10
4432.462780103794
 20
-2102.02250207134
 30
0
 40
0.5000000000024285
 50
285.5422682261552
 51
300.0000000002969
  0
ARC
  8
1
 62
7
 10
4421.877481829445
 20
-2102.02250207134
 30
0
 40
0.4999999999941869
 50
250.1563719333482
 51
270
  0
ARC
  8
1
 62
7
 10
4432.844152541985
 20
-2137.745321488171
 30
0
 40
0.09999999999763531
 50
270
 51
352.2063802642293
  0
ARC
  8
1
 62
7
 10
4432.696754700025
 20
-2137.745321488171
 30
0
 40
0.09999999999126885
 50
180
 51
270
  0
ARC
  8
1
 62
7
 10
4421.607754700003
 20
-2137.745321488171
 30
0
 40
0.09999999999763531
 50
270
 51
0
  0
ARC
  8
1
 62
7
 10
4421.547570473865
 20
-2137.745321488171
 30
0
 40
0.09999999998237248
 50
185.8409980659988
 51
270
  0
ARC
  8
1
 62
7
 10
4421.877481829445
 20
-2183.668140904999
 30
0
 40
0.4999999999954702
 50
109.8436280665987
 51
127.499999999426
  0
ARC
  8
1
 62
7
 10
4432.462780103805
 20
-2183.668140904999
 30
0
 40
0.500000000010019
 50
74.45773177538487
 51
90
  0
ARC
  8
1
 62
7
 10
4414.207754700025
 20
-2189.55332952184
 30
0
 40
0.4999999999974759
 50
127.5000000025457
 51
180
  0
ARC
  8
1
 62
7
 10
4443.707754700025
 20
-2190.160430015148
 30
0
 40
0.5
 50
0
 51
59.9999999997552
  0
ARC
  8
1
 62
7
 10
4432.462780103805
 20
-2183.668140904999
 30
0
 40
0.5000000000002945
 50
60.00000000146361
 51
74.45773177538487
  0
ARC
  8
1
 62
7
 10
4421.877481829445
 20
-2183.668140904999
 30
0
 40
0.5
 50
90
 51
109.8436280665987
  0
ARC
  8
1
 62
7
 10
4432.844152541985
 20
-2147.945321488161
 30
0
 40
0.1000000000035479
 50
7.793619738094011
 51
90
  0
ARC
  8
1
 62
7
 10
4432.696754700025
 20
-2147.945321488161
 30
0
 40
0.09999999999217835
 50
90
 51
180
  0
ARC
  8
1
 62
7
 10
4421.607754700003
 20
-2147.945321488161
 30
0
 40
0.1000000000221917
 50
0
 51
90
  0
ARC
  8
1
 62
7
 10
4421.547570473865
 20
-2147.945321488161
 30
0
 40
0.09999999999217835
 50
90
 51
174.1590019308908
  0
ARC
  8
1
 62
7
 10
4261.707754700016
 20
-2142.845321488169
 30
0
 40
102.9999999999997
 50
150.9679553279293
 51
0
  0
ARC
  8
1
 62
7
 10
4261.707754700016
 20
-2142.845321488169
 30
0
 40
103
 50
0
 51
149.032044672053
  0
CIRCLE
  8
1
 62
7
 10
4350.707754700035
 20
-2142.845321488169
 30
0
 40
3.5
  0
CIRCLE
  8
1
 62
7
 10
4261.707754700035
 20
-2231.845321488169
 30
0
 40
3.5
  0
CIRCLE
  8
1
 62
7
 10
4172.707754700016
 20
-2142.845321488169
 30
0
 40
3.5
  0
CIRCLE
  8
1
 62
7
 10
4261.707754700016
 20
-2053.845321488169
 30
0
 40
3.5
  0
CIRCLE
  8
1
 62
7
 10
4735.074421366663
 20
-2154.34328045928
 30
0
 40
1
  0
CIRCLE
  8
1
 62
7
 10
4743.341088033333
 20
-2154.34328045928
 30
0
 40
1
  0
CIRCLE
  8
1
 62
7
 10
4739.207754700025
 20
-2142.845321488147
 30
0
 40
27.5
  0
CIRCLE
  8
1
 62
7
 10
4739.207754700025
 20
-2142.845321488147
 30
0
 40
21
  0
CIRCLE
  8
1
 62
7
 10
4739.207754700025
 20
-2142.845321488147
 30
0
 40
93
  0
CIRCLE
  8
1
 62
7
 10
4314.107754700014
 20
-2090.445321488161
 30
0
 40
3.5
  0
CIRCLE
  8
1
 62
7
 10
4209.307754700015
 20
-2195.245321488171
 30
0
 40
3.5
  0
CIRCLE
  8
1
 62
7
 10
4314.107754700014
 20
-2195.245321488171
 30
0
 40
3.5
  0
CIRCLE
  8
1
 62
7
 10
4209.307754700015
 20
-2090.445321488161
 30
0
 40
3.5
  0
CIRCLE
  8
1
 62
7
 10
4739.207754700025
 20
-2068.845321488137
 30
0
 40
5
  0
CIRCLE
  8
1
 62
7
 10
4739.207754700025
 20
-2068.845321488137
 30
0
 40
6.099999999996726
  0
CIRCLE
  8
1
 62
7
 10
4739.207754700025
 20
-2068.845321488137
 30
0
 40
6.999999999987267
  0
CIRCLE
  8
1
 62
7
 10
4739.207754700025
 20
-2103.845321488147
 30
0
 40
2.399999999995998
  0
CIRCLE
  8
1
 62
3
 10
4739.207754700025
 20
-2103.845321488147
 30
0
 40
3
  0
CIRCLE
  8
1
 62
7
 10
4813.207754700025
 20
-2142.845321488137
 30
0
 40
5
  0
CIRCLE
  8
1
 62
7
 10
4813.207754700025
 20
-2142.845321488137
 30
0
 40
6.100000000003092
  0
CIRCLE
  8
1
 62
7
 10
4813.207754700025
 20
-2142.845321488137
 30
0
 40
7.000000000010004
  0
CIRCLE
  8
1
 62
7
 10
4772.982745447615
 20
-2162.345321488148
 30
0
 40
2.399999999997131
  0
CIRCLE
  8
1
 62
3
 10
4772.982745447615
 20
-2162.345321488148
 30
0
 40
3.00000000000064
  0
CIRCLE
  8
1
 62
7
 10
4772.982745447616
 20
-2123.345321488148
 30
0
 40
2.399999999998312
  0
CIRCLE
  8
1
 62
3
 10
4772.982745447616
 20
-2123.345321488148
 30
0
 40
3.00000000000064
  0
CIRCLE
  8
1
 62
7
 10
4739.207754700025
 20
-2216.845321488137
 30
0
 40
5
  0
CIRCLE
  8
1
 62
7
 10
4739.207754700025
 20
-2216.845321488137
 30
0
 40
6.100000000004002
  0
CIRCLE
  8
1
 62
7
 10
4739.207754700025
 20
-2216.845321488137
 30
0
 40
7.000000000012733
  0
CIRCLE
  8
1
 62
7
 10
4739.207754700025
 20
-2181.845321488147
 30
0
 40
2.400000000000546
  0
CIRCLE
  8
1
 62
3
 10
4739.207754700025
 20
-2181.845321488147
 30
0
 40
3.000000000002729
  0
CIRCLE
  8
1
 62
7
 10
4665.207754700025
 20
-2142.845321488137
 30
0
 40
4.999999999989996
  0
CIRCLE
  8
1
 62
7
 10
4665.207754700025
 20
-2142.845321488137
 30
0
 40
6.099999999987176
  0
CIRCLE
  8
1
 62
7
 10
4665.207754700025
 20
-2142.845321488137
 30
0
 40
7
  0
CIRCLE
  8
1
 62
7
 10
4705.432763952431
 20
-2123.345321488147
 30
0
 40
2.399999999997131
  0
CIRCLE
  8
1
 62
3
 10
4705.432763952431
 20
-2123.345321488147
 30
0
 40
2.999999999999853
  0
CIRCLE
  8
1
 62
7
 10
4705.432763952431
 20
-2162.345321488147
 30
0
 40
2.399999999997919
  0
CIRCLE
  8
1
 62
3
 10
4705.432763952431
 20
-2162.345321488147
 30
0
 40
3.00000000000064
  0
ARC
  8
1
 62
7
 10
4407.007754700034
 20
-2093.645321488158
 30
0
 40
0.3000000000029104
 50
270
 51
0
  0
ARC
  8
1
 62
7
 10
4407.007754700034
 20
-2087.24532148816
 30
0
 40
0.2999999999810825
 50
0
 51
90
  0
ARC
  8
1
 62
7
 10
4406.328730374266
 20
-2092.645321488158
 30
0
 40
1.299999999999469
 50
196.6015495985904
 51
270
  0
ARC
  8
1
 62
7
 10
4406.328730374266
 20
-2088.24532148816
 30
0
 40
1.299999999998818
 50
90
 51
163.3984504013712
  0
ARC
  8
1
 62
7
 10
4446.107754700065
 20
-2146.04532148817
 30
0
 40
0.2999999999988177
 50
270
 51
2.084408316048986e-009
  0
ARC
  8
1
 62
7
 10
4446.107754699974
 20
-2139.645321488158
 30
0
 40
0.3000000000101863
 50
0
 51
90
  0
ARC
  8
1
 62
7
 10
4445.428730374305
 20
-2145.045321488177
 30
0
 40
1.299999999998755
 50
196.6015496001683
 51
270.0000000012827
  0
ARC
  8
1
 62
7
 10
4445.428730374225
 20
-2140.645321488179
 30
0
 40
1.299999999998818
 50
90
 51
163.3984504015795
  0
ARC
  8
1
 62
7
 10
4446.107754700003
 20
-2050.64532148815
 30
0
 40
0.3000000000101863
 50
0
 51
90
  0
ARC
  8
1
 62
7
 10
4446.107754700003
 20
-2057.045321488159
 30
0
 40
0.2999999999879037
 50
270
 51
0
  0
ARC
  8
1
 62
7
 10
4445.428730374265
 20
-2051.64532148815
 30
0
 40
1.30000000000291
 50
90
 51
163.3984504012101
  0
ARC
  8
1
 62
7
 10
4445.428730374265
 20
-2056.045321488159
 30
0
 40
1.299999999993124
 50
196.6015495982137
 51
270
  0
ARC
  8
1
 62
7
 10
4446.107754700003
 20
-2235.045321488177
 30
0
 40
0.3000000000033651
 50
270
 51
0
  0
ARC
  8
1
 62
7
 10
4446.107754700003
 20
-2228.645321488179
 30
0
 40
0.3000000000101863
 50
0
 51
90
  0
ARC
  8
1
 62
7
 10
4445.428730374265
 20
-2234.045321488177
 30
0
 40
1.299999999997152
 50
196.6015495988091
 51
270
  0
ARC
  8
1
 62
7
 10
4445.428730374265
 20
-2229.645321488179
 30
0
 40
1.299999999998818
 50
90
 51
163.3984504009029
  0
ARC
  8
1
 62
7
 10
4407.007754700034
 20
-2198.445321488161
 30
0
 40
0.3000000000101863
 50
270
 51
0
  0
ARC
  8
1
 62
7
 10
4407.007754700034
 20
-2192.04532148817
 30
0
 40
0.2999999999810825
 50
0
 51
90
  0
ARC
  8
1
 62
7
 10
4406.329730374274
 20
-2197.445321488161
 30
0
 40
1.300000000008391
 50
196.6015495987869
 51
270
  0
ARC
  8
1
 62
7
 10
4406.328730374266
 20
-2193.04532148817
 30
0
 40
1.299999999998818
 50
90
 51
163.3984504009486
  0
ARC
  8
1
 62
7
 10
4454.207754700025
 20
-2239.845321488169
 30
0
 40
6
 50
180
 51
270
  0
ARC
  8
1
 62
7
 10
4454.207754700025
 20
-2045.84532148817
 30
0
 40
6
 50
90
 51
180
  0
ARC
  8
1
 62
7
 10
4729.941088033354
 20
-2153.200037136167
 30
0
 40
3
 50
0
 51
50.13662312686728
  0
ARC
  8
1
 62
7
 10
4748.474421366675
 20
-2153.200037136167
 30
0
 40
2.999999999997669
 50
129.8633768734127
 51
180
  0
ARC
  8
1
 62
7
 10
4734.941088033354
 20
-2154.043280459277
 30
0
 40
2
 50
180
 51
270
  0
ARC
  8
1
 62
7
 10
4743.474421366675
 20
-2154.043280459277
 30
0
 40
2
 50
270
 51
0
  0
TEXT
  8
1
 62
7
 10
4129.60754900031
 20
-2029.75721191552
 30
0
 40
5.999999999999999
  1
OPB 250F
 41
0.9
  7
SIMPLEX
 72
1
 73
2
 11
4151.20754900031
 21
-2026.75721191552
 31
0
  0
ENDSEC
  0
EOF
