  0
SECTION
  2
HEADER
  9
$ACADVER
  1
AC1009
  9
$INSBASE
 10
0
 20
0
  9
$EXTMIN
 10
3972.619676324794
 20
-1022.952786961571
  9
$EXTMAX
 10
4538.619676324866
 20
-789.440461499839
  9
$LIMMIN
 10
3972.619676324794
 20
-1022.952786961571
  9
$LIMMAX
 10
4538.619676324866
 20
-789.440461499839
  9
$VIEWCTR
 10
10
 20
10
  9
$VIEWSIZE
 40
10
  9
$SNAPMODE
 70
0
  9
$SNAPUNIT
 10
1
 20
1
  9
$SNAPBASE
 10
0
 20
0
  9
$SNAPANG
 50
0
  9
$SNAPSTYLE
 70
0
  9
$SNAPISOPAIR
 70
0
  9
$GRIDMODE
 70
0
  9
$GRIDUNIT
 10
0
 20
0
  9
$ORTHOMODE
 70
0
  9
$REGENMODE
 70
1
  9
$FILLMODE
 70
1
  9
$QTEXTMODE
 70
0
  9
$DRAGMODE
 70
2
  9
$LTSCALE
 40
1
  9
$OSMODE
 70
0
  9
$ATTMODE
 70
1
  9
$TEXTSIZE
 40
3.5
  9
$TRACEWID
 40
0.5
  9
$TEXTSTYLE
  7
STANDARD
  9
$CLAYER
  8
0
  9
$CELTYPE
  6
BYLAYER
  9
$CECOLOR
 62
256
  9
$DIMSCALE
 40
1
  9
$DIMASZ
 40
0.18
  9
$DIMEXO
 40
0.0625
  9
$DIMDLI
 40
0.38
  9
$DIMRND
 40
0
  9
$DIMDLE
 40
0
  9
$DIMEXE
 40
0.18
  9
$DIMTP
 40
0
  9
$DIMTM
 40
0
  9
$DIMTXT
 40
0.18
  9
$DIMCEN
 40
0.09
  9
$DIMTSZ
 40
0
  9
$DIMTOL
 70
0
  9
$DIMLIM
 70
0
  9
$DIMTIH
 70
1
  9
$DIMTOH
 70
1
  9
$DIMSE1
 70
0
  9
$DIMSE2
 70
0
  9
$DIMTAD
 70
0
  9
$DIMZIN
 70
0
  9
$DIMBLK
  1

  9
$DIMASO
 70
1
  9
$DIMSHO
 70
1
  9
$DIMPOST
  1

  9
$DIMAPOST
  1

  9
$DIMALT
 70
0
  9
$DIMALTD
 70
2
  9
$DIMALTF
 40
25.4
  9
$DIMLFAC
 40
1
  9
$DIMTOFL
 70
0
  9
$DIMTVP
 40
0
  9
$DIMTIX
 70
0
  9
$DIMSOXD
 70
0
  9
$DIMSAH
 70
0
  9
$DIMBLK1
  1

  9
$DIMBLK2
  1

  9
$DIMSTYLE
  2
*UNNAMED
  9
$DIMCLRD
 70
0
  9
$DIMCLRE
 70
0
  9
$DIMCLRT
 70
0
  9
$DIMTFAC
 40
1
  9
$DIMGAP
 40
0.09
  9
$LUNITS
 70
2
  9
$LUPREC
 70
4
  9
$AXISMODE
 70
0
  9
$AXISUNIT
 10
0
 20
0
  9
$SKETCHINC
 40
0.1
  9
$FILLETRAD
 40
2
  9
$AUNITS
 70
0
  9
$AUPREC
 70
0
  9
$MENU
  1
ACAD
  9
$ELEVATION
 40
0
  9
$THICKNESS
 40
0
  9
$VIEWDIR
 10
0
 20
0
 30
1
  9
$LIMCHECK
 70
0
  9
$BLIPMODE
 70
1
  9
$CHAMFERA
 40
0
  9
$CHAMFERB
 40
0
  9
$FASTZOOM
 70
1
  9
$SKPOLY
 70
0
  9
$ANGBASE
 50
0
  9
$ANGDIR
 70
0
  9
$PDMODE
 70
0
  9
$PDSIZE
 40
0
  9
$PLINEWID
 40
0
  9
$COORDS
 70
2
  0
ENDSEC
  0
SECTION
  2
TABLES
  0
TABLE
  2
DIMSTYLE
 70
0
  0
ENDTAB
  0
TABLE
  2
LTYPE
 70
9
  0
LTYPE
  2
CONTINUOUS
 70
64
  3
Solid line
 72
65
 73
0
 40
0
  0
LTYPE
  2
BORDER
 70
64
  3
__ __ . __ __ .
 72
65
 73
6
 40
26.06578947368754
 49
7.447368421053583
 49
-3.723684210526792
 49
7.447368421053583
 49
-3.723684210526792
 49
0
 49
-3.723684210526792
  0
LTYPE
  2
CENTER
 70
64
  3
____ _ ____ _
 72
65
 73
4
 40
29.78947368421433
 49
18.61842105263396
 49
-3.723684210526792
 49
3.723684210526792
 49
-3.723684210526792
  0
LTYPE
  2
DASHDOT
 70
64
  3
__ . __ . __ .
 72
65
 73
4
 40
14.89473684210717
 49
7.447368421053583
 49
-3.723684210526792
 49
0
 49
-3.723684210526792
  0
LTYPE
  2
DASHED
 70
64
  3
__ __ __ __ __
 72
65
 73
2
 40
11.17105263158038
 49
7.447368421053583
 49
-3.723684210526792
  0
LTYPE
  2
DIVIDE
 70
64
  3
__ . . __ . . 
 72
65
 73
6
 40
18.61842105263396
 49
7.447368421053583
 49
-3.723684210526792
 49
0
 49
-3.723684210526792
 49
0
 49
-3.723684210526792
  0
LTYPE
  2
DOT
 70
64
  3
..............
 72
65
 73
4
 40
7.447368421053583
 49
0
 49
-3.723684210526792
 49
0
 49
-3.723684210526792
  0
LTYPE
  2
HIDDEN
 70
64
  3
_ _ _ _ _ _ _
 72
65
 73
2
 40
5.585526315790188
 49
3.723684210526792
 49
-1.861842105263396
  0
LTYPE
  2
PHANTOM
 70
64
  3
_____ _ _ _____ _ _ 
 72
65
 73
6
 40
37.23684210526792
 49
18.61842105263396
 49
-3.723684210526792
 49
3.723684210526792
 49
-3.723684210526792
 49
3.723684210526792
 49
-3.723684210526792
  0
ENDTAB
  0
TABLE
  2
LAYER
 70
3
  0
LAYER
  2
1
 70
0
 62
7
  6
CONTINUOUS
  0
LAYER
  2
0
 70
0
 62
7
  6
CONTINUOUS
  0
ENDTAB
  0
TABLE
  2
STYLE
 70
4
  0
STYLE
  2
STANDARD
 70
0
 40
0
 41
1
 50
0
 71
0
 42
3.5
  3
txt
  4

  0
STYLE
  2
SIMPLEX
 70
0
 40
0
 41
1
 50
0
 71
0
 42
3.5
  3
simplex
  4

  0
STYLE
  2
COMPLEX
 70
0
 40
0
 41
1
 50
0
 71
0
 42
3.5
  3
complex
  4

  0
STYLE
  2
ITALIC
 70
0
 40
0
 41
1
 50
0
 71
0
 42
3.5
  3
italic
  4

  0
ENDTAB
  0
TABLE
  2
VIEW
 70
0
  0
ENDTAB
  0
ENDSEC
  0
SECTION
  2
BLOCKS
  0
ENDSEC
  0
SECTION
  2
ENTITIES
  0
LINE
  8
1
 62
3
 10
4007.377550642425
 20
-829.8944661349204
 30
0
 11
4008.877550642425
 21
-832.4925423462709
 31
0
  0
LINE
  8
1
 62
3
 10
4008.202050827473
 20
-832.8825423462703
 30
0
 11
4006.702050827473
 21
-830.2844661349308
 31
0
  0
LINE
  8
1
 62
3
 10
4009.587747320682
 20
-832.0826390841911
 30
0
 11
4008.087747320682
 21
-829.4845628728407
 31
0
  0
LINE
  8
1
 62
3
 10
4008.763247135645
 20
-829.0945628728413
 30
0
 11
4010.263247135645
 21
-831.6926390841917
 31
0
  0
LINE
  8
1
 62
3
 10
4007.039800734954
 20
-830.0894661349201
 30
0
 11
4008.539800734954
 21
-832.6875423462815
 31
0
  0
LINE
  8
1
 62
3
 10
4008.425497228163
 20
-829.2895628728301
 30
0
 11
4009.925497228163
 21
-831.8876390841914
 31
0
  0
LINE
  8
1
 62
3
  6
DASHDOT
 10
4065.619676324812
 20
-928.452786961553
 30
0
 11
4065.619676324812
 21
-931.452786961553
 31
0
  0
LINE
  8
1
 62
3
  6
DASHDOT
 10
4067.119676324812
 20
-929.952786961553
 30
0
 11
4064.119676324812
 21
-929.952786961553
 31
0
  0
LINE
  8
1
 62
7
 10
4007.725764778964
 20
-833.1575907152339
 30
0
 11
4017.620931544263
 21
-850.2965223021108
 31
0
  0
LINE
  8
1
 62
7
 10
4074.119676324812
 20
-935.2206138379742
 30
0
 11
4074.119676324812
 21
-924.6849600851245
 31
0
  0
LINE
  8
1
 62
7
 10
4070.887503201244
 20
-921.452786961553
 30
0
 11
4060.351849448383
 21
-921.452786961553
 31
0
  0
LINE
  8
1
 62
7
 10
4019.119676324803
 20
-849.4124244095845
 30
0
 11
4009.232648981553
 21
-832.2875907152419
 31
0
  0
LINE
  8
1
 62
7
 10
4020.634699949433
 20
-848.5565223021107
 30
0
 11
4010.739533184143
 21
-831.4175907152498
 31
0
  0
LINE
  8
1
 62
7
 10
4009.232648981553
 20
-832.2875907152419
 30
0
 11
4010.739533184143
 21
-831.4175907152498
 31
0
  0
LINE
  8
1
 62
7
 10
4007.725764778964
 20
-833.1575907152339
 30
0
 11
4009.232648981553
 21
-832.2875907152419
 31
0
  0
LINE
  8
1
 62
7
 10
4059.353009658145
 20
-940.3075026095729
 30
0
 11
4059.353009658145
 21
-941.1507459326939
 31
0
  0
LINE
  8
1
 62
7
 10
4071.886342991475
 20
-940.3075026095729
 30
0
 11
4071.886342991475
 21
-941.1507459326939
 31
0
  0
LINE
  8
1
 62
7
 10
4063.619676324812
 20
-943.1507459326939
 30
0
 11
4063.619676324812
 21
-939.7507459326815
 31
0
  0
LINE
  8
1
 62
7
 10
4061.353009658145
 20
-943.1507459326939
 30
0
 11
4063.619676324812
 21
-943.1507459326939
 31
0
  0
LINE
  8
1
 62
7
 10
4067.619676324812
 20
-943.1507459326939
 30
0
 11
4067.619676324812
 21
-939.7507459326815
 31
0
  0
LINE
  8
1
 62
7
 10
4069.886342991475
 20
-943.1507459326939
 30
0
 11
4067.619676324812
 21
-943.1507459326939
 31
0
  0
LINE
  8
1
 62
3
 10
4214.52967632483
 20
-824.1520916517919
 30
0
 11
4214.52967632483
 21
-821.1520916517919
 31
0
  0
LINE
  8
1
 62
3
 10
4215.309676324829
 20
-821.1520916517919
 30
0
 11
4215.309676324829
 21
-824.1520916517919
 31
0
  0
LINE
  8
1
 62
3
 10
4214.91967632483
 20
-821.1520916517919
 30
0
 11
4214.91967632483
 21
-824.1520916517919
 31
0
  0
LINE
  8
1
 62
3
 10
4502.361802007235
 20
-832.4925423462709
 30
0
 11
4503.861802007235
 21
-829.8944661349204
 31
0
  0
LINE
  8
1
 62
3
 10
4504.537301822187
 20
-830.2844661349308
 30
0
 11
4503.037301822187
 21
-832.8825423462703
 31
0
  0
LINE
  8
1
 62
3
 10
4503.151605328978
 20
-829.4845628728407
 30
0
 11
4501.651605328978
 21
-832.0826390841911
 31
0
  0
LINE
  8
1
 62
3
 10
4500.976105514015
 20
-831.6926390841917
 30
0
 11
4502.476105514015
 21
-829.0945628728413
 31
0
  0
LINE
  8
1
 62
3
 10
4502.699551914706
 20
-832.6875423462815
 30
0
 11
4504.199551914706
 21
-830.0894661349201
 31
0
  0
LINE
  8
1
 62
3
 10
4501.313855421497
 20
-831.8876390841914
 30
0
 11
4502.813855421497
 21
-829.2895628728301
 31
0
  0
LINE
  8
1
 62
3
  6
DASHDOT
 10
4445.619676324848
 20
-931.452786961553
 30
0
 11
4445.619676324848
 21
-928.452786961553
 31
0
  0
LINE
  8
1
 62
3
  6
DASHDOT
 10
4447.119676324848
 20
-929.952786961553
 30
0
 11
4444.119676324848
 21
-929.952786961553
 31
0
  0
LINE
  8
1
 62
7
 10
4493.618421105397
 20
-850.2965223021106
 30
0
 11
4503.513587870692
 21
-833.1575907152414
 31
0
  0
LINE
  8
1
 62
7
 10
4322.61967632483
 20
-924.6849600851245
 30
0
 11
4297.61967632483
 21
-924.6849600851245
 31
0
  0
LINE
  8
1
 62
7
 10
4322.61967632483
 20
-921.452786961553
 30
0
 11
4297.61967632483
 21
-921.452786961553
 31
0
  0
LINE
  8
1
 62
7
 10
4297.61967632483
 20
-919.952786961553
 30
0
 11
4297.61967632483
 21
-921.452786961553
 31
0
  0
LINE
  8
1
 62
7
 10
4297.61967632483
 20
-924.6849600851245
 30
0
 11
4297.61967632483
 21
-929.9527869615421
 31
0
  0
LINE
  8
1
 62
3
 10
4322.61967632483
 20
-924.6849600851245
 30
0
 11
4310.11967632483
 21
-929.952786961553
 31
0
  0
LINE
  8
1
 62
3
 10
4297.61967632483
 20
-924.6849600851245
 30
0
 11
4310.11967632483
 21
-929.952786961553
 31
0
  0
LINE
  8
1
 62
7
 10
4264.61967632483
 20
-919.952786961553
 30
0
 11
4297.61967632483
 21
-919.952786961553
 31
0
  0
LINE
  8
1
 62
3
  6
DASHDOT
 10
4184.61967632483
 20
-929.9527869615421
 30
0
 11
4188.61967632483
 21
-929.9527869615424
 31
0
  0
LINE
  8
1
 62
7
 10
4188.61967632483
 20
-836.9527869615421
 30
0
 11
4188.61967632483
 21
-1022.952786961553
 31
0
  0
LINE
  8
1
 62
7
 10
4258.61967632483
 20
-836.9527869615421
 30
0
 11
4258.61967632483
 21
-1022.952786961553
 31
0
  0
LINE
  8
1
 62
7
 10
4258.61967632483
 20
-902.4527869615421
 30
0
 11
4263.319676324831
 21
-902.4527869615421
 31
0
  0
LINE
  8
1
 62
7
 10
4264.61967632483
 20
-903.7527869615523
 30
0
 11
4264.61967632483
 21
-956.1527869615646
 31
0
  0
LINE
  8
1
 62
7
 10
4264.61967632483
 20
-903.7527869615523
 30
0
 11
4263.319676324831
 21
-902.4527869615421
 31
0
  0
LINE
  8
1
 62
7
 10
4200.61967632483
 20
-1022.952786961553
 30
0
 11
4200.61967632483
 21
-836.9527869615421
 31
0
  0
LINE
  8
1
 62
7
 10
4258.61967632483
 20
-836.9527869615421
 30
0
 11
4188.61967632483
 21
-836.9527869615421
 31
0
  0
LINE
  8
1
 62
7
 10
4215.78967632483
 20
-824.1520916517919
 30
0
 11
4214.04967632483
 21
-824.1520916517919
 31
0
  0
LINE
  8
1
 62
7
 10
4215.78967632483
 20
-836.9527869615421
 30
0
 11
4215.78967632483
 21
-824.1520916517919
 31
0
  0
LINE
  8
1
 62
7
 10
4214.04967632483
 20
-824.1520916517919
 30
0
 11
4214.04967632483
 21
-836.9527869615421
 31
0
  0
LINE
  8
1
 62
7
 10
4297.61967632483
 20
-935.2206138379742
 30
0
 11
4322.61967632483
 21
-935.2206138379742
 31
0
  0
LINE
  8
1
 62
7
 10
4297.61967632483
 20
-929.952786961553
 30
0
 11
4297.61967632483
 21
-935.2206138379742
 31
0
  0
LINE
  8
1
 62
3
 10
4310.11967632483
 20
-929.952786961553
 30
0
 11
4322.61967632483
 21
-935.2206138379742
 31
0
  0
LINE
  8
1
 62
3
 10
4310.11967632483
 20
-929.952786961553
 30
0
 11
4297.61967632483
 21
-935.2206138379742
 31
0
  0
LINE
  8
1
 62
7
 10
4322.61967632483
 20
-921.452786961553
 30
0
 11
4322.61967632483
 21
-939.952786961553
 31
0
  0
LINE
  8
1
 62
7
 10
4322.61967632483
 20
-939.952786961553
 30
0
 11
4264.61967632483
 21
-939.952786961553
 31
0
  0
LINE
  8
1
 62
7
 10
4263.719676324829
 20
-957.4527869615421
 30
0
 11
4258.61967632483
 21
-957.4527869615421
 31
0
  0
LINE
  8
1
 62
7
 10
4263.719676324829
 20
-957.4527869615421
 30
0
 11
4264.61967632483
 21
-956.1527869615646
 31
0
  0
LINE
  8
1
 62
7
 10
4188.61967632483
 20
-1022.952786961553
 30
0
 11
4258.61967632483
 21
-1022.952786961553
 31
0
  0
LINE
  8
1
 62
7
 10
4437.119676324848
 20
-924.6849600851245
 30
0
 11
4437.119676324848
 21
-935.2206138379742
 31
0
  0
LINE
  8
1
 62
7
 10
4450.887503201277
 20
-921.452786961553
 30
0
 11
4440.351849448416
 21
-921.452786961553
 31
0
  0
LINE
  8
1
 62
3
  6
DASHDOT
 10
4362.619676324848
 20
-929.952786961553
 30
0
 11
4380.619676324848
 21
-929.952786961553
 31
0
  0
LINE
  8
1
 62
3
  6
DASHDOT
 10
4528.619676324848
 20
-929.9527869615421
 30
0
 11
4510.619676324848
 21
-929.9527869615421
 31
0
  0
LINE
  8
1
 62
3
  6
DASHDOT
 10
4445.619676324848
 20
-846.9527869615421
 30
0
 11
4445.619676324848
 21
-864.952786961553
 31
0
  0
LINE
  8
1
 62
7
 10
4502.006703668107
 20
-832.2875907152419
 30
0
 11
4492.119676324857
 21
-849.4124244095845
 31
0
  0
LINE
  8
1
 62
7
 10
4500.499819465522
 20
-831.4175907152423
 30
0
 11
4490.604652700228
 21
-848.5565223021109
 31
0
  0
LINE
  8
1
 62
7
 10
4448.119676324848
 20
-854.5094112885716
 30
0
 11
4445.619676324848
 21
-853.0660356156012
 31
0
  0
LINE
  8
1
 62
7
 10
4448.119676324848
 20
-857.3961626345234
 30
0
 11
4448.119676324848
 21
-854.5094112885716
 31
0
  0
LINE
  8
1
 62
7
 10
4445.619676324848
 20
-858.8395383074939
 30
0
 11
4448.119676324848
 21
-857.3961626345234
 31
0
  0
LINE
  8
1
 62
7
 10
4443.119676324848
 20
-857.3961626345234
 30
0
 11
4445.619676324848
 21
-858.8395383074939
 31
0
  0
LINE
  8
1
 62
7
 10
4443.119676324848
 20
-854.5094112885716
 30
0
 11
4443.119676324848
 21
-857.3961626345234
 31
0
  0
LINE
  8
1
 62
7
 10
4445.619676324848
 20
-853.0660356156012
 30
0
 11
4443.119676324848
 21
-854.5094112885716
 31
0
  0
LINE
  8
1
 62
7
 10
4500.499819465522
 20
-831.4175907152423
 30
0
 11
4502.006703668107
 21
-832.2875907152419
 31
0
  0
LINE
  8
1
 62
7
 10
4502.006703668107
 20
-832.2875907152419
 30
0
 11
4503.513587870692
 21
-833.1575907152414
 31
0
  0
LINE
  8
1
 62
7
 10
4451.886342991515
 20
-941.1507459326939
 30
0
 11
4451.886342991515
 21
-940.3075026095729
 31
0
  0
LINE
  8
1
 62
7
 10
4439.353009658185
 20
-941.1507459326939
 30
0
 11
4439.353009658185
 21
-940.3075026095729
 31
0
  0
LINE
  8
1
 62
7
 10
4447.619676324848
 20
-939.7507459326815
 30
0
 11
4447.619676324848
 21
-943.1507459326939
 31
0
  0
LINE
  8
1
 62
7
 10
4447.619676324848
 20
-943.1507459326939
 30
0
 11
4449.886342991515
 21
-943.1507459326939
 31
0
  0
LINE
  8
1
 62
7
 10
4443.619676324848
 20
-939.7507459326815
 30
0
 11
4443.619676324848
 21
-943.1507459326939
 31
0
  0
LINE
  8
1
 62
7
 10
4443.619676324848
 20
-943.1507459326939
 30
0
 11
4441.353009658185
 21
-943.1507459326939
 31
0
  0
LINE
  8
1
 62
7
 10
4521.063051997826
 20
-932.452786961553
 30
0
 11
4522.506427670796
 21
-929.952786961553
 31
0
  0
LINE
  8
1
 62
7
 10
4518.176300651878
 20
-932.452786961553
 30
0
 11
4521.063051997826
 21
-932.452786961553
 31
0
  0
LINE
  8
1
 62
7
 10
4516.732924978896
 20
-929.9527869615421
 30
0
 11
4518.176300651878
 21
-932.452786961553
 31
0
  0
LINE
  8
1
 62
7
 10
4518.176300651867
 20
-927.452786961553
 30
0
 11
4516.732924978896
 21
-929.9527869615421
 31
0
  0
LINE
  8
1
 62
7
 10
4521.063051997815
 20
-927.452786961553
 30
0
 11
4518.176300651867
 21
-927.452786961553
 31
0
  0
LINE
  8
1
 62
7
 10
4522.506427670796
 20
-929.952786961553
 30
0
 11
4521.063051997815
 21
-927.452786961553
 31
0
  0
LINE
  8
1
 62
7
 10
4443.119676324848
 20
-1005.396162634523
 30
0
 11
4445.619676324848
 21
-1006.839538307494
 31
0
  0
LINE
  8
1
 62
7
 10
4443.119676324848
 20
-1002.509411288572
 30
0
 11
4443.119676324848
 21
-1005.396162634523
 31
0
  0
LINE
  8
1
 62
7
 10
4445.619676324848
 20
-1001.066035615601
 30
0
 11
4443.119676324848
 21
-1002.509411288572
 31
0
  0
LINE
  8
1
 62
7
 10
4448.119676324848
 20
-1002.509411288572
 30
0
 11
4445.619676324848
 21
-1001.066035615601
 31
0
  0
LINE
  8
1
 62
7
 10
4448.119676324848
 20
-1005.396162634523
 30
0
 11
4448.119676324848
 21
-1002.509411288572
 31
0
  0
LINE
  8
1
 62
7
 10
4445.619676324848
 20
-1006.839538307494
 30
0
 11
4448.119676324848
 21
-1005.396162634523
 31
0
  0
LINE
  8
1
 62
7
 10
4370.176300651878
 20
-927.452786961553
 30
0
 11
4368.732924978896
 21
-929.9527869615421
 31
0
  0
LINE
  8
1
 62
7
 10
4373.063051997815
 20
-927.452786961553
 30
0
 11
4370.176300651878
 21
-927.452786961553
 31
0
  0
LINE
  8
1
 62
7
 10
4374.506427670796
 20
-929.9527869615421
 30
0
 11
4373.063051997815
 21
-927.452786961553
 31
0
  0
LINE
  8
1
 62
7
 10
4373.063051997826
 20
-932.452786961553
 30
0
 11
4374.506427670796
 21
-929.9527869615421
 31
0
  0
LINE
  8
1
 62
7
 10
4370.176300651878
 20
-932.4527869615421
 30
0
 11
4373.063051997826
 21
-932.452786961553
 31
0
  0
LINE
  8
1
 62
7
 10
4368.732924978896
 20
-929.9527869615421
 30
0
 11
4370.176300651878
 21
-932.4527869615421
 31
0
  0
LINE
  8
1
 62
7
 10
4223.61967632483
 20
-836.9527869615421
 30
0
 11
4223.61967632483
 21
-1022.952786961553
 31
0
  0
LINE
  8
1
 62
7
 10
4246.61967632483
 20
-1022.952786961553
 30
0
 11
4246.61967632483
 21
-836.9527869615421
 31
0
  0
LINE
  8
1
 62
7
 10
4263.319676324831
 20
-902.4527869615421
 30
0
 11
4263.319676324831
 21
-957.4527869615421
 31
0
  0
LINE
  8
1
 62
7
 10
4264.61967632483
 20
-903.4527869615421
 30
0
 11
4263.61967632483
 21
-902.4527869615421
 31
0
  0
LINE
  8
1
 62
7
 10
4258.61967632483
 20
-902.4527869615421
 30
0
 11
4263.61967632483
 21
-902.4527869615421
 31
0
  0
LINE
  8
1
 62
7
 10
4214.91967632483
 20
-836.9527869615421
 30
0
 11
4214.91967632483
 21
-834.875471431382
 31
0
  0
LINE
  8
1
 62
3
  6
DASHDOT
 10
4436.619676324848
 20
-855.952786961553
 30
0
 11
4454.619676324848
 21
-855.952786961553
 31
0
  0
LINE
  8
1
 62
3
  6
DASHDOT
 10
4371.619676324848
 20
-920.9527869615421
 30
0
 11
4371.619676324848
 21
-938.952786961553
 31
0
  0
LINE
  8
1
 62
3
  6
DASHDOT
 10
4519.619676324848
 20
-920.9527869615421
 30
0
 11
4519.619676324848
 21
-938.952786961553
 31
0
  0
LINE
  8
1
 62
3
  6
DASHDOT
 10
4445.619676324848
 20
-994.952786961542
 30
0
 11
4445.619676324848
 21
-1012.952786961553
 31
0
  0
LINE
  8
1
 62
3
  6
DASHDOT
 10
4454.619676324848
 20
-1003.952786961542
 30
0
 11
4436.619676324848
 21
-1003.952786961542
 31
0
  0
LINE
  8
1
 62
3
  6
DASHDOT
 10
3982.619676324812
 20
-929.952786961553
 30
0
 11
4000.619676324812
 21
-929.952786961553
 31
0
  0
LINE
  8
1
 62
7
 10
3990.176300651842
 20
-927.452786961553
 30
0
 11
3988.73292497886
 21
-929.9527869615421
 31
0
  0
LINE
  8
1
 62
7
 10
3993.063051997779
 20
-927.452786961553
 30
0
 11
3990.176300651842
 21
-927.452786961553
 31
0
  0
LINE
  8
1
 62
7
 10
3994.50642767076
 20
-929.9527869615421
 30
0
 11
3993.063051997779
 21
-927.452786961553
 31
0
  0
LINE
  8
1
 62
7
 10
3993.06305199779
 20
-932.452786961553
 30
0
 11
3994.50642767076
 21
-929.9527869615421
 31
0
  0
LINE
  8
1
 62
7
 10
3990.176300651842
 20
-932.4527869615421
 30
0
 11
3993.06305199779
 21
-932.452786961553
 31
0
  0
LINE
  8
1
 62
7
 10
3988.73292497886
 20
-929.9527869615421
 30
0
 11
3990.176300651842
 21
-932.4527869615421
 31
0
  0
LINE
  8
1
 62
3
  6
DASHDOT
 10
3991.619676324812
 20
-920.9527869615421
 30
0
 11
3991.619676324812
 21
-938.952786961553
 31
0
  0
LINE
  8
1
 62
3
  6
DASHDOT
 10
4065.619676324812
 20
-846.9527869615421
 30
0
 11
4065.619676324812
 21
-864.952786961553
 31
0
  0
LINE
  8
1
 62
7
 10
4068.119676324812
 20
-854.5094112885716
 30
0
 11
4065.619676324812
 21
-853.0660356156012
 31
0
  0
LINE
  8
1
 62
7
 10
4068.119676324812
 20
-857.3961626345234
 30
0
 11
4068.119676324812
 21
-854.5094112885716
 31
0
  0
LINE
  8
1
 62
7
 10
4065.619676324812
 20
-858.8395383074939
 30
0
 11
4068.119676324812
 21
-857.3961626345234
 31
0
  0
LINE
  8
1
 62
7
 10
4063.119676324812
 20
-857.3961626345234
 30
0
 11
4065.619676324812
 21
-858.8395383074939
 31
0
  0
LINE
  8
1
 62
7
 10
4063.119676324812
 20
-854.5094112885716
 30
0
 11
4063.119676324812
 21
-857.3961626345234
 31
0
  0
LINE
  8
1
 62
7
 10
4065.619676324812
 20
-853.0660356156012
 30
0
 11
4063.119676324812
 21
-854.5094112885716
 31
0
  0
LINE
  8
1
 62
3
  6
DASHDOT
 10
4056.619676324812
 20
-855.952786961553
 30
0
 11
4074.619676324812
 21
-855.952786961553
 31
0
  0
LINE
  8
1
 62
3
  6
DASHDOT
 10
4148.619676324812
 20
-929.9527869615421
 30
0
 11
4130.619676324812
 21
-929.9527869615421
 31
0
  0
LINE
  8
1
 62
7
 10
4141.063051997789
 20
-932.452786961553
 30
0
 11
4142.50642767076
 21
-929.952786961553
 31
0
  0
LINE
  8
1
 62
7
 10
4138.176300651841
 20
-932.452786961553
 30
0
 11
4141.063051997789
 21
-932.452786961553
 31
0
  0
LINE
  8
1
 62
7
 10
4136.73292497886
 20
-929.9527869615421
 30
0
 11
4138.176300651841
 21
-932.452786961553
 31
0
  0
LINE
  8
1
 62
7
 10
4138.17630065183
 20
-927.452786961553
 30
0
 11
4136.73292497886
 21
-929.9527869615421
 31
0
  0
LINE
  8
1
 62
7
 10
4141.063051997779
 20
-927.452786961553
 30
0
 11
4138.17630065183
 21
-927.452786961553
 31
0
  0
LINE
  8
1
 62
7
 10
4142.50642767076
 20
-929.952786961553
 30
0
 11
4141.063051997779
 21
-927.452786961553
 31
0
  0
LINE
  8
1
 62
3
  6
DASHDOT
 10
4139.619676324812
 20
-920.9527869615421
 30
0
 11
4139.619676324812
 21
-938.952786961553
 31
0
  0
LINE
  8
1
 62
7
 10
4063.119676324812
 20
-1005.396162634523
 30
0
 11
4065.619676324812
 21
-1006.839538307494
 31
0
  0
LINE
  8
1
 62
7
 10
4063.119676324812
 20
-1002.509411288572
 30
0
 11
4063.119676324812
 21
-1005.396162634523
 31
0
  0
LINE
  8
1
 62
7
 10
4065.619676324812
 20
-1001.066035615601
 30
0
 11
4063.119676324812
 21
-1002.509411288572
 31
0
  0
LINE
  8
1
 62
7
 10
4068.119676324812
 20
-1002.509411288572
 30
0
 11
4065.619676324812
 21
-1001.066035615601
 31
0
  0
LINE
  8
1
 62
7
 10
4068.119676324812
 20
-1005.396162634523
 30
0
 11
4068.119676324812
 21
-1002.509411288572
 31
0
  0
LINE
  8
1
 62
7
 10
4065.619676324812
 20
-1006.839538307494
 30
0
 11
4068.119676324812
 21
-1005.396162634523
 31
0
  0
LINE
  8
1
 62
3
  6
DASHDOT
 10
4065.619676324812
 20
-994.952786961542
 30
0
 11
4065.619676324812
 21
-1012.952786961553
 31
0
  0
LINE
  8
1
 62
3
  6
DASHDOT
 10
4074.619676324812
 20
-1003.952786961542
 30
0
 11
4056.619676324812
 21
-1003.952786961542
 31
0
  0
LINE
  8
1
 62
3
  6
DASHDOT
 10
4322.61967632483
 20
-929.9527869615527
 30
0
 11
4326.61967632483
 21
-929.952786961553
 31
0
  0
LINE
  8
1
 62
3
  6
DASHDOT
 10
4445.619676324848
 20
-886.952786961553
 30
0
 11
4445.619676324848
 21
-894.952786961553
 31
0
  0
LINE
  8
1
 62
3
  6
DASHDOT
 10
4441.619676324848
 20
-890.952786961553
 30
0
 11
4449.619676324848
 21
-890.952786961553
 31
0
  0
LINE
  8
1
 62
3
  6
DASHDOT
 10
4408.380583962117
 20
-908.4527869615527
 30
0
 11
4415.308787192393
 21
-912.4527869615527
 31
0
  0
LINE
  8
1
 62
3
  6
DASHDOT
 10
4409.844685577255
 20
-913.9168885766903
 30
0
 11
4413.844685577255
 21
-906.988685346415
 31
0
  0
LINE
  8
1
 62
3
  6
DASHDOT
 10
4408.380583962117
 20
-951.4527869615522
 30
0
 11
4415.308787192393
 21
-947.4527869615522
 31
0
  0
LINE
  8
1
 62
3
  6
DASHDOT
 10
4413.844685577255
 20
-952.9168885766894
 30
0
 11
4409.844685577255
 21
-945.9886853464141
 31
0
  0
LINE
  8
1
 62
3
  6
DASHDOT
 10
4445.619676324846
 20
-972.952786961552
 30
0
 11
4445.619676324846
 21
-964.952786961552
 31
0
  0
LINE
  8
1
 62
3
  6
DASHDOT
 10
4449.619676324846
 20
-968.952786961552
 30
0
 11
4441.619676324846
 21
-968.952786961552
 31
0
  0
LINE
  8
1
 62
3
  6
DASHDOT
 10
4482.858768687578
 20
-951.452786961554
 30
0
 11
4475.930565457303
 21
-947.452786961554
 31
0
  0
LINE
  8
1
 62
3
  6
DASHDOT
 10
4481.39466707244
 20
-945.9886853464163
 30
0
 11
4477.39466707244
 21
-952.9168885766917
 31
0
  0
LINE
  8
1
 62
3
  6
DASHDOT
 10
4482.85876868758
 20
-908.452786961554
 30
0
 11
4475.930565457304
 21
-912.452786961554
 31
0
  0
LINE
  8
1
 62
3
  6
DASHDOT
 10
4477.394667072442
 20
-906.9886853464159
 30
0
 11
4481.394667072442
 21
-913.9168885766921
 31
0
  0
ARC
  8
1
 62
7
 10
4065.619676324812
 20
-929.952786961553
 30
0
 40
10
 50
270
 51
0
  0
ARC
  8
1
 62
7
 10
4065.619676324812
 20
-929.952786961553
 30
0
 40
10
 50
180
 51
270
  0
ARC
  8
1
 62
7
 10
4065.619676324812
 20
-929.952786961553
 30
0
 40
10
 50
0
 51
180
  0
ARC
  8
1
 62
7
 10
4065.619676324812
 20
-929.2102869615527
 30
0
 40
11.45749999999611
 50
309.8633768732152
 51
230.1366231267517
  0
ARC
  8
1
 62
7
 10
4445.619676324848
 20
-929.952786961553
 30
0
 40
10
 50
180
 51
270
  0
ARC
  8
1
 62
7
 10
4445.619676324848
 20
-929.952786961553
 30
0
 40
10
 50
270
 51
0
  0
ARC
  8
1
 62
7
 10
4445.619676324848
 20
-929.952786961553
 30
0
 40
10
 50
0
 51
180
  0
ARC
  8
1
 62
7
 10
4445.619676324848
 20
-929.2102869615527
 30
0
 40
11.45750000000165
 50
309.8633768732483
 51
230.1366231267831
  0
CIRCLE
  8
1
 62
7
 10
4065.619676324812
 20
-929.952786961553
 30
0
 40
93.00000000001819
  0
CIRCLE
  8
1
 62
7
 10
4065.619676324812
 20
-929.952786961553
 30
0
 40
21
  0
CIRCLE
  8
1
 62
7
 10
4061.486342991473
 20
-941.4507459326823
 30
0
 40
1
  0
CIRCLE
  8
1
 62
7
 10
4069.753009658143
 20
-941.4507459326823
 30
0
 40
1
  0
CIRCLE
  8
1
 62
7
 10
4445.619676324848
 20
-929.952786961553
 30
0
 40
93.00000000001819
  0
CIRCLE
  8
1
 62
7
 10
4445.619676324848
 20
-929.952786961553
 30
0
 40
21
  0
CIRCLE
  8
1
 62
7
 10
4445.619676324848
 20
-929.952786961553
 30
0
 40
27.5
  0
CIRCLE
  8
1
 62
7
 10
4445.619676324848
 20
-855.9527869615421
 30
0
 40
5
  0
CIRCLE
  8
1
 62
7
 10
4445.619676324848
 20
-855.9527869615421
 30
0
 40
6.099999999998545
  0
CIRCLE
  8
1
 62
7
 10
4445.619676324848
 20
-855.9527869615421
 30
0
 40
6.999999999989086
  0
CIRCLE
  8
1
 62
7
 10
4445.619676324848
 20
-890.952786961553
 30
0
 40
2.399999999997817
  0
CIRCLE
  8
1
 62
3
 10
4445.619676324848
 20
-890.952786961553
 30
0
 40
3
  0
CIRCLE
  8
1
 62
7
 10
4449.753009658187
 20
-941.4507459326823
 30
0
 40
1
  0
CIRCLE
  8
1
 62
7
 10
4441.486342991517
 20
-941.4507459326823
 30
0
 40
1
  0
CIRCLE
  8
1
 62
7
 10
4519.619676324848
 20
-929.9527869615421
 30
0
 40
5
  0
CIRCLE
  8
1
 62
7
 10
4519.619676324848
 20
-929.9527869615421
 30
0
 40
6.100000000002183
  0
CIRCLE
  8
1
 62
7
 10
4519.619676324848
 20
-929.9527869615421
 30
0
 40
7.000000000010914
  0
CIRCLE
  8
1
 62
7
 10
4445.619676324848
 20
-1003.952786961542
 30
0
 40
5
  0
CIRCLE
  8
1
 62
7
 10
4445.619676324848
 20
-1003.952786961542
 30
0
 40
6.100000000002183
  0
CIRCLE
  8
1
 62
7
 10
4445.619676324848
 20
-1003.952786961542
 30
0
 40
7.000000000010914
  0
CIRCLE
  8
1
 62
7
 10
4371.619676324848
 20
-929.9527869615421
 30
0
 40
4.999999999989086
  0
CIRCLE
  8
1
 62
7
 10
4371.619676324848
 20
-929.9527869615421
 30
0
 40
6.099999999987631
  0
CIRCLE
  8
1
 62
7
 10
4371.619676324848
 20
-929.9527869615421
 30
0
 40
7
  0
CIRCLE
  8
1
 62
7
 10
3991.619676324812
 20
-929.9527869615421
 30
0
 40
4.999999999989086
  0
CIRCLE
  8
1
 62
7
 10
3991.619676324812
 20
-929.9527869615421
 30
0
 40
6.099999999987631
  0
CIRCLE
  8
1
 62
7
 10
3991.619676324812
 20
-929.9527869615421
 30
0
 40
7
  0
CIRCLE
  8
1
 62
7
 10
4065.619676324812
 20
-855.9527869615421
 30
0
 40
5
  0
CIRCLE
  8
1
 62
7
 10
4065.619676324812
 20
-855.9527869615421
 30
0
 40
6.099999999999
  0
CIRCLE
  8
1
 62
7
 10
4065.619676324812
 20
-855.9527869615421
 30
0
 40
6.999999999988631
  0
CIRCLE
  8
1
 62
7
 10
4139.619676324812
 20
-929.9527869615421
 30
0
 40
5
  0
CIRCLE
  8
1
 62
7
 10
4139.619676324812
 20
-929.9527869615421
 30
0
 40
6.100000000002183
  0
CIRCLE
  8
1
 62
7
 10
4139.619676324812
 20
-929.9527869615421
 30
0
 40
7.000000000010914
  0
CIRCLE
  8
1
 62
7
 10
4065.619676324812
 20
-1003.952786961542
 30
0
 40
5
  0
CIRCLE
  8
1
 62
7
 10
4065.619676324812
 20
-1003.952786961542
 30
0
 40
6.100000000002183
  0
CIRCLE
  8
1
 62
7
 10
4065.619676324812
 20
-1003.952786961542
 30
0
 40
7.000000000011369
  0
CIRCLE
  8
1
 62
7
 10
4411.844685577255
 20
-910.4527869615527
 30
0
 40
2.399999999997464
  0
CIRCLE
  8
1
 62
3
 10
4411.844685577255
 20
-910.4527869615527
 30
0
 40
3.000000000000247
  0
CIRCLE
  8
1
 62
7
 10
4411.844685577255
 20
-949.4527869615522
 30
0
 40
2.399999999997464
  0
CIRCLE
  8
1
 62
3
 10
4411.844685577255
 20
-949.4527869615522
 30
0
 40
3.00000000000064
  0
CIRCLE
  8
1
 62
7
 10
4445.619676324846
 20
-968.952786961552
 30
0
 40
2.399999999996908
  0
CIRCLE
  8
1
 62
3
 10
4445.619676324846
 20
-968.952786961552
 30
0
 40
3
  0
CIRCLE
  8
1
 62
7
 10
4479.39466707244
 20
-949.452786961554
 30
0
 40
2.399999999997919
  0
CIRCLE
  8
1
 62
3
 10
4479.39466707244
 20
-949.452786961554
 30
0
 40
2.999999999999853
  0
CIRCLE
  8
1
 62
7
 10
4479.394667072442
 20
-910.452786961554
 30
0
 40
2.399999999997919
  0
CIRCLE
  8
1
 62
3
 10
4479.394667072442
 20
-910.452786961554
 30
0
 40
2.999999999999853
  0
ARC
  8
1
 62
7
 10
4061.353009658145
 20
-941.1507459326939
 30
0
 40
2
 50
180
 51
270
  0
ARC
  8
1
 62
7
 10
4069.886342991475
 20
-941.1507459326939
 30
0
 40
2
 50
270
 51
0
  0
ARC
  8
1
 62
7
 10
4056.353009658145
 20
-940.3075026095729
 30
0
 40
3
 50
0
 51
50.13662312675285
  0
ARC
  8
1
 62
7
 10
4074.886342991475
 20
-940.3075026095729
 30
0
 40
2.999999999993646
 50
129.8633768733072
 51
180
  0
ARC
  8
1
 62
7
 10
4449.886342991515
 20
-941.1507459326939
 30
0
 40
2
 50
270
 51
0
  0
ARC
  8
1
 62
7
 10
4441.353009658185
 20
-941.1507459326939
 30
0
 40
2
 50
180
 51
270
  0
ARC
  8
1
 62
7
 10
4454.886342991515
 20
-940.3075026095729
 30
0
 40
2.999999999991023
 50
129.8633768732472
 51
180
  0
ARC
  8
1
 62
7
 10
4436.353009658185
 20
-940.3075026095729
 30
0
 40
3
 50
0
 51
50.13662312669953
  0
TEXT
  8
1
 62
7
 10
3986.245800579932
 20
-795.440461499839
 30
0
 40
6
  1
OPB 250N
 41
0.9
  7
SIMPLEX
 72
1
 73
2
 11
4007.845800579932
 21
-792.440461499839
 31
0
  0
ENDSEC
  0
EOF
