  0
SECTION
  2
HEADER
  9
$ACADVER
  1
AC1009
  9
$INSBASE
 10
0.0
 20
0.0
 30
0.0
  9
$EXTMIN
 10
-38.225353178607492
 20
-32.5
 30
0.0
  9
$EXTMAX
 10
243.5
 20
61.702119071644809
 30
0.0
  9
$LIMMIN
 10
-38.287853178607499
 20
-32.5
  9
$LIMMAX
 10
243.5
 20
61.702119071644788
  9
$ORTHOMODE
 70
     0
  9
$REGENMODE
 70
     1
  9
$FILLMODE
 70
     1
  9
$QTEXTMODE
 70
     0
  9
$MIRRTEXT
 70
     1
  9
$DRAGMODE
 70
     2
  9
$LTSCALE
 40
1.0
  9
$OSMODE
 70
    37
  9
$ATTMODE
 70
     1
  9
$TEXTSIZE
 40
3.5
  9
$TRACEWID
 40
0.5
  9
$TEXTSTYLE
  7
STANDARD
  9
$CLAYER
  8
0
  9
$CELTYPE
  6
BYLAYER
  9
$CECOLOR
 62
   256
  9
$DIMSCALE
 40
1.0
  9
$DIMASZ
 40
0.18
  9
$DIMEXO
 40
0.0625
  9
$DIMDLI
 40
0.38
  9
$DIMRND
 40
0.0
  9
$DIMDLE
 40
0.0
  9
$DIMEXE
 40
0.18
  9
$DIMTP
 40
0.0
  9
$DIMTM
 40
0.0
  9
$DIMTXT
 40
0.18
  9
$DIMCEN
 40
0.09
  9
$DIMTSZ
 40
0.0
  9
$DIMTOL
 70
     0
  9
$DIMLIM
 70
     0
  9
$DIMTIH
 70
     1
  9
$DIMTOH
 70
     1
  9
$DIMSE1
 70
     0
  9
$DIMSE2
 70
     0
  9
$DIMTAD
 70
     0
  9
$DIMZIN
 70
     0
  9
$DIMBLK
  1

  9
$DIMASO
 70
     1
  9
$DIMSHO
 70
     1
  9
$DIMPOST
  1

  9
$DIMAPOST
  1

  9
$DIMALT
 70
     0
  9
$DIMALTD
 70
     2
  9
$DIMALTF
 40
25.399999999999999
  9
$DIMLFAC
 40
1.0
  9
$DIMTOFL
 70
     0
  9
$DIMTVP
 40
0.0
  9
$DIMTIX
 70
     0
  9
$DIMSOXD
 70
     0
  9
$DIMSAH
 70
     0
  9
$DIMBLK1
  1

  9
$DIMBLK2
  1

  9
$DIMSTYLE
  2
STANDARD
  9
$DIMCLRD
 70
     0
  9
$DIMCLRE
 70
     0
  9
$DIMCLRT
 70
     0
  9
$DIMTFAC
 40
1.0
  9
$DIMGAP
 40
0.09
  9
$LUNITS
 70
     2
  9
$LUPREC
 70
     4
  9
$SKETCHINC
 40
0.1
  9
$FILLETRAD
 40
2.0
  9
$AUNITS
 70
     0
  9
$AUPREC
 70
     0
  9
$MENU
  1
ACAD
  9
$ELEVATION
 40
0.0
  9
$PELEVATION
 40
0.0
  9
$THICKNESS
 40
0.0
  9
$LIMCHECK
 70
     0
  9
$BLIPMODE
 70
     0
  9
$CHAMFERA
 40
0.0
  9
$CHAMFERB
 40
0.0
  9
$SKPOLY
 70
     0
  9
$TDCREATE
 40
2452095.116796759
  9
$TDUPDATE
 40
2452095.1172982641
  9
$TDINDWG
 40
0.0005092593
  9
$TDUSRTIMER
 40
0.0005092593
  9
$USRTIMER
 70
     1
  9
$ANGBASE
 50
0.0
  9
$ANGDIR
 70
     0
  9
$PDMODE
 70
     0
  9
$PDSIZE
 40
0.0
  9
$PLINEWID
 40
0.0
  9
$COORDS
 70
     1
  9
$SPLFRAME
 70
     0
  9
$SPLINETYPE
 70
     6
  9
$SPLINESEGS
 70
     8
  9
$ATTDIA
 70
     0
  9
$ATTREQ
 70
     1
  9
$HANDLING
 70
 10241
  9
$HANDSEED
  5
CD
  9
$SURFTAB1
 70
     6
  9
$SURFTAB2
 70
     6
  9
$SURFTYPE
 70
     6
  9
$SURFU
 70
     6
  9
$SURFV
 70
     6
  9
$UCSNAME
  2

  9
$UCSORG
 10
0.0
 20
0.0
 30
0.0
  9
$UCSXDIR
 10
1.0
 20
0.0
 30
0.0
  9
$UCSYDIR
 10
0.0
 20
1.0
 30
0.0
  9
$PUCSNAME
  2

  9
$PUCSORG
 10
0.0
 20
0.0
 30
0.0
  9
$PUCSXDIR
 10
1.0
 20
0.0
 30
0.0
  9
$PUCSYDIR
 10
0.0
 20
1.0
 30
0.0
  9
$USERI1
 70
     0
  9
$USERI2
 70
     0
  9
$USERI3
 70
     0
  9
$USERI4
 70
     0
  9
$USERI5
 70
     0
  9
$USERR1
 40
0.0
  9
$USERR2
 40
0.0
  9
$USERR3
 40
0.0
  9
$USERR4
 40
0.0
  9
$USERR5
 40
0.0
  9
$WORLDVIEW
 70
     1
  9
$SHADEDGE
 70
     3
  9
$SHADEDIF
 70
    70
  9
$TILEMODE
 70
     1
  9
$MAXACTVP
 70
    64
  9
$PLIMCHECK
 70
     0
  9
$PEXTMIN
 10
1.0000000000000000E+020
 20
1.0000000000000000E+020
 30
1.0000000000000000E+020
  9
$PEXTMAX
 10
-1.0000000000000000E+020
 20
-1.0000000000000000E+020
 30
-1.0000000000000000E+020
  9
$PLIMMIN
 10
0.0
 20
0.0
  9
$PLIMMAX
 10
12.0
 20
9.0
  9
$UNITMODE
 70
     0
  9
$VISRETAIN
 70
     1
  9
$PLINEGEN
 70
     0
  9
$PSLTSCALE
 70
     1
  0
ENDSEC
  0
SECTION
  2
TABLES
  0
TABLE
  2
VPORT
 70
     2
  0
VPORT
  2
*ACTIVE
 70
     0
 10
0.0
 20
0.0
 11
1.0
 21
1.0
 12
-27.60327814024793
 22
57.444271525823602
 13
0.0
 23
0.0
 14
1.0
 24
1.0
 15
0.0
 25
0.0
 16
0.0
 26
0.0
 36
1.0
 17
0.0
 27
0.0
 37
0.0
 40
8.9999999501311017
 41
2.4144144144144142
 42
50.0
 43
0.0
 44
0.0
 50
0.0
 51
0.0
 71
     0
 72
   100
 73
     1
 74
     1
 75
     0
 76
     0
 77
     0
 78
     0
  0
ENDTAB
  0
TABLE
  2
LTYPE
 70
     9
  0
LTYPE
  2
CONTINUOUS
 70
     0
  3
Solid line
 72
    65
 73
     0
 40
0.0
  0
LTYPE
  2
BORDER
 70
     0
  3
__ __ . __ __ .
 72
    65
 73
     6
 40
12.97707218585693
 49
3.7077349102448358
 49
-1.8538674551224179
 49
3.7077349102448358
 49
-1.8538674551224179
 49
0.0
 49
-1.8538674551224179
  0
LTYPE
  2
CENTER
 70
     0
  3
____ _ ____ _
 72
    65
 73
     4
 40
14.83093964097934
 49
9.2693372756120898
 49
-1.8538674551224179
 49
1.8538674551224179
 49
-1.8538674551224179
  0
LTYPE
  2
DASHDOT
 70
     0
  3
__ . __ . __ .
 72
    65
 73
     4
 40
7.4154698204896716
 49
3.7077349102448358
 49
-1.8538674551224179
 49
0.0
 49
-1.8538674551224179
  0
LTYPE
  2
DASHED
 70
     0
  3
__ __ __ __ __
 72
    65
 73
     2
 40
5.5616023653672544
 49
3.7077349102448358
 49
-1.8538674551224179
  0
LTYPE
  2
DIVIDE
 70
     0
  3
__ . . __ . . 
 72
    65
 73
     6
 40
9.2693372756120898
 49
3.7077349102448358
 49
-1.8538674551224179
 49
0.0
 49
-1.8538674551224179
 49
0.0
 49
-1.8538674551224179
  0
LTYPE
  2
DOT
 70
     0
  3
..............
 72
    65
 73
     4
 40
3.7077349102448358
 49
0.0
 49
-1.8538674551224179
 49
0.0
 49
-1.8538674551224179
  0
LTYPE
  2
HIDDEN
 70
     0
  3
_ _ _ _ _ _ _
 72
    65
 73
     2
 40
2.7808011826836272
 49
1.8538674551224179
 49
-0.9269337275612091
  0
LTYPE
  2
PHANTOM
 70
     0
  3
_____ _ _ _____ _ _ 
 72
    65
 73
     6
 40
18.53867455122418
 49
9.2693372756120898
 49
-1.8538674551224179
 49
1.8538674551224179
 49
-1.8538674551224179
 49
1.8538674551224179
 49
-1.8538674551224179
  0
ENDTAB
  0
TABLE
  2
LAYER
 70
     2
  0
LAYER
  2
0
 70
     0
 62
     7
  6
CONTINUOUS
  0
LAYER
  2
1
 70
     0
 62
     7
  6
CONTINUOUS
  0
ENDTAB
  0
TABLE
  2
STYLE
 70
     4
  0
STYLE
  2
STANDARD
 70
     0
 40
0.0
 41
1.0
 50
0.0
 71
     0
 42
3.5
  3
txt
  4

  0
STYLE
  2
SIMPLEX
 70
     0
 40
0.0
 41
1.0
 50
0.0
 71
     0
 42
3.5
  3
simplex
  4

  0
STYLE
  2
COMPLEX
 70
     0
 40
0.0
 41
1.0
 50
0.0
 71
     0
 42
3.5
  3
complex
  4

  0
STYLE
  2
ITALIC
 70
     0
 40
0.0
 41
1.0
 50
0.0
 71
     0
 42
3.5
  3
italic
  4

  0
ENDTAB
  0
TABLE
  2
VIEW
 70
     0
  0
ENDTAB
  0
TABLE
  2
UCS
 70
     0
  0
ENDTAB
  0
TABLE
  2
APPID
 70
     1
  0
APPID
  2
ACAD
 70
     0
  0
ENDTAB
  0
TABLE
  2
DIMSTYLE
 70
     1
  0
DIMSTYLE
  2
STANDARD
 70
     0
  3

  4

  5

  6

  7

 40
1.0
 41
0.18
 42
0.0625
 43
0.38
 44
0.18
 45
0.0
 46
0.0
 47
0.0
 48
0.0
140
0.18
141
0.09
142
0.0
143
25.399999999999999
144
1.0
145
0.0
146
1.0
147
0.09
 71
     0
 72
     0
 73
     1
 74
     1
 75
     0
 76
     0
 77
     0
 78
     0
170
     0
171
     2
172
     0
173
     0
174
     0
175
     0
176
     0
177
     0
178
     0
  0
ENDTAB
  0
ENDSEC
  0
SECTION
  2
BLOCKS
  0
BLOCK
  8
0
  2
$MODEL_SPACE
 70
     0
 10
0.0
 20
0.0
 30
0.0
  3
$MODEL_SPACE
  1

  0
ENDBLK
  5
20
  8
0
  0
BLOCK
 67
     1
  8
0
  2
$PAPER_SPACE
 70
     0
 10
0.0
 20
0.0
 30
0.0
  3
$PAPER_SPACE
  1

  0
ENDBLK
  5
1C
 67
     1
  8
0
  0
ENDSEC
  0
SECTION
  2
ENTITIES
  0
LINE
  5
33
  8
1
  6
DASHDOT
 62
     3
 10
133.49999999999989
 20
-0.0000000000000002
 30
0.0
 11
136.49999999999989
 21
0.0
 31
0.0
  0
LINE
  5
34
  8
1
  6
DASHDOT
 62
     3
 10
188.90291308792041
 20
22.097086912079611
 30
0.0
 11
193.49910716563281
 21
17.500892834367061
 31
0.0
  0
LINE
  5
35
  8
1
  6
DASHDOT
 62
     3
 10
188.90291308792041
 20
-22.097086912079622
 30
0.0
 11
193.49910716563281
 21
-17.5008928343671
 31
0.0
  0
LINE
  5
36
  8
1
  6
DASHDOT
 62
     3
 10
233.0970869120795
 20
-22.097086912079611
 30
0.0
 11
228.50089283436691
 21
-17.50089283436704
 31
0.0
  0
LINE
  5
37
  8
1
  6
DASHDOT
 62
     3
 10
233.0970869120795
 20
22.097086912079611
 30
0.0
 11
228.50089283436691
 21
17.500892834367061
 31
0.0
  0
LINE
  5
38
  8
1
  6
DASHDOT
 62
     3
 10
211.0
 20
1.5
 30
0.0
 11
211.0
 21
-1.5
 31
0.0
  0
LINE
  5
39
  8
1
  6
DASHDOT
 62
     3
 10
212.5
 20
0.0
 30
0.0
 11
209.5
 21
0.0
 31
0.0
  0
LINE
  5
3A
  8
1
 62
     7
 10
-2.5
 20
23.300000000000001
 30
0.0
 11
-2.5
 21
22.863726730347349
 31
0.0
  0
LINE
  5
3B
  8
1
 62
     7
 10
2.5
 20
23.300000000000001
 30
0.0
 11
2.5
 21
22.863726730347349
 31
0.0
  0
LINE
  5
3C
  8
1
 62
     7
 10
-2.5
 20
23.300000000000001
 30
0.0
 11
2.5
 21
23.300000000000001
 31
0.0
  0
LINE
  5
3D
  8
1
  6
DASHDOT
 62
     3
 10
0.0
 20
1.5
 30
0.0
 11
0.0
 21
-1.5
 31
0.0
  0
LINE
  5
3E
  8
1
  6
DASHDOT
 62
     3
 10
1.5
 20
0.0
 30
0.0
 11
-1.5
 21
0.0
 31
0.0
  0
LINE
  5
3F
  8
1
  6
DASHDOT
 62
     3
 10
-22.097086912079611
 20
-22.097086912079622
 30
0.0
 11
-17.500892834367079
 21
-17.500892834367122
 31
0.0
  0
LINE
  5
40
  8
1
  6
DASHDOT
 62
     3
 10
-22.097086912079611
 20
22.097086912079611
 30
0.0
 11
-17.500892834367079
 21
17.500892834367061
 31
0.0
  0
LINE
  5
41
  8
1
  6
DASHDOT
 62
     3
 10
22.0970869120796
 20
22.097086912079611
 30
0.0
 11
17.50089283436704
 21
17.500892834367061
 31
0.0
  0
LINE
  5
42
  8
1
  6
DASHDOT
 62
     3
 10
22.185475259727919
 20
-22.185475259727941
 30
0.0
 11
17.412504486718738
 21
-17.412504486718731
 31
0.0
  0
LINE
  5
43
  8
1
 62
     7
 10
2.4000000000000061
 20
-3.5945906403822359
 30
0.0
 11
2.4000000000000061
 21
-4.6849623113198637
 31
0.0
  0
LINE
  5
44
  8
1
 62
     7
 10
0.3000000000000114
 20
-5.5849623113198641
 30
0.0
 11
1.5
 21
-5.5849623113198641
 31
0.0
  0
LINE
  5
45
  8
1
 62
     7
 10
0.3000000000000114
 20
-5.5849623113198641
 30
0.0
 11
0.3000000000000114
 21
-4.784962311319866
 31
0.0
  0
LINE
  5
46
  8
1
 62
     7
 10
0.3000000000000114
 20
-4.784962311319866
 30
0.0
 11
1.05000000000001
 21
-4.784962311319866
 31
0.0
  0
LINE
  5
47
  8
1
 62
     7
 10
1.05000000000001
 20
-3.6849623113198651
 30
0.0
 11
0.3000000000000114
 21
-3.6849623113198651
 31
0.0
  0
LINE
  5
48
  8
1
 62
     7
 10
0.3000000000000114
 20
-3.6849623113198651
 30
0.0
 11
0.3000000000000114
 21
-2.9849623113198618
 31
0.0
  0
LINE
  5
49
  8
1
 62
     7
 10
-0.2999999999999829
 20
-2.9849623113198618
 30
0.0
 11
-0.2999999999999829
 21
-3.6849623113198651
 31
0.0
  0
LINE
  5
4A
  8
1
 62
     7
 10
-0.2999999999999829
 20
-3.6849623113198651
 30
0.0
 11
-1.0499999999999821
 21
-3.6849623113198651
 31
0.0
  0
LINE
  5
4B
  8
1
 62
     7
 10
-1.0499999999999821
 20
-4.784962311319866
 30
0.0
 11
-0.2999999999999829
 21
-4.784962311319866
 31
0.0
  0
LINE
  5
4C
  8
1
 62
     7
 10
-0.2999999999999829
 20
-4.784962311319866
 30
0.0
 11
-0.2999999999999829
 21
-5.5849623113198641
 31
0.0
  0
LINE
  5
4D
  8
1
 62
     7
 10
-1.5
 20
-5.5849623113198641
 30
0.0
 11
-0.2999999999999829
 21
-5.5849623113198641
 31
0.0
  0
LINE
  5
4E
  8
1
 62
     7
 10
-2.3999999999999768
 20
-4.6849623113198637
 30
0.0
 11
-2.3999999999999768
 21
-3.5945906403822359
 31
0.0
  0
LINE
  5
4F
  8
1
 62
     3
 10
1.3100000000000001
 20
47.499999999999993
 30
0.0
 11
1.3100000000000001
 21
44.499999999999993
 31
0.0
  0
LINE
  5
50
  8
1
 62
     3
 10
0.5300000000000001
 20
44.499999999999993
 30
0.0
 11
0.5300000000000001
 21
47.499999999999993
 31
0.0
  0
LINE
  5
51
  8
1
 62
     7
 10
1.8400000000000001
 20
44.499999999999993
 30
0.0
 11
1.8400000000000001
 21
23.300000000000001
 31
0.0
  0
LINE
  5
52
  8
1
 62
     7
 10
0.0
 20
44.499999999999993
 30
0.0
 11
0.0
 21
23.300000000000001
 31
0.0
  0
LINE
  5
53
  8
1
 62
     7
 10
-1.8400000000000001
 20
44.499999999999993
 30
0.0
 11
1.8400000000000001
 21
44.499999999999993
 31
0.0
  0
LINE
  5
54
  8
1
 62
     3
 10
-0.5300000000000001
 20
47.499999999999993
 30
0.0
 11
-0.5300000000000001
 21
44.499999999999993
 31
0.0
  0
LINE
  5
55
  8
1
 62
     3
 10
-1.3100000000000001
 20
44.499999999999993
 30
0.0
 11
-1.3100000000000001
 21
47.499999999999993
 31
0.0
  0
LINE
  5
56
  8
1
 62
     7
 10
-1.8400000000000001
 20
44.499999999999993
 30
0.0
 11
-1.8400000000000001
 21
23.300000000000001
 31
0.0
  0
LINE
  5
57
  8
1
 62
     7
 10
100.58
 20
44.499999999999993
 30
0.0
 11
102.4199999999999
 21
44.499999999999993
 31
0.0
  0
LINE
  5
58
  8
1
 62
     7
 10
100.58
 20
44.499999999999993
 30
0.0
 11
100.58
 21
23.300000000000001
 31
0.0
  0
LINE
  5
59
  8
1
 62
     7
 10
102.4199999999999
 20
44.499999999999993
 30
0.0
 11
102.4199999999999
 21
23.300000000000001
 31
0.0
  0
LINE
  5
5A
  8
1
 62
     3
 10
101.11
 20
44.499999999999993
 30
0.0
 11
101.11
 21
47.499999999999993
 31
0.0
  0
LINE
  5
5B
  8
1
 62
     3
 10
101.8899999999999
 20
47.499999999999993
 30
0.0
 11
101.8899999999999
 21
44.499999999999993
 31
0.0
  0
LINE
  5
5C
  8
1
 62
     7
 10
80.500000000000014
 20
23.0
 30
0.0
 11
105.0
 21
23.0
 31
0.0
  0
LINE
  5
5D
  8
1
 62
     7
 10
110.4999999999999
 20
21.499999999999989
 30
0.0
 11
110.4999999999999
 21
-21.500000000000011
 31
0.0
  0
LINE
  5
5E
  8
1
 62
     7
 10
80.500000000000014
 20
23.0
 30
0.0
 11
80.500000000000014
 21
-23.000000000000011
 31
0.0
  0
LINE
  5
5F
  8
1
 62
     7
 10
108.0
 20
32.499999999999993
 30
0.0
 11
105.0
 21
32.499999999999993
 31
0.0
  0
LINE
  5
60
  8
1
 62
     7
 10
110.4999999999999
 20
21.499999999999989
 30
0.0
 11
108.0
 21
21.499999999999989
 31
0.0
  0
LINE
  5
61
  8
1
 62
     7
 10
105.0
 20
-23.000000000000011
 30
0.0
 11
80.500000000000014
 21
-23.000000000000011
 31
0.0
  0
LINE
  5
62
  8
1
 62
     7
 10
108.0
 20
-21.500000000000011
 30
0.0
 11
110.4999999999999
 21
-21.500000000000011
 31
0.0
  0
LINE
  5
63
  8
1
 62
     7
 10
105.0
 20
-32.5
 30
0.0
 11
108.0
 21
-32.5
 31
0.0
  0
LINE
  5
64
  8
1
 62
     7
 10
105.0
 20
-32.5
 30
0.0
 11
105.0
 21
32.499999999999993
 31
0.0
  0
LINE
  5
65
  8
1
 62
     7
 10
111.2
 20
-5.5849623113198623
 30
0.0
 11
110.4999999999999
 21
-5.5849623113198641
 31
0.0
  0
LINE
  5
66
  8
1
 62
     7
 10
111.2
 20
3.9994894902370661
 30
0.0
 11
110.4999999999999
 21
3.9994894902370661
 31
0.0
  0
LINE
  5
67
  8
1
 62
     7
 10
79.799999999999997
 20
-5.5849623113198623
 30
0.0
 11
80.500000000000014
 21
-5.5849623113198641
 31
0.0
  0
LINE
  5
68
  8
1
 62
     7
 10
79.799999999999997
 20
3.9994894902370661
 30
0.0
 11
80.500000000000014
 21
3.9994894902370661
 31
0.0
  0
LINE
  5
69
  8
1
 62
     7
 10
77.5
 20
3.0
 30
0.0
 11
79.799999999999997
 21
3.0
 31
0.0
  0
LINE
  5
6A
  8
1
 62
     7
 10
79.799999999999997
 20
3.9994894902370661
 30
0.0
 11
79.799999999999997
 21
-5.5849623113198623
 31
0.0
  0
LINE
  5
6B
  8
1
 62
     7
 10
79.799999999999997
 20
-3.0
 30
0.0
 11
77.5
 21
-3.0
 31
0.0
  0
LINE
  5
6C
  8
1
 62
     7
 10
77.5
 20
-3.0
 30
0.0
 11
77.5
 21
3.0
 31
0.0
  0
LINE
  5
6D
  8
1
 62
     7
 10
111.2
 20
3.0
 30
0.0
 11
121.5
 21
3.0
 31
0.0
  0
LINE
  5
6E
  8
1
 62
     7
 10
133.49999999999989
 20
-3.0
 30
0.0
 11
111.2
 21
-3.0
 31
0.0
  0
LINE
  5
6F
  8
1
 62
     7
 10
111.2
 20
3.9994894902370661
 30
0.0
 11
111.2
 21
-5.5849623113198623
 31
0.0
  0
LINE
  5
70
  8
1
 62
     7
 10
133.49999999999989
 20
1.658312395177703
 30
0.0
 11
121.5
 21
1.658312395177703
 31
0.0
  0
LINE
  5
71
  8
1
 62
     7
 10
121.5
 20
1.658312395177703
 30
0.0
 11
121.5
 21
-1.658312395177703
 31
0.0
  0
LINE
  5
72
  8
1
 62
     7
 10
121.5
 20
-1.658312395177703
 30
0.0
 11
133.49999999999989
 21
-1.658312395177703
 31
0.0
  0
LINE
  5
73
  8
1
 62
     7
 10
121.5
 20
3.0
 30
0.0
 11
121.5
 21
2.5
 31
0.0
  0
LINE
  5
74
  8
1
 62
     7
 10
121.5
 20
2.5
 30
0.0
 11
133.49999999999989
 21
2.5
 31
0.0
  0
LINE
  5
75
  8
1
 62
     7
 10
133.49999999999989
 20
2.5
 30
0.0
 11
133.49999999999989
 21
-3.0
 31
0.0
  0
LINE
  5
76
  8
1
 62
     3
 10
133.49999999999989
 20
1.658312395177703
 30
0.0
 11
121.5
 21
-1.658312395177703
 31
0.0
  0
LINE
  5
77
  8
1
 62
     3
 10
121.5
 20
1.658312395177703
 30
0.0
 11
133.49999999999989
 21
-1.658312395177703
 31
0.0
  0
LINE
  5
78
  8
1
  6
DASHDOT
 62
     3
 10
74.5
 20
0.0
 30
0.0
 11
77.5
 21
0.0
 31
0.0
  0
LINE
  5
79
  8
1
 62
     7
 10
213.39999999999989
 20
-3.5945906403822359
 30
0.0
 11
213.39999999999989
 21
-4.6849623113198637
 31
0.0
  0
LINE
  5
7A
  8
1
 62
     7
 10
211.2999999999999
 20
-5.5849623113198641
 30
0.0
 11
212.5
 21
-5.5849623113198641
 31
0.0
  0
LINE
  5
7B
  8
1
 62
     7
 10
211.2999999999999
 20
-5.5849623113198641
 30
0.0
 11
211.2999999999999
 21
-4.784962311319866
 31
0.0
  0
LINE
  5
7C
  8
1
 62
     7
 10
211.2999999999999
 20
-4.784962311319866
 30
0.0
 11
212.05000000000001
 21
-4.784962311319866
 31
0.0
  0
LINE
  5
7D
  8
1
 62
     7
 10
212.05000000000001
 20
-3.6849623113198651
 30
0.0
 11
211.2999999999999
 21
-3.6849623113198651
 31
0.0
  0
LINE
  5
7E
  8
1
 62
     7
 10
211.2999999999999
 20
-3.6849623113198651
 30
0.0
 11
211.2999999999999
 21
-2.9849623113198618
 31
0.0
  0
LINE
  5
7F
  8
1
 62
     7
 10
210.6999999999999
 20
-2.9849623113198618
 30
0.0
 11
210.6999999999999
 21
-3.6849623113198651
 31
0.0
  0
LINE
  5
80
  8
1
 62
     7
 10
210.6999999999999
 20
-3.6849623113198651
 30
0.0
 11
209.9499999999999
 21
-3.6849623113198651
 31
0.0
  0
LINE
  5
81
  8
1
 62
     7
 10
209.9499999999999
 20
-4.784962311319866
 30
0.0
 11
210.6999999999999
 21
-4.784962311319866
 31
0.0
  0
LINE
  5
82
  8
1
 62
     7
 10
210.6999999999999
 20
-4.784962311319866
 30
0.0
 11
210.6999999999999
 21
-5.5849623113198641
 31
0.0
  0
LINE
  5
83
  8
1
 62
     7
 10
209.5
 20
-5.5849623113198641
 30
0.0
 11
210.6999999999999
 21
-5.5849623113198641
 31
0.0
  0
LINE
  5
84
  8
1
 62
     7
 10
208.59999999999991
 20
-4.6849623113198637
 30
0.0
 11
208.59999999999991
 21
-3.5945906403822359
 31
0.0
  0
LINE
  5
85
  8
1
 62
     7
 10
209.34168760482231
 20
2.5
 30
0.0
 11
212.6583123951776
 21
2.5
 31
0.0
  0
LINE
  5
86
  8
1
 62
     7
 10
208.49999999999989
 20
1.658312395177703
 30
0.0
 11
208.49999999999989
 21
-1.658312395177703
 31
0.0
  0
LINE
  5
87
  8
1
 62
     3
 10
212.30999999999989
 20
47.499999999999993
 30
0.0
 11
212.30999999999989
 21
44.499999999999993
 31
0.0
  0
LINE
  5
88
  8
1
 62
     3
 10
211.52999999999989
 20
44.499999999999993
 30
0.0
 11
211.52999999999989
 21
47.499999999999993
 31
0.0
  0
LINE
  5
89
  8
1
 62
     7
 10
212.84
 20
44.499999999999993
 30
0.0
 11
212.84
 21
32.460591491838208
 31
0.0
  0
LINE
  5
8A
  8
1
 62
     7
 10
211.0
 20
44.499999999999993
 30
0.0
 11
211.0
 21
32.499999999999993
 31
0.0
  0
LINE
  5
8B
  8
1
 62
     7
 10
209.16
 20
44.499999999999993
 30
0.0
 11
212.84
 21
44.499999999999993
 31
0.0
  0
LINE
  5
8C
  8
1
 62
     3
 10
210.47
 20
47.499999999999993
 30
0.0
 11
210.47
 21
44.499999999999993
 31
0.0
  0
LINE
  5
8D
  8
1
 62
     3
 10
209.69
 20
44.499999999999993
 30
0.0
 11
209.69
 21
47.499999999999993
 31
0.0
  0
LINE
  5
8E
  8
1
 62
     7
 10
209.16
 20
44.499999999999993
 30
0.0
 11
209.16
 21
32.460591491838208
 31
0.0
  0
LINE
  5
8F
  8
1
 62
     7
 10
99.0
 20
23.0
 30
0.0
 11
99.0
 21
23.300000000000001
 31
0.0
  0
LINE
  5
90
  8
1
 62
     7
 10
99.0
 20
23.300000000000001
 30
0.0
 11
104.0
 21
23.300000000000001
 31
0.0
  0
LINE
  5
91
  8
1
 62
     7
 10
104.0
 20
23.300000000000001
 30
0.0
 11
104.0
 21
23.0
 31
0.0
  0
LINE
  5
92
  8
1
 62
     7
 10
108.0
 20
-32.5
 30
0.0
 11
108.0
 21
32.499999999999993
 31
0.0
  0
LINE
  5
93
  8
1
 62
     3
 10
211.9199999999999
 20
47.499999999999993
 30
0.0
 11
211.9199999999999
 21
44.499999999999993
 31
0.0
  0
LINE
  5
94
  8
1
 62
     3
 10
210.08000000000001
 20
47.499999999999993
 30
0.0
 11
210.08000000000001
 21
44.499999999999993
 31
0.0
  0
LINE
  5
95
  8
1
 62
     3
 10
101.5
 20
47.499999999999993
 30
0.0
 11
101.5
 21
44.499999999999993
 31
0.0
  0
LINE
  5
96
  8
1
 62
     3
 10
0.9200000000000002
 20
47.499999999999993
 30
0.0
 11
0.9200000000000002
 21
44.499999999999993
 31
0.0
  0
LINE
  5
97
  8
1
 62
     3
 10
-0.9200000000000002
 20
47.499999999999993
 30
0.0
 11
-0.9200000000000002
 21
44.499999999999993
 31
0.0
  0
ARC
  5
98
  8
1
 62
     7
 10
3.8000000000000109
 20
-3.5945906403822359
 30
0.0
 40
1.4000000000000099
 50
135.80579627707149
 51
180.0
  0
ARC
  5
99
  8
1
 62
     7
 10
1.5
 20
-4.6849623113198637
 30
0.0
 40
0.8999999999999985
 50
270.0
 51
0.0
  0
ARC
  5
9A
  8
1
 62
     7
 10
-1.5
 20
-4.6849623113198637
 30
0.0
 40
0.8999999999999769
 50
180.0
 51
270.0
  0
ARC
  5
9B
  8
1
 62
     7
 10
-3.7999999999999821
 20
-3.5945906403822359
 30
0.0
 40
1.400000000000005
 50
0.0
 51
44.194203722929011
  0
ARC
  5
9C
  8
1
 62
     7
 10
214.80000000000001
 20
-3.5945906403822359
 30
0.0
 40
1.4000000000000301
 50
135.8057962770726
 51
180.0
  0
ARC
  5
9D
  8
1
 62
     7
 10
212.5
 20
-4.6849623113198637
 30
0.0
 40
0.8999999999999985
 50
270.0
 51
0.0
  0
ARC
  5
9E
  8
1
 62
     7
 10
209.5
 20
-4.6849623113198637
 30
0.0
 40
0.9000000000000056
 50
180.0
 51
270.0
  0
ARC
  5
9F
  8
1
 62
     7
 10
207.19999999999999
 20
-3.5945906403822359
 30
0.0
 40
1.400000000000005
 50
0.0
 51
44.194203722927519
  0
ARC
  5
A0
  8
1
  6
DASHDOT
 62
     3
 10
211.0
 20
0.0
 30
0.0
 40
28.000000000000021
 50
128.34585809844381
 51
141.6541419015559
  0
ARC
  5
A1
  8
1
  6
DASHDOT
 62
     3
 10
211.0
 20
0.0
 30
0.0
 40
27.999999999999979
 50
218.34585809844401
 51
231.6541419015561
  0
ARC
  5
A2
  8
1
  6
DASHDOT
 62
     3
 10
211.0
 20
0.0
 30
0.0
 40
28.000000000000071
 50
308.34585809844373
 51
321.65414190155622
  0
ARC
  5
A3
  8
1
  6
DASHDOT
 62
     3
 10
211.0
 20
0.0
 30
0.0
 40
28.000000000000028
 50
38.345858098443863
 51
51.65414190155613
  0
ARC
  5
A4
  8
1
  6
DASHDOT
 62
     3
 10
0.0
 20
0.0
 30
0.0
 40
28.0
 50
218.3458580984439
 51
231.6541419015561
  0
ARC
  5
A5
  8
1
  6
DASHDOT
 62
     3
 10
0.0
 20
0.0
 30
0.0
 40
28.0
 50
308.34585809844373
 51
321.65414190155622
  0
ARC
  5
A6
  8
1
  6
DASHDOT
 62
     3
 10
0.0
 20
0.0
 30
0.0
 40
28.0
 50
128.34585809844381
 51
141.65414190155599
  0
ARC
  5
A7
  8
1
  6
DASHDOT
 62
     3
 10
0.0
 20
0.0
 30
0.0
 40
28.0
 50
38.345858098443898
 51
51.65414190155613
  0
ARC
  5
A8
  8
1
 62
     7
 10
1.05000000000001
 20
-4.2349623113198609
 30
0.0
 40
0.5500000000000043
 50
270.0
 51
90.0
  0
ARC
  5
A9
  8
1
 62
     7
 10
-1.0499999999999821
 20
-4.2349623113198609
 30
0.0
 40
0.5499999999999968
 50
90.0
 51
270.0
  0
ARC
  5
AA
  8
1
 62
     7
 10
0.0
 20
0.0999999999999944
 30
0.0
 40
3.8999999999999959
 50
315.80579627707152
 51
224.19420372292851
  0
ARC
  5
AB
  8
1
 62
     7
 10
212.05000000000001
 20
-4.2349623113198609
 30
0.0
 40
0.5500000000000043
 50
270.0
 51
90.0
  0
ARC
  5
AC
  8
1
 62
     7
 10
209.9499999999999
 20
-4.2349623113198609
 30
0.0
 40
0.5499999999999968
 50
90.0
 51
270.0
  0
ARC
  5
AD
  8
1
 62
     7
 10
211.0
 20
0.0999999999999944
 30
0.0
 40
3.899999999999975
 50
315.80579627707112
 51
224.19420372292879
  0
ARC
  5
AE
  8
1
 62
     7
 10
211.0
 20
0.0
 30
0.0
 40
3.0
 50
90.0
 51
0.0
  0
ARC
  5
AF
  8
1
 62
     7
 10
211.0
 20
0.0
 30
0.0
 40
3.0
 50
0.0
 51
90.0
  0
ARC
  5
B0
  8
1
 62
     7
 10
0.0
 20
0.0
 30
0.0
 40
32.499999999999993
 50
93.245558003321449
 51
86.754441996678523
  0
CIRCLE
  5
B1
  8
1
 62
     7
 10
0.0
 20
0.0
 30
0.0
 40
3.0
  0
CIRCLE
  5
B2
  8
1
 62
     7
 10
211.0
 20
0.0
 30
0.0
 40
23.0
  0
CIRCLE
  5
B3
  8
1
 62
     7
 10
0.0
 20
0.0
 30
0.0
 40
13.0
  0
CIRCLE
  5
B4
  8
1
 62
     7
 10
0.0
 20
0.0
 30
0.0
 40
23.0
  0
CIRCLE
  5
B5
  8
1
 62
     7
 10
0.0
 20
0.0
 30
0.0
 40
20.5
  0
CIRCLE
  5
B6
  8
1
 62
     7
 10
0.0
 20
0.0
 30
0.0
 40
7.5
  0
CIRCLE
  5
B7
  8
1
 62
     7
 10
19.79898987322332
 20
19.79898987322332
 30
0.0
 40
2.25
  0
CIRCLE
  5
B8
  8
1
 62
     7
 10
-19.79898987322332
 20
19.798989873223299
 30
0.0
 40
2.25
  0
CIRCLE
  5
B9
  8
1
 62
     7
 10
-19.79898987322332
 20
-19.798989873223341
 30
0.0
 40
2.25
  0
CIRCLE
  5
BA
  8
1
 62
     7
 10
19.798989873223348
 20
-19.798989873223341
 30
0.0
 40
2.25
  0
CIRCLE
  5
BB
  8
1
 62
     7
 10
211.0
 20
0.0
 30
0.0
 40
13.0
  0
CIRCLE
  5
BC
  8
1
 62
     7
 10
211.0
 20
0.0
 30
0.0
 40
21.499999999999989
  0
CIRCLE
  5
BD
  8
1
 62
     7
 10
211.0
 20
0.0
 30
0.0
 40
32.5
  0
CIRCLE
  5
BE
  8
1
 62
     7
 10
211.0
 20
0.0
 30
0.0
 40
20.5
  0
CIRCLE
  5
BF
  8
1
 62
     7
 10
211.0
 20
0.0
 30
0.0
 40
7.5
  0
CIRCLE
  5
C0
  8
1
 62
     7
 10
230.79898987322329
 20
19.79898987322332
 30
0.0
 40
2.25
  0
CIRCLE
  5
C1
  8
1
 62
     7
 10
191.20101012677671
 20
19.798989873223299
 30
0.0
 40
2.25
  0
CIRCLE
  5
C2
  8
1
 62
     7
 10
191.20101012677671
 20
-19.798989873223341
 30
0.0
 40
2.25
  0
CIRCLE
  5
C3
  8
1
 62
     7
 10
230.79898987322329
 20
-19.798989873223341
 30
0.0
 40
2.25
  0
TEXT
  5
C5
  8
1
 62
     7
 10
-38.225353178607499
 20
58.202119071644802
 30
0.0
 40
3.5
  1
OPB 5N
 41
0.9
  7
SIMPLEX
 72
     1
 11
-29.4503531786075
 21
58.202119071644802
 31
0.0
  0
ENDSEC
  0
EOF
