  0
SECTION
  2
HEADER
  9
$ACADVER
  1
AC1009
  9
$INSBASE
 10
0.0
 20
0.0
 30
0.0
  9
$EXTMIN
 10
-53.071536687328788
 20
-46.0
 30
0.0
  9
$EXTMAX
 10
334.00000000000011
 20
77.949545913219012
 30
0.0
  9
$LIMMIN
 10
-53.473792945795708
 20
-46.0
  9
$LIMMAX
 10
334.00000000000011
 20
77.949545913218998
  9
$ORTHOMODE
 70
     0
  9
$REGENMODE
 70
     1
  9
$FILLMODE
 70
     1
  9
$QTEXTMODE
 70
     0
  9
$MIRRTEXT
 70
     1
  9
$DRAGMODE
 70
     2
  9
$LTSCALE
 40
1.0
  9
$OSMODE
 70
    37
  9
$ATTMODE
 70
     1
  9
$TEXTSIZE
 40
3.5
  9
$TRACEWID
 40
0.5
  9
$TEXTSTYLE
  7
STANDARD
  9
$CLAYER
  8
0
  9
$CELTYPE
  6
BYLAYER
  9
$CECOLOR
 62
   256
  9
$DIMSCALE
 40
1.0
  9
$DIMASZ
 40
0.18
  9
$DIMEXO
 40
0.0625
  9
$DIMDLI
 40
0.38
  9
$DIMRND
 40
0.0
  9
$DIMDLE
 40
0.0
  9
$DIMEXE
 40
0.18
  9
$DIMTP
 40
0.0
  9
$DIMTM
 40
0.0
  9
$DIMTXT
 40
0.18
  9
$DIMCEN
 40
0.09
  9
$DIMTSZ
 40
0.0
  9
$DIMTOL
 70
     0
  9
$DIMLIM
 70
     0
  9
$DIMTIH
 70
     1
  9
$DIMTOH
 70
     1
  9
$DIMSE1
 70
     0
  9
$DIMSE2
 70
     0
  9
$DIMTAD
 70
     0
  9
$DIMZIN
 70
     0
  9
$DIMBLK
  1

  9
$DIMASO
 70
     1
  9
$DIMSHO
 70
     1
  9
$DIMPOST
  1

  9
$DIMAPOST
  1

  9
$DIMALT
 70
     0
  9
$DIMALTD
 70
     2
  9
$DIMALTF
 40
25.399999999999999
  9
$DIMLFAC
 40
1.0
  9
$DIMTOFL
 70
     0
  9
$DIMTVP
 40
0.0
  9
$DIMTIX
 70
     0
  9
$DIMSOXD
 70
     0
  9
$DIMSAH
 70
     0
  9
$DIMBLK1
  1

  9
$DIMBLK2
  1

  9
$DIMSTYLE
  2
STANDARD
  9
$DIMCLRD
 70
     0
  9
$DIMCLRE
 70
     0
  9
$DIMCLRT
 70
     0
  9
$DIMTFAC
 40
1.0
  9
$DIMGAP
 40
0.09
  9
$LUNITS
 70
     2
  9
$LUPREC
 70
     4
  9
$SKETCHINC
 40
0.1
  9
$FILLETRAD
 40
2.0
  9
$AUNITS
 70
     0
  9
$AUPREC
 70
     0
  9
$MENU
  1
ACAD
  9
$ELEVATION
 40
0.0
  9
$PELEVATION
 40
0.0
  9
$THICKNESS
 40
0.0
  9
$LIMCHECK
 70
     0
  9
$BLIPMODE
 70
     0
  9
$CHAMFERA
 40
0.0
  9
$CHAMFERB
 40
0.0
  9
$SKPOLY
 70
     0
  9
$TDCREATE
 40
2452095.1145444438
  9
$TDUPDATE
 40
2452095.1149518508
  9
$TDINDWG
 40
0.0004188657
  9
$TDUSRTIMER
 40
0.0004188657
  9
$USRTIMER
 70
     1
  9
$ANGBASE
 50
0.0
  9
$ANGDIR
 70
     0
  9
$PDMODE
 70
     0
  9
$PDSIZE
 40
0.0
  9
$PLINEWID
 40
0.0
  9
$COORDS
 70
     1
  9
$SPLFRAME
 70
     0
  9
$SPLINETYPE
 70
     6
  9
$SPLINESEGS
 70
     8
  9
$ATTDIA
 70
     0
  9
$ATTREQ
 70
     1
  9
$HANDLING
 70
 10241
  9
$HANDSEED
  5
F2
  9
$SURFTAB1
 70
     6
  9
$SURFTAB2
 70
     6
  9
$SURFTYPE
 70
     6
  9
$SURFU
 70
     6
  9
$SURFV
 70
     6
  9
$UCSNAME
  2

  9
$UCSORG
 10
0.0
 20
0.0
 30
0.0
  9
$UCSXDIR
 10
1.0
 20
0.0
 30
0.0
  9
$UCSYDIR
 10
0.0
 20
1.0
 30
0.0
  9
$PUCSNAME
  2

  9
$PUCSORG
 10
0.0
 20
0.0
 30
0.0
  9
$PUCSXDIR
 10
1.0
 20
0.0
 30
0.0
  9
$PUCSYDIR
 10
0.0
 20
1.0
 30
0.0
  9
$USERI1
 70
     0
  9
$USERI2
 70
     0
  9
$USERI3
 70
     0
  9
$USERI4
 70
     0
  9
$USERI5
 70
     0
  9
$USERR1
 40
0.0
  9
$USERR2
 40
0.0
  9
$USERR3
 40
0.0
  9
$USERR4
 40
0.0
  9
$USERR5
 40
0.0
  9
$WORLDVIEW
 70
     1
  9
$SHADEDGE
 70
     3
  9
$SHADEDIF
 70
    70
  9
$TILEMODE
 70
     1
  9
$MAXACTVP
 70
    64
  9
$PLIMCHECK
 70
     0
  9
$PEXTMIN
 10
1.0000000000000000E+020
 20
1.0000000000000000E+020
 30
1.0000000000000000E+020
  9
$PEXTMAX
 10
-1.0000000000000000E+020
 20
-1.0000000000000000E+020
 30
-1.0000000000000000E+020
  9
$PLIMMIN
 10
0.0
 20
0.0
  9
$PLIMMAX
 10
12.0
 20
9.0
  9
$UNITMODE
 70
     0
  9
$VISRETAIN
 70
     1
  9
$PLINEGEN
 70
     0
  9
$PSLTSCALE
 70
     1
  0
ENDSEC
  0
SECTION
  2
TABLES
  0
TABLE
  2
VPORT
 70
     2
  0
VPORT
  2
*ACTIVE
 70
     0
 10
0.0
 20
0.0
 11
1.0
 21
1.0
 12
-39.591347351922408
 22
73.691698055540286
 13
0.0
 23
0.0
 14
1.0
 24
1.0
 15
0.0
 25
0.0
 16
0.0
 26
0.0
 36
1.0
 17
0.0
 27
0.0
 37
0.0
 40
9.0000001409310357
 41
2.4144144144144142
 42
50.0
 43
0.0
 44
0.0
 50
0.0
 51
0.0
 71
     0
 72
   100
 73
     1
 74
     1
 75
     0
 76
     0
 77
     0
 78
     0
  0
ENDTAB
  0
TABLE
  2
LTYPE
 70
     9
  0
LTYPE
  2
CONTINUOUS
 70
     0
  3
Solid line
 72
    65
 73
     0
 40
0.0
  0
LTYPE
  2
BORDER
 70
     0
  3
__ __ . __ __ .
 72
    65
 73
     6
 40
17.844187833030059
 49
5.0983393808657347
 49
-2.549169690432866
 49
5.0983393808657347
 49
-2.549169690432866
 49
0.0
 49
-2.549169690432866
  0
LTYPE
  2
CENTER
 70
     0
  3
____ _ ____ _
 72
    65
 73
     4
 40
20.393357523462939
 49
12.74584845216434
 49
-2.549169690432866
 49
2.549169690432866
 49
-2.549169690432866
  0
LTYPE
  2
DASHDOT
 70
     0
  3
__ . __ . __ .
 72
    65
 73
     4
 40
10.196678761731469
 49
5.0983393808657347
 49
-2.549169690432866
 49
0.0
 49
-2.549169690432866
  0
LTYPE
  2
DASHED
 70
     0
  3
__ __ __ __ __
 72
    65
 73
     2
 40
7.647509071298602
 49
5.0983393808657347
 49
-2.549169690432866
  0
LTYPE
  2
DIVIDE
 70
     0
  3
__ . . __ . . 
 72
    65
 73
     6
 40
12.74584845216434
 49
5.0983393808657347
 49
-2.549169690432866
 49
0.0
 49
-2.549169690432866
 49
0.0
 49
-2.549169690432866
  0
LTYPE
  2
DOT
 70
     0
  3
..............
 72
    65
 73
     4
 40
5.0983393808657347
 49
0.0
 49
-2.549169690432866
 49
0.0
 49
-2.549169690432866
  0
LTYPE
  2
HIDDEN
 70
     0
  3
_ _ _ _ _ _ _
 72
    65
 73
     2
 40
3.823754535649301
 49
2.549169690432866
 49
-1.2745848452164339
  0
LTYPE
  2
PHANTOM
 70
     0
  3
_____ _ _ _____ _ _ 
 72
    65
 73
     6
 40
25.49169690432867
 49
12.74584845216434
 49
-2.549169690432866
 49
2.549169690432866
 49
-2.549169690432866
 49
2.549169690432866
 49
-2.549169690432866
  0
ENDTAB
  0
TABLE
  2
LAYER
 70
     2
  0
LAYER
  2
0
 70
     0
 62
     7
  6
CONTINUOUS
  0
LAYER
  2
1
 70
     0
 62
     7
  6
CONTINUOUS
  0
ENDTAB
  0
TABLE
  2
STYLE
 70
     4
  0
STYLE
  2
STANDARD
 70
     0
 40
0.0
 41
1.0
 50
0.0
 71
     0
 42
3.5
  3
txt
  4

  0
STYLE
  2
SIMPLEX
 70
     0
 40
0.0
 41
1.0
 50
0.0
 71
     0
 42
3.5
  3
simplex
  4

  0
STYLE
  2
COMPLEX
 70
     0
 40
0.0
 41
1.0
 50
0.0
 71
     0
 42
3.5
  3
complex
  4

  0
STYLE
  2
ITALIC
 70
     0
 40
0.0
 41
1.0
 50
0.0
 71
     0
 42
3.5
  3
italic
  4

  0
ENDTAB
  0
TABLE
  2
VIEW
 70
     0
  0
ENDTAB
  0
TABLE
  2
UCS
 70
     0
  0
ENDTAB
  0
TABLE
  2
APPID
 70
     1
  0
APPID
  2
ACAD
 70
     0
  0
ENDTAB
  0
TABLE
  2
DIMSTYLE
 70
     1
  0
DIMSTYLE
  2
STANDARD
 70
     0
  3

  4

  5

  6

  7

 40
1.0
 41
0.18
 42
0.0625
 43
0.38
 44
0.18
 45
0.0
 46
0.0
 47
0.0
 48
0.0
140
0.18
141
0.09
142
0.0
143
25.399999999999999
144
1.0
145
0.0
146
1.0
147
0.09
 71
     0
 72
     0
 73
     1
 74
     1
 75
     0
 76
     0
 77
     0
 78
     0
170
     0
171
     2
172
     0
173
     0
174
     0
175
     0
176
     0
177
     0
178
     0
  0
ENDTAB
  0
ENDSEC
  0
SECTION
  2
BLOCKS
  0
BLOCK
  8
0
  2
$MODEL_SPACE
 70
     0
 10
0.0
 20
0.0
 30
0.0
  3
$MODEL_SPACE
  1

  0
ENDBLK
  5
20
  8
0
  0
BLOCK
 67
     1
  8
0
  2
$PAPER_SPACE
 70
     0
 10
0.0
 20
0.0
 30
0.0
  3
$PAPER_SPACE
  1

  0
ENDBLK
  5
1C
 67
     1
  8
0
  0
ENDSEC
  0
SECTION
  2
ENTITIES
  0
LINE
  5
33
  8
1
 62
     7
 10
113.0000000000001
 20
-17.5
 30
0.0
 11
113.0000000000001
 21
17.5
 31
0.0
  0
LINE
  5
34
  8
1
  6
DASHDOT
 62
     3
 10
286.50000000000011
 20
0.0
 30
0.0
 11
289.50000000000011
 21
0.0
 31
0.0
  0
LINE
  5
35
  8
1
  6
DASHDOT
 62
     3
 10
288.00000000000011
 20
1.5
 30
0.0
 11
288.00000000000011
 21
-1.499999999999992
 31
0.0
  0
LINE
  5
36
  8
1
  6
DASHDOT
 62
     3
 10
319.2894750675049
 20
31.289475067504739
 30
0.0
 11
314.6932809897923
 21
26.693280989792171
 31
0.0
  0
LINE
  5
37
  8
1
  6
DASHDOT
 62
     3
 10
256.71052493249528
 20
31.289475067504721
 30
0.0
 11
261.30671901020781
 21
26.693280989792171
 31
0.0
  0
LINE
  5
38
  8
1
  6
DASHDOT
 62
     3
 10
256.71052493249539
 20
-31.28947506750476
 30
0.0
 11
261.30671901020793
 21
-26.6932809897922
 31
0.0
  0
LINE
  5
39
  8
1
  6
DASHDOT
 62
     3
 10
319.2894750675049
 20
-31.289475067504721
 30
0.0
 11
314.6932809897923
 21
-26.693280989792171
 31
0.0
  0
LINE
  5
3A
  8
1
 62
     7
 10
-2.3979157616563498
 20
5.5
 30
0.0
 11
2.3979157616563498
 21
5.5
 31
0.0
  0
LINE
  5
3B
  8
1
 62
     7
 10
146.0
 20
35.169972906560979
 30
0.0
 11
146.0
 21
34.5
 31
0.0
  0
LINE
  5
3C
  8
1
 62
     7
 10
140.0
 20
35.169972906560979
 30
0.0
 11
146.0
 21
35.169972906560979
 31
0.0
  0
LINE
  5
3D
  8
1
 62
     7
 10
140.0
 20
35.169972906560979
 30
0.0
 11
140.0
 21
34.5
 31
0.0
  0
LINE
  5
3E
  8
1
 62
     7
 10
289.84000000000032
 20
65.0
 30
0.0
 11
289.84000000000032
 21
45.955426489502109
 31
0.0
  0
LINE
  5
3F
  8
1
 62
     7
 10
155.0
 20
34.5
 30
0.0
 11
170.0
 21
34.5
 31
0.0
  0
LINE
  5
40
  8
1
 62
     7
 10
155.0
 20
46.0
 30
0.0
 11
155.0
 21
-46.0
 31
0.0
  0
LINE
  5
41
  8
1
 62
     7
 10
151.0
 20
46.0
 30
0.0
 11
155.0
 21
46.0
 31
0.0
  0
LINE
  5
42
  8
1
 62
     7
 10
151.0
 20
46.0
 30
0.0
 11
151.0
 21
-46.0
 31
0.0
  0
LINE
  5
43
  8
1
 62
     7
 10
119.0
 20
34.5
 30
0.0
 11
151.0
 21
34.5
 31
0.0
  0
LINE
  5
44
  8
1
 62
     7
 10
151.0
 20
-34.5
 30
0.0
 11
119.0
 21
-34.500000000000007
 31
0.0
  0
LINE
  5
45
  8
1
 62
     7
 10
155.0
 20
-46.0
 30
0.0
 11
151.0
 21
-46.0
 31
0.0
  0
LINE
  5
46
  8
1
 62
     7
 10
170.0
 20
-34.500000000000007
 30
0.0
 11
155.0
 21
-34.5
 31
0.0
  0
LINE
  5
47
  8
1
 62
     7
 10
111.0
 20
-17.5
 30
0.0
 11
111.0
 21
17.5
 31
0.0
  0
LINE
  5
48
  8
1
 62
     7
 10
117.5
 20
-17.5
 30
0.0
 11
111.0
 21
-17.5
 31
0.0
  0
LINE
  5
49
  8
1
 62
     7
 10
111.0
 20
17.5
 30
0.0
 11
117.5
 21
17.5
 31
0.0
  0
LINE
  5
4A
  8
1
 62
     3
 10
106.0
 20
2.39791576165636
 30
0.0
 11
85.999999999999957
 21
-2.397915761656356
 31
0.0
  0
LINE
  5
4B
  8
1
 62
     3
 10
85.999999999999957
 20
2.3979157616563569
 30
0.0
 11
106.0
 21
-2.3979157616563578
 31
0.0
  0
LINE
  5
4C
  8
1
 62
     7
 10
106.0
 20
-2.3979157616563578
 30
0.0
 11
85.999999999999957
 21
-2.397915761656356
 31
0.0
  0
LINE
  5
4D
  8
1
 62
     7
 10
106.0
 20
2.39791576165636
 30
0.0
 11
106.0
 21
-2.3979157616563578
 31
0.0
  0
LINE
  5
4E
  8
1
 62
     7
 10
85.999999999999957
 20
2.3979157616563569
 30
0.0
 11
106.0
 21
2.39791576165636
 31
0.0
  0
LINE
  5
4F
  8
1
 62
     3
 10
202.0
 20
2.39791576165636
 30
0.0
 11
182.0
 21
-2.3979157616563591
 31
0.0
  0
LINE
  5
50
  8
1
 62
     3
 10
182.0
 20
2.39791576165636
 30
0.0
 11
202.0
 21
-2.3979157616563591
 31
0.0
  0
LINE
  5
51
  8
1
 62
     7
 10
182.0
 20
-2.3979157616563591
 30
0.0
 11
202.0
 21
-2.3979157616563591
 31
0.0
  0
LINE
  5
52
  8
1
 62
     7
 10
182.0
 20
2.39791576165636
 30
0.0
 11
182.0
 21
-2.3979157616563591
 31
0.0
  0
LINE
  5
53
  8
1
 62
     7
 10
202.0
 20
2.39791576165636
 30
0.0
 11
182.0
 21
2.39791576165636
 31
0.0
  0
LINE
  5
54
  8
1
 62
     7
 10
202.0
 20
-6.0
 30
0.0
 11
178.0000000000002
 21
-6.0
 31
0.0
  0
LINE
  5
55
  8
1
 62
     7
 10
202.0
 20
5.5
 30
0.0
 11
202.0
 21
-6.0
 31
0.0
  0
LINE
  5
56
  8
1
 62
     7
 10
182.0
 20
5.5
 30
0.0
 11
202.0
 21
5.5
 31
0.0
  0
LINE
  5
57
  8
1
 62
     7
 10
182.0
 20
6.0
 30
0.0
 11
182.0
 21
5.5
 31
0.0
  0
LINE
  5
58
  8
1
 62
     7
 10
178.0000000000002
 20
6.0
 30
0.0
 11
182.0
 21
6.0
 31
0.0
  0
LINE
  5
59
  8
1
 62
     7
 10
110.0
 20
-6.0
 30
0.0
 11
86.0
 21
-6.0
 31
0.0
  0
LINE
  5
5A
  8
1
 62
     7
 10
106.0
 20
5.9999999999999991
 30
0.0
 11
110.0
 21
6.0000000000000027
 31
0.0
  0
LINE
  5
5B
  8
1
 62
     7
 10
106.0
 20
5.5
 30
0.0
 11
106.0
 21
5.9999999999999991
 31
0.0
  0
LINE
  5
5C
  8
1
 62
     7
 10
86.0
 20
5.5
 30
0.0
 11
106.0
 21
5.5
 31
0.0
  0
LINE
  5
5D
  8
1
 62
     7
 10
86.0
 20
-6.0
 30
0.0
 11
86.0
 21
5.5
 31
0.0
  0
LINE
  5
5E
  8
1
 62
     7
 10
171.0
 20
-27.0
 30
0.0
 11
177.0
 21
-27.0
 31
0.0
  0
LINE
  5
5F
  8
1
 62
     7
 10
170.0
 20
-20.5
 30
0.0
 11
171.0
 21
-20.5
 31
0.0
  0
LINE
  5
60
  8
1
  6
DASHDOT
 62
     3
 10
83.0
 20
0.0
 30
0.0
 11
86.0
 21
0.0
 31
0.0
  0
LINE
  5
61
  8
1
 62
     7
 10
171.0
 20
20.5
 30
0.0
 11
170.0
 21
20.5
 31
0.0
  0
LINE
  5
62
  8
1
 62
     7
 10
177.0
 20
27.0
 30
0.0
 11
171.0
 21
27.0
 31
0.0
  0
LINE
  5
63
  8
1
 62
     7
 10
177.0000000000002
 20
8.0000000000000124
 30
0.0
 11
178.0000000000002
 21
8.0000000000000124
 31
0.0
  0
LINE
  5
64
  8
1
 62
     7
 10
178.0000000000002
 20
8.0000000000000124
 30
0.0
 11
178.0000000000002
 21
-8.95902676617583
 31
0.0
  0
LINE
  5
65
  8
1
 62
     7
 10
178.0000000000002
 20
-8.95902676617583
 30
0.0
 11
177.0000000000002
 21
-8.9590267661758318
 31
0.0
  0
LINE
  5
66
  8
1
 62
     7
 10
111.0
 20
8.0000000000000124
 30
0.0
 11
110.0
 21
8.0000000000000124
 31
0.0
  0
LINE
  5
67
  8
1
 62
     7
 10
110.0
 20
8.0000000000000124
 30
0.0
 11
110.0
 21
-8.95902676617583
 31
0.0
  0
LINE
  5
68
  8
1
 62
     7
 10
110.0
 20
-8.95902676617583
 30
0.0
 11
111.0
 21
-8.9590267661758318
 31
0.0
  0
LINE
  5
69
  8
1
 62
     7
 10
119.0
 20
19.700000000000038
 30
0.0
 11
117.5
 21
19.700000000000031
 31
0.0
  0
LINE
  5
6A
  8
1
 62
     7
 10
117.5
 20
19.700000000000031
 30
0.0
 11
117.5
 21
-22.451647486698779
 31
0.0
  0
LINE
  5
6B
  8
1
 62
     7
 10
117.5
 20
-22.451647486698779
 30
0.0
 11
119.0
 21
-22.451647486698779
 31
0.0
  0
LINE
  5
6C
  8
1
 62
     7
 10
119.0
 20
34.5
 30
0.0
 11
119.0
 21
-34.500000000000007
 31
0.0
  0
LINE
  5
6D
  8
1
 62
     3
 10
289.31000000000012
 20
65.0
 30
0.0
 11
289.31000000000012
 21
70.0
 31
0.0
  0
LINE
  5
6E
  8
1
 62
     3
 10
288.52999999999997
 20
70.0
 30
0.0
 11
288.52999999999997
 21
65.0
 31
0.0
  0
LINE
  5
6F
  8
1
 62
     7
 10
177.0
 20
27.0
 30
0.0
 11
177.0
 21
-27.0
 31
0.0
  0
LINE
  5
70
  8
1
  6
DASHDOT
 62
     3
 10
288.00000000000011
 20
26.0
 30
0.0
 11
288.00000000000011
 21
20.0
 31
0.0
  0
LINE
  5
71
  8
1
  6
DASHDOT
 62
     3
 10
288.00000000000011
 20
-25.999999999999918
 30
0.0
 11
288.0
 21
-20.000000000000028
 31
0.0
  0
LINE
  5
72
  8
1
  6
DASHDOT
 62
     3
 10
314.00000000000011
 20
0.0000000000000351
 30
0.0
 11
308.00000000000011
 21
0.0000000000000401
 31
0.0
  0
LINE
  5
73
  8
1
 62
     3
 10
286.69000000000023
 20
70.0
 30
0.0
 11
286.69000000000023
 21
65.0
 31
0.0
  0
LINE
  5
74
  8
1
 62
     7
 10
286.16000000000008
 20
65.0
 30
0.0
 11
286.16000000000008
 21
45.95542648950213
 31
0.0
  0
LINE
  5
75
  8
1
 62
     7
 10
288.00000000000011
 20
65.0
 30
0.0
 11
288.00000000000011
 21
46.0
 31
0.0
  0
LINE
  5
76
  8
1
 62
     7
 10
143.9199999999999
 20
35.169972906560979
 30
0.0
 11
143.9199999999999
 21
65.0
 31
0.0
  0
LINE
  5
77
  8
1
 62
     7
 10
142.08000000000001
 20
35.169972906560979
 30
0.0
 11
142.07999999999981
 21
65.0
 31
0.0
  0
LINE
  5
78
  8
1
 62
     7
 10
170.0
 20
34.5
 30
0.0
 11
170.0
 21
-34.500000000000007
 31
0.0
  0
LINE
  5
79
  8
1
 62
     7
 10
171.0
 20
-27.0
 30
0.0
 11
171.0
 21
27.0
 31
0.0
  0
LINE
  5
7A
  8
1
  6
DASHDOT
 62
     3
 10
202.0
 20
0.0
 30
0.0
 11
205.0
 21
0.0
 31
0.0
  0
LINE
  5
7B
  8
1
 62
     7
 10
286.16000000000008
 20
65.0
 30
0.0
 11
289.84000000000032
 21
65.0
 31
0.0
  0
LINE
  5
7C
  8
1
 62
     3
 10
287.47000000000008
 20
70.0
 30
0.0
 11
287.47000000000008
 21
65.0
 31
0.0
  0
LINE
  5
7D
  8
1
 62
     7
 10
143.9199999999999
 20
65.0
 30
0.0
 11
142.07999999999981
 21
65.0
 31
0.0
  0
LINE
  5
7E
  8
1
 62
     3
 10
143.3899999999999
 20
70.0
 30
0.0
 11
143.3899999999999
 21
65.0
 31
0.0
  0
LINE
  5
7F
  8
1
 62
     3
 10
142.61000000000001
 20
70.0
 30
0.0
 11
142.61000000000001
 21
65.0
 31
0.0
  0
LINE
  5
80
  8
1
 62
     7
 10
1.8400000000000001
 20
65.0
 30
0.0
 11
1.8400000000000001
 21
35.169972906560979
 31
0.0
  0
LINE
  5
81
  8
1
 62
     3
 10
1.3100000000000001
 20
65.0
 30
0.0
 11
1.3100000000000001
 21
70.0
 31
0.0
  0
LINE
  5
82
  8
1
 62
     3
 10
0.5299999999999999
 20
70.0
 30
0.0
 11
0.5299999999999999
 21
65.0
 31
0.0
  0
LINE
  5
83
  8
1
 62
     7
 10
5.5
 20
2.39791576165636
 30
0.0
 11
5.5
 21
-2.3979157616563578
 31
0.0
  0
LINE
  5
84
  8
1
 62
     3
 10
-1.3100000000000041
 20
70.0
 30
0.0
 11
-1.3100000000000041
 21
65.0
 31
0.0
  0
LINE
  5
85
  8
1
 62
     7
 10
-1.8400000000000001
 20
65.0
 30
0.0
 11
-1.8400000000000001
 21
35.169972906560979
 31
0.0
  0
LINE
  5
86
  8
1
 62
     7
 10
0.0
 20
65.0
 30
0.0
 11
0.0
 21
35.169972906560979
 31
0.0
  0
LINE
  5
87
  8
1
  6
DASHDOT
 62
     3
 10
-1.5
 20
0.0
 30
0.0
 11
1.5
 21
0.0
 31
0.0
  0
LINE
  5
88
  8
1
  6
DASHDOT
 62
     3
 10
0.0
 20
1.5
 30
0.0
 11
0.0
 21
-1.499999999999992
 31
0.0
  0
LINE
  5
89
  8
1
 62
     7
 10
-1.8400000000000001
 20
65.0
 30
0.0
 11
1.8400000000000001
 21
65.0
 31
0.0
  0
LINE
  5
8A
  8
1
 62
     3
 10
-0.5299999999999999
 20
70.0
 30
0.0
 11
-0.5299999999999999
 21
65.0
 31
0.0
  0
LINE
  5
8B
  8
1
 62
     7
 10
-3.0
 20
35.169972906560979
 30
0.0
 11
3.0
 21
35.169972906560979
 31
0.0
  0
LINE
  5
8C
  8
1
 62
     7
 10
3.0
 20
35.169972906560979
 30
0.0
 11
3.0
 21
34.374685927665503
 31
0.0
  0
LINE
  5
8D
  8
1
 62
     7
 10
-3.0
 20
35.169972906560979
 30
0.0
 11
-3.0
 21
34.374685927665503
 31
0.0
  0
LINE
  5
8E
  8
1
 62
     7
 10
285.60208423834382
 20
5.5
 30
0.0
 11
290.39791576165652
 21
5.5
 31
0.0
  0
LINE
  5
8F
  8
1
 62
     7
 10
282.50000000000011
 20
-2.3979157616563591
 30
0.0
 11
282.50000000000011
 21
2.39791576165636
 31
0.0
  0
LINE
  5
90
  8
1
 62
     7
 10
283.80000000000013
 20
-7.0590267661758306
 30
0.0
 11
283.80000000000013
 21
-6.0847657912234112
 31
0.0
  0
LINE
  5
91
  8
1
 62
     7
 10
285.69999999999987
 20
-8.9590267661758318
 30
0.0
 11
287.30000000000013
 21
-8.9590267661758318
 31
0.0
  0
LINE
  5
92
  8
1
 62
     7
 10
287.30000000000013
 20
-5.9590267661758309
 30
0.0
 11
287.30000000000013
 21
-8.9590267661758318
 31
0.0
  0
LINE
  5
93
  8
1
 62
     7
 10
288.69999999999999
 20
-8.9590267661758318
 30
0.0
 11
288.69999999999999
 21
-5.9590267661758309
 31
0.0
  0
LINE
  5
94
  8
1
 62
     7
 10
288.69999999999999
 20
-8.9590267661758318
 30
0.0
 11
290.30000000000013
 21
-8.9590267661758318
 31
0.0
  0
LINE
  5
95
  8
1
 62
     7
 10
292.19999999999999
 20
-6.0847657912234112
 30
0.0
 11
292.19999999999999
 21
-7.0590267661758306
 31
0.0
  0
LINE
  5
96
  8
1
  6
DASHDOT
 62
     3
 10
262.0
 20
0.0000000000000016
 30
0.0
 11
268.0
 21
0.0000000000000012
 31
0.0
  0
LINE
  5
97
  8
1
  6
DASHDOT
 62
     3
 10
31.289475067504782
 20
31.289475067504739
 30
0.0
 11
26.693280989792239
 21
26.693280989792171
 31
0.0
  0
LINE
  5
98
  8
1
  6
DASHDOT
 62
     3
 10
31.289475067504782
 20
-31.289475067504721
 30
0.0
 11
26.693280989792239
 21
-26.693280989792171
 31
0.0
  0
LINE
  5
99
  8
1
  6
DASHDOT
 62
     3
 10
-31.289475067504672
 20
-31.28947506750476
 30
0.0
 11
-26.693280989792189
 21
-26.6932809897922
 31
0.0
  0
LINE
  5
9A
  8
1
  6
DASHDOT
 62
     3
 10
-31.289475067504782
 20
31.289475067504721
 30
0.0
 11
-26.693280989792299
 21
26.693280989792171
 31
0.0
  0
LINE
  5
9B
  8
1
 62
     7
 10
-4.2000000000000091
 20
-7.0590267661758306
 30
0.0
 11
-4.2000000000000091
 21
-6.0847657912234112
 31
0.0
  0
LINE
  5
9C
  8
1
 62
     7
 10
-2.3000000000000029
 20
-8.9590267661758318
 30
0.0
 11
-0.70000000000001
 21
-8.9590267661758318
 31
0.0
  0
LINE
  5
9D
  8
1
 62
     7
 10
-0.70000000000001
 20
-5.9590267661758309
 30
0.0
 11
-0.70000000000001
 21
-8.9590267661758318
 31
0.0
  0
LINE
  5
9E
  8
1
 62
     7
 10
0.6999999999999959
 20
-8.9590267661758318
 30
0.0
 11
0.6999999999999959
 21
-5.9590267661758309
 31
0.0
  0
LINE
  5
9F
  8
1
 62
     7
 10
0.6999999999999959
 20
-8.9590267661758318
 30
0.0
 11
2.2999999999999901
 21
-8.9590267661758318
 31
0.0
  0
LINE
  5
A0
  8
1
 62
     7
 10
4.1999999999999948
 20
-6.0847657912234112
 30
0.0
 11
4.1999999999999948
 21
-7.0590267661758306
 31
0.0
  0
LINE
  5
A1
  8
1
 62
     7
 10
6.3000000000000123
 20
-19.951647486698779
 30
0.0
 11
6.3000000000000123
 21
-19.17385216811277
 31
0.0
  0
LINE
  5
A2
  8
1
 62
     7
 10
1.30000000000001
 20
-22.451647486698779
 30
0.0
 11
3.8000000000000109
 21
-22.451647486698779
 31
0.0
  0
LINE
  5
A3
  8
1
 62
     7
 10
1.30000000000001
 20
-22.451647486698779
 30
0.0
 11
1.30000000000001
 21
-17.451647486698779
 31
0.0
  0
LINE
  5
A4
  8
1
 62
     7
 10
-1.3000000000001251
 20
-17.451647486698779
 30
0.0
 11
-1.3000000000001251
 21
-22.451647486698779
 31
0.0
  0
LINE
  5
A5
  8
1
 62
     7
 10
-3.8000000000001251
 20
-22.451647486698779
 30
0.0
 11
-1.3000000000001251
 21
-22.451647486698779
 31
0.0
  0
LINE
  5
A6
  8
1
 62
     7
 10
-6.3000000000001251
 20
-19.17385216811277
 30
0.0
 11
-6.3000000000001251
 21
-19.951647486698779
 31
0.0
  0
LINE
  5
A7
  8
1
 62
     3
 10
288.92000000000007
 20
65.0
 30
0.0
 11
288.92000000000007
 21
70.0
 31
0.0
  0
LINE
  5
A8
  8
1
 62
     3
 10
287.07999999999998
 20
70.0
 30
0.0
 11
287.07999999999998
 21
65.0
 31
0.0
  0
LINE
  5
A9
  8
1
 62
     3
 10
143.0
 20
70.0
 30
0.0
 11
143.0
 21
65.0
 31
0.0
  0
LINE
  5
AA
  8
1
 62
     3
 10
0.9200000000000136
 20
65.0
 30
0.0
 11
0.9200000000000136
 21
70.0
 31
0.0
  0
LINE
  5
AB
  8
1
 62
     3
 10
-0.9199999999999864
 20
70.0
 30
0.0
 11
-0.9199999999999864
 21
65.0
 31
0.0
  0
ARC
  5
AC
  8
1
 62
     7
 10
281.60000000000008
 20
-6.0847657912234112
 30
0.0
 40
2.200000000000045
 50
0.0
 51
47.089815978323898
  0
ARC
  5
AD
  8
1
 62
     7
 10
285.69999999999987
 20
-7.0590267661758306
 30
0.0
 40
1.8999999999998629
 50
180.0
 51
270.0
  0
ARC
  5
AE
  8
1
 62
     7
 10
290.30000000000013
 20
-7.0590267661758306
 30
0.0
 40
1.8999999999999979
 50
270.0
 51
0.0
  0
ARC
  5
AF
  8
1
 62
     7
 10
294.39999999999998
 20
-6.0847657912234112
 30
0.0
 40
2.199999999999974
 50
132.91018402167501
 51
180.0
  0
ARC
  5
B0
  8
1
 62
     7
 10
-6.4000000000000119
 20
-6.0847657912234112
 30
0.0
 40
2.200000000000002
 50
0.0
 51
47.089815978324083
  0
ARC
  5
B1
  8
1
 62
     7
 10
-2.3000000000000029
 20
-7.0590267661758306
 30
0.0
 40
1.900000000000005
 50
180.0
 51
270.0
  0
ARC
  5
B2
  8
1
 62
     7
 10
2.2999999999999901
 20
-7.0590267661758306
 30
0.0
 40
1.8999999999999979
 50
270.0
 51
0.0
  0
ARC
  5
B3
  8
1
 62
     7
 10
6.3999999999999977
 20
-6.0847657912234112
 30
0.0
 40
2.2000000000000011
 50
132.910184021676
 51
180.0
  0
ARC
  5
B4
  8
1
 62
     7
 10
3.8000000000000109
 20
-19.951647486698779
 30
0.0
 40
2.5
 50
270.0
 51
0.0
  0
ARC
  5
B5
  8
1
 62
     7
 10
9.1999999999999886
 20
-19.17385216811277
 30
0.0
 40
2.8999999999999981
 50
114.8403533014431
 51
180.0
  0
ARC
  5
B6
  8
1
 62
     7
 10
-9.2000000000001005
 20
-19.17385216811277
 30
0.0
 40
2.8999999999999759
 50
0.0
 51
65.159646698556998
  0
ARC
  5
B7
  8
1
 62
     7
 10
-3.8000000000001251
 20
-19.951647486698779
 30
0.0
 40
2.5
 50
180.0
 51
270.0
  0
ARC
  5
B8
  8
1
  6
DASHDOT
 62
     3
 10
288.00000000000011
 20
0.0
 30
0.0
 40
41.000000000000057
 50
220.45707146193391
 51
229.54292853806629
  0
ARC
  5
B9
  8
1
  6
DASHDOT
 62
     3
 10
288.00000000000011
 20
0.0
 30
0.0
 40
41.000000000000043
 50
310.45707146193388
 51
319.54292853806612
  0
ARC
  5
BA
  8
1
  6
DASHDOT
 62
     3
 10
288.00000000000011
 20
0.0
 30
0.0
 40
40.999999999999993
 50
40.457071461933893
 51
49.542928538066029
  0
ARC
  5
BB
  8
1
  6
DASHDOT
 62
     3
 10
288.00000000000011
 20
0.0
 30
0.0
 40
40.99999999999995
 50
130.45707146193371
 51
139.54292853806601
  0
ARC
  5
BC
  8
1
  6
DASHDOT
 62
     3
 10
288.00000000000011
 20
0.0
 30
0.0
 40
22.999999999999979
 50
82.521329536955093
 51
97.478670463045361
  0
ARC
  5
BD
  8
1
  6
DASHDOT
 62
     3
 10
288.00000000000011
 20
0.0
 30
0.0
 40
23.00000000000005
 50
352.52132953695468
 51
7.4786704630453169
  0
ARC
  5
BE
  8
1
  6
DASHDOT
 62
     3
 10
288.00000000000011
 20
0.0
 30
0.0
 40
23.000000000000021
 50
262.52132953695468
 51
277.47867046304481
  0
ARC
  5
BF
  8
1
 62
     7
 10
288.00000000000011
 20
0.7999999999999972
 30
0.0
 40
7.2000000000000126
 50
312.91018402167612
 51
227.08981597832391
  0
ARC
  5
C0
  8
1
  6
DASHDOT
 62
     3
 10
288.00000000000011
 20
0.0
 30
0.0
 40
23.000000000000028
 50
172.5213295369548
 51
187.4786704630452
  0
ARC
  5
C1
  8
1
  6
DASHDOT
 62
     3
 10
0.0
 20
0.0
 30
0.0
 40
40.999999999999972
 50
40.4570714619339
 51
49.542928538066093
  0
ARC
  5
C2
  8
1
  6
DASHDOT
 62
     3
 10
0.0
 20
0.0
 30
0.0
 40
41.0
 50
310.45707146193382
 51
319.54292853806612
  0
ARC
  5
C3
  8
1
  6
DASHDOT
 62
     3
 10
0.0
 20
0.0
 30
0.0
 40
40.999999999999993
 50
220.45707146193391
 51
229.54292853806601
  0
ARC
  5
C4
  8
1
  6
DASHDOT
 62
     3
 10
0.0
 20
0.0
 30
0.0
 40
40.999999999999993
 50
130.45707146193391
 51
139.54292853806601
  0
ARC
  5
C5
  8
1
 62
     7
 10
0.0
 20
0.0
 30
0.0
 40
45.999999999999993
 50
92.292442775955848
 51
87.707557224044137
  0
ARC
  5
C6
  8
1
 62
     7
 10
0.0
 20
0.7999999999999972
 30
0.0
 40
7.2000000000000011
 50
312.91018402167578
 51
227.08981597832391
  0
ARC
  5
C7
  8
1
 62
     7
 10
0.0
 20
0.6999999999999887
 30
0.0
 40
19.0
 50
294.84035330144269
 51
245.159646698557
  0
CIRCLE
  5
C8
  8
1
 62
     7
 10
288.00000000000011
 20
0.0
 30
0.0
 40
46.0
  0
CIRCLE
  5
C9
  8
1
 62
     7
 10
288.00000000000011
 20
0.0
 30
0.0
 40
6.0
  0
CIRCLE
  5
CA
  8
1
 62
     7
 10
316.99137802864863
 20
28.991378028648441
 30
0.0
 40
2.25
  0
CIRCLE
  5
CB
  8
1
 62
     7
 10
259.00862197135172
 20
28.991378028648441
 30
0.0
 40
2.25
  0
CIRCLE
  5
CC
  8
1
 62
     7
 10
259.00862197135172
 20
-28.991378028648441
 30
0.0
 40
2.25
  0
CIRCLE
  5
CD
  8
1
 62
     7
 10
316.99137802864863
 20
-28.991378028648441
 30
0.0
 40
2.25
  0
CIRCLE
  5
CE
  8
1
 62
     7
 10
0.0
 20
0.0
 30
0.0
 40
6.0
  0
CIRCLE
  5
CF
  8
1
 62
     7
 10
288.00000000000011
 20
0.0
 30
0.0
 40
14.0
  0
CIRCLE
  5
D0
  8
1
 62
     7
 10
288.00000000000011
 20
0.0
 30
0.0
 40
27.0
  0
CIRCLE
  5
D1
  8
1
 62
     7
 10
288.00000000000011
 20
0.0
 30
0.0
 40
34.5
  0
CIRCLE
  5
D2
  8
1
 62
     3
 10
288.00000000000011
 20
23.0
 30
0.0
 40
2.0
  0
CIRCLE
  5
D3
  8
1
 62
     3
 10
288.00000000000011
 20
-22.999999999999979
 30
0.0
 40
2.0
  0
CIRCLE
  5
D4
  8
1
 62
     3
 10
311.00000000000011
 20
0.0000000000000099
 30
0.0
 40
2.0
  0
CIRCLE
  5
D5
  8
1
 62
     7
 10
0.0
 20
0.0
 30
0.0
 40
17.5
  0
CIRCLE
  5
D6
  8
1
 62
     7
 10
0.0
 20
0.0
 30
0.0
 40
34.5
  0
CIRCLE
  5
D7
  8
1
 62
     7
 10
0.0
 20
0.0
 30
0.0
 40
14.0
  0
CIRCLE
  5
D8
  8
1
 62
     7
 10
288.00000000000011
 20
23.0
 30
0.0
 40
1.62099999999998
  0
CIRCLE
  5
D9
  8
1
 62
     7
 10
288.00000000000011
 20
-22.999999999999979
 30
0.0
 40
1.621000000000095
  0
CIRCLE
  5
DA
  8
1
 62
     7
 10
311.00000000000011
 20
0.0000000000000099
 30
0.0
 40
1.620999999999867
  0
CIRCLE
  5
DB
  8
1
 62
     7
 10
285.75823648859921
 20
-7.2633137769387881
 30
0.0
 40
0.8999999999999772
  0
CIRCLE
  5
DC
  8
1
 62
     7
 10
290.2417635114009
 20
-7.2633137769387881
 30
0.0
 40
0.8999999999999772
  0
CIRCLE
  5
DD
  8
1
 62
     3
 10
265.0
 20
0.0000000000000014
 30
0.0
 40
2.0
  0
CIRCLE
  5
DE
  8
1
 62
     7
 10
265.0
 20
0.0000000000000014
 30
0.0
 40
1.621000000000095
  0
CIRCLE
  5
DF
  8
1
 62
     7
 10
288.00000000000011
 20
0.0
 30
0.0
 40
31.0
  0
CIRCLE
  5
E0
  8
1
 62
     7
 10
0.0
 20
0.0
 30
0.0
 40
31.0
  0
CIRCLE
  5
E1
  8
1
 62
     7
 10
28.991378028648459
 20
28.991378028648441
 30
0.0
 40
2.25
  0
CIRCLE
  5
E2
  8
1
 62
     7
 10
28.991378028648459
 20
-28.991378028648441
 30
0.0
 40
2.25
  0
CIRCLE
  5
E3
  8
1
 62
     7
 10
-28.991378028648459
 20
-28.991378028648441
 30
0.0
 40
2.25
  0
CIRCLE
  5
E4
  8
1
 62
     7
 10
-28.991378028648459
 20
28.991378028648441
 30
0.0
 40
2.25
  0
CIRCLE
  5
E5
  8
1
 62
     7
 10
-2.2417635114008831
 20
-7.2633137769387881
 30
0.0
 40
0.9000000000000054
  0
CIRCLE
  5
E6
  8
1
 62
     7
 10
2.2417635114008689
 20
-7.2633137769387881
 30
0.0
 40
0.900000000000006
  0
CIRCLE
  5
E7
  8
1
 62
     7
 10
3.519147686844406
 20
-20.078127098775099
 30
0.0
 40
1.199999999999988
  0
CIRCLE
  5
E8
  8
1
 62
     7
 10
-3.519147686844518
 20
-20.078127098775099
 30
0.0
 40
1.1999999999999891
  0
TEXT
  5
EA
  8
1
 62
     7
 10
-53.071536687328781
 20
72.949545913218998
 30
0.0
 40
5.0
  1
OPC 20
 41
0.9
  7
SIMPLEX
 72
     1
 11
-40.535822401614489
 21
72.949545913218998
 31
0.0
  0
ENDSEC
  0
EOF
