  0
SECTION
  2
HEADER
  9
$ACADVER
  1
AC1009
  9
$INSBASE
 10
0.0
 20
0.0
 30
0.0
  9
$EXTMIN
 10
-71.109052904713849
 20
-64.000000000000071
 30
0.0
  9
$EXTMAX
 10
384.0
 20
106.76912209888999
 30
0.0
  9
$LIMMIN
 10
-71.666195761856699
 20
-64.000000000000043
  9
$LIMMAX
 10
384.0
 20
106.76912209888999
  9
$ORTHOMODE
 70
     0
  9
$REGENMODE
 70
     1
  9
$FILLMODE
 70
     1
  9
$QTEXTMODE
 70
     0
  9
$MIRRTEXT
 70
     1
  9
$DRAGMODE
 70
     2
  9
$LTSCALE
 40
1.0
  9
$OSMODE
 70
    37
  9
$ATTMODE
 70
     1
  9
$TEXTSIZE
 40
3.5
  9
$TRACEWID
 40
0.5
  9
$TEXTSTYLE
  7
STANDARD
  9
$CLAYER
  8
0
  9
$CELTYPE
  6
BYLAYER
  9
$CECOLOR
 62
   256
  9
$DIMSCALE
 40
1.0
  9
$DIMASZ
 40
0.18
  9
$DIMEXO
 40
0.0625
  9
$DIMDLI
 40
0.38
  9
$DIMRND
 40
0.0
  9
$DIMDLE
 40
0.0
  9
$DIMEXE
 40
0.18
  9
$DIMTP
 40
0.0
  9
$DIMTM
 40
0.0
  9
$DIMTXT
 40
0.18
  9
$DIMCEN
 40
0.09
  9
$DIMTSZ
 40
0.0
  9
$DIMTOL
 70
     0
  9
$DIMLIM
 70
     0
  9
$DIMTIH
 70
     1
  9
$DIMTOH
 70
     1
  9
$DIMSE1
 70
     0
  9
$DIMSE2
 70
     0
  9
$DIMTAD
 70
     0
  9
$DIMZIN
 70
     0
  9
$DIMBLK
  1

  9
$DIMASO
 70
     1
  9
$DIMSHO
 70
     1
  9
$DIMPOST
  1

  9
$DIMAPOST
  1

  9
$DIMALT
 70
     0
  9
$DIMALTD
 70
     2
  9
$DIMALTF
 40
25.399999999999999
  9
$DIMLFAC
 40
1.0
  9
$DIMTOFL
 70
     0
  9
$DIMTVP
 40
0.0
  9
$DIMTIX
 70
     0
  9
$DIMSOXD
 70
     0
  9
$DIMSAH
 70
     0
  9
$DIMBLK1
  1

  9
$DIMBLK2
  1

  9
$DIMSTYLE
  2
STANDARD
  9
$DIMCLRD
 70
     0
  9
$DIMCLRE
 70
     0
  9
$DIMCLRT
 70
     0
  9
$DIMTFAC
 40
1.0
  9
$DIMGAP
 40
0.09
  9
$LUNITS
 70
     2
  9
$LUPREC
 70
     4
  9
$SKETCHINC
 40
0.1
  9
$FILLETRAD
 40
2.0
  9
$AUNITS
 70
     0
  9
$AUPREC
 70
     0
  9
$MENU
  1
ACAD
  9
$ELEVATION
 40
0.0
  9
$PELEVATION
 40
0.0
  9
$THICKNESS
 40
0.0
  9
$LIMCHECK
 70
     0
  9
$BLIPMODE
 70
     0
  9
$CHAMFERA
 40
0.0
  9
$CHAMFERB
 40
0.0
  9
$SKPOLY
 70
     0
  9
$TDCREATE
 40
2452095.1160217589
  9
$TDUPDATE
 40
2452095.1164425919
  9
$TDINDWG
 40
0.0004341435
  9
$TDUSRTIMER
 40
0.0004341435
  9
$USRTIMER
 70
     1
  9
$ANGBASE
 50
0.0
  9
$ANGDIR
 70
     0
  9
$PDMODE
 70
     0
  9
$PDSIZE
 40
0.0
  9
$PLINEWID
 40
0.0
  9
$COORDS
 70
     1
  9
$SPLFRAME
 70
     0
  9
$SPLINETYPE
 70
     6
  9
$SPLINESEGS
 70
     8
  9
$ATTDIA
 70
     0
  9
$ATTREQ
 70
     1
  9
$HANDLING
 70
 10241
  9
$HANDSEED
  5
E8
  9
$SURFTAB1
 70
     6
  9
$SURFTAB2
 70
     6
  9
$SURFTYPE
 70
     6
  9
$SURFU
 70
     6
  9
$SURFV
 70
     6
  9
$UCSNAME
  2

  9
$UCSORG
 10
0.0
 20
0.0
 30
0.0
  9
$UCSXDIR
 10
1.0
 20
0.0
 30
0.0
  9
$UCSYDIR
 10
0.0
 20
1.0
 30
0.0
  9
$PUCSNAME
  2

  9
$PUCSORG
 10
0.0
 20
0.0
 30
0.0
  9
$PUCSXDIR
 10
1.0
 20
0.0
 30
0.0
  9
$PUCSYDIR
 10
0.0
 20
1.0
 30
0.0
  9
$USERI1
 70
     0
  9
$USERI2
 70
     0
  9
$USERI3
 70
     0
  9
$USERI4
 70
     0
  9
$USERI5
 70
     0
  9
$USERR1
 40
0.0
  9
$USERR2
 40
0.0
  9
$USERR3
 40
0.0
  9
$USERR4
 40
0.0
  9
$USERR5
 40
0.0
  9
$WORLDVIEW
 70
     1
  9
$SHADEDGE
 70
     3
  9
$SHADEDIF
 70
    70
  9
$TILEMODE
 70
     1
  9
$MAXACTVP
 70
    64
  9
$PLIMCHECK
 70
     0
  9
$PEXTMIN
 10
1.0000000000000000E+020
 20
1.0000000000000000E+020
 30
1.0000000000000000E+020
  9
$PEXTMAX
 10
-1.0000000000000000E+020
 20
-1.0000000000000000E+020
 30
-1.0000000000000000E+020
  9
$PLIMMIN
 10
0.0
 20
0.0
  9
$PLIMMAX
 10
12.0
 20
9.0
  9
$UNITMODE
 70
     0
  9
$VISRETAIN
 70
     1
  9
$PLINEGEN
 70
     0
  9
$PSLTSCALE
 70
     1
  0
ENDSEC
  0
SECTION
  2
TABLES
  0
TABLE
  2
VPORT
 70
     2
  0
VPORT
  2
*ACTIVE
 70
     0
 10
0.0
 20
0.0
 11
1.0
 21
1.0
 12
-46.928286815065597
 22
91.384731081224444
 13
0.0
 23
0.0
 14
1.0
 24
1.0
 15
0.0
 25
0.0
 16
0.0
 26
0.0
 36
1.0
 17
0.0
 27
0.0
 37
0.0
 40
9.0000000913413487
 41
2.4144144144144142
 42
50.0
 43
0.0
 44
0.0
 50
0.0
 51
0.0
 71
     0
 72
   100
 73
     1
 74
     1
 75
     0
 76
     0
 77
     0
 78
     0
  0
ENDTAB
  0
TABLE
  2
LTYPE
 70
     9
  0
LTYPE
  2
CONTINUOUS
 70
     0
  3
Solid line
 72
    65
 73
     0
 40
0.0
  0
LTYPE
  2
BORDER
 70
     0
  3
__ __ . __ __ .
 72
    65
 73
     6
 40
20.98462743640129
 49
5.9956078389717984
 49
-2.9978039194858992
 49
5.9956078389717984
 49
-2.9978039194858992
 49
0.0
 49
-2.9978039194858992
  0
LTYPE
  2
CENTER
 70
     0
  3
____ _ ____ _
 72
    65
 73
     4
 40
23.98243135588719
 49
14.9890195974295
 49
-2.9978039194858992
 49
2.9978039194858992
 49
-2.9978039194858992
  0
LTYPE
  2
DASHDOT
 70
     0
  3
__ . __ . __ .
 72
    65
 73
     4
 40
11.99121567794359
 49
5.9956078389717984
 49
-2.9978039194858992
 49
0.0
 49
-2.9978039194858992
  0
LTYPE
  2
DASHED
 70
     0
  3
__ __ __ __ __
 72
    65
 73
     2
 40
8.9934117584576985
 49
5.9956078389717984
 49
-2.9978039194858992
  0
LTYPE
  2
DIVIDE
 70
     0
  3
__ . . __ . . 
 72
    65
 73
     6
 40
14.9890195974295
 49
5.9956078389717984
 49
-2.9978039194858992
 49
0.0
 49
-2.9978039194858992
 49
0.0
 49
-2.9978039194858992
  0
LTYPE
  2
DOT
 70
     0
  3
..............
 72
    65
 73
     4
 40
5.9956078389717984
 49
0.0
 49
-2.9978039194858992
 49
0.0
 49
-2.9978039194858992
  0
LTYPE
  2
HIDDEN
 70
     0
  3
_ _ _ _ _ _ _
 72
    65
 73
     2
 40
4.4967058792288466
 49
2.9978039194858992
 49
-1.4989019597429489
  0
LTYPE
  2
PHANTOM
 70
     0
  3
_____ _ _ _____ _ _ 
 72
    65
 73
     6
 40
29.97803919485899
 49
14.9890195974295
 49
-2.9978039194858992
 49
2.9978039194858992
 49
-2.9978039194858992
 49
2.9978039194858992
 49
-2.9978039194858992
  0
ENDTAB
  0
TABLE
  2
LAYER
 70
     2
  0
LAYER
  2
0
 70
     0
 62
     7
  6
CONTINUOUS
  0
LAYER
  2
1
 70
     0
 62
     7
  6
CONTINUOUS
  0
ENDTAB
  0
TABLE
  2
STYLE
 70
     4
  0
STYLE
  2
STANDARD
 70
     0
 40
0.0
 41
1.0
 50
0.0
 71
     0
 42
3.5
  3
txt
  4

  0
STYLE
  2
SIMPLEX
 70
     0
 40
0.0
 41
1.0
 50
0.0
 71
     0
 42
3.5
  3
simplex
  4

  0
STYLE
  2
COMPLEX
 70
     0
 40
0.0
 41
1.0
 50
0.0
 71
     0
 42
3.5
  3
complex
  4

  0
STYLE
  2
ITALIC
 70
     0
 40
0.0
 41
1.0
 50
0.0
 71
     0
 42
3.5
  3
italic
  4

  0
ENDTAB
  0
TABLE
  2
VIEW
 70
     0
  0
ENDTAB
  0
TABLE
  2
UCS
 70
     0
  0
ENDTAB
  0
TABLE
  2
APPID
 70
     1
  0
APPID
  2
ACAD
 70
     0
  0
ENDTAB
  0
TABLE
  2
DIMSTYLE
 70
     1
  0
DIMSTYLE
  2
STANDARD
 70
     0
  3

  4

  5

  6

  7

 40
1.0
 41
0.18
 42
0.0625
 43
0.38
 44
0.18
 45
0.0
 46
0.0
 47
0.0
 48
0.0
140
0.18
141
0.09
142
0.0
143
25.399999999999999
144
1.0
145
0.0
146
1.0
147
0.09
 71
     0
 72
     0
 73
     1
 74
     1
 75
     0
 76
     0
 77
     0
 78
     0
170
     0
171
     2
172
     0
173
     0
174
     0
175
     0
176
     0
177
     0
178
     0
  0
ENDTAB
  0
ENDSEC
  0
SECTION
  2
BLOCKS
  0
BLOCK
  8
0
  2
$MODEL_SPACE
 70
     0
 10
0.0
 20
0.0
 30
0.0
  3
$MODEL_SPACE
  1

  0
ENDBLK
  5
20
  8
0
  0
BLOCK
 67
     1
  8
0
  2
$PAPER_SPACE
 70
     0
 10
0.0
 20
0.0
 30
0.0
  3
$PAPER_SPACE
  1

  0
ENDBLK
  5
1C
 67
     1
  8
0
  0
ENDSEC
  0
SECTION
  2
ENTITIES
  0
LINE
  5
33
  8
1
  6
DASHDOT
 62
     3
 10
-43.624560028203518
 20
43.62456002820327
 30
0.0
 11
-36.985613027063323
 21
36.985613027063209
 31
0.0
  0
LINE
  5
34
  8
1
  6
DASHDOT
 62
     3
 10
-43.624560028203348
 20
-43.624560028203518
 30
0.0
 11
-36.985613027063273
 21
-36.985613027063323
 31
0.0
  0
LINE
  5
35
  8
1
  6
DASHDOT
 62
     3
 10
43.624560028203462
 20
-43.624560028203348
 30
0.0
 11
36.985613027063273
 21
-36.985613027063273
 31
0.0
  0
LINE
  5
36
  8
1
  6
DASHDOT
 62
     3
 10
43.624560028203277
 20
43.624560028203462
 30
0.0
 11
36.985613027063209
 21
36.985613027063273
 31
0.0
  0
LINE
  5
37
  8
1
  6
DASHDOT
 62
     3
 10
363.62456002820329
 20
43.624560028203462
 30
0.0
 11
356.98561302706321
 21
36.985613027063273
 31
0.0
  0
LINE
  5
38
  8
1
  6
DASHDOT
 62
     3
 10
363.62456002820352
 20
-43.624560028203348
 30
0.0
 11
356.98561302706321
 21
-36.985613027063273
 31
0.0
  0
LINE
  5
39
  8
1
  6
DASHDOT
 62
     3
 10
276.37543997179671
 20
-43.624560028203518
 30
0.0
 11
283.01438697293668
 21
-36.985613027063323
 31
0.0
  0
LINE
  5
3A
  8
1
 62
     7
 10
121.5
 20
-27.5
 30
0.0
 11
121.5
 21
27.5
 31
0.0
  0
LINE
  5
3B
  8
1
 62
     7
 10
5.0
 20
-11.167948635501681
 30
0.0
 11
5.0
 21
-10.829527310345391
 31
0.0
  0
LINE
  5
3C
  8
1
 62
     7
 10
0.7999999999999972
 20
-13.367948635501691
 30
0.0
 11
2.7999999999999972
 21
-13.367948635501691
 31
0.0
  0
LINE
  5
3D
  8
1
 62
     7
 10
0.7999999999999972
 20
-13.367948635501691
 30
0.0
 11
0.7999999999999972
 21
-9.9679486355016937
 31
0.0
  0
LINE
  5
3E
  8
1
 62
     7
 10
-0.7999999999999972
 20
-9.9679486355016937
 30
0.0
 11
-0.7999999999999972
 21
-13.367948635501691
 31
0.0
  0
LINE
  5
3F
  8
1
 62
     7
 10
-2.7999999999999972
 20
-13.367948635501691
 30
0.0
 11
-0.7999999999999972
 21
-13.367948635501691
 31
0.0
  0
LINE
  5
40
  8
1
 62
     7
 10
-5.0
 20
-10.829527310345391
 30
0.0
 11
-5.0
 21
-11.167948635501681
 31
0.0
  0
LINE
  5
41
  8
1
 62
     7
 10
325.0
 20
-11.167948635501681
 30
0.0
 11
325.0
 21
-10.829527310345391
 31
0.0
  0
LINE
  5
42
  8
1
 62
     7
 10
320.79999999999978
 20
-13.367948635501691
 30
0.0
 11
322.79999999999978
 21
-13.367948635501691
 31
0.0
  0
LINE
  5
43
  8
1
 62
     7
 10
320.79999999999978
 20
-13.367948635501691
 30
0.0
 11
320.79999999999978
 21
-9.9679486355016937
 31
0.0
  0
LINE
  5
44
  8
1
 62
     7
 10
319.19999999999982
 20
-9.9679486355016937
 30
0.0
 11
319.19999999999982
 21
-13.367948635501691
 31
0.0
  0
LINE
  5
45
  8
1
 62
     7
 10
317.19999999999982
 20
-13.367948635501691
 30
0.0
 11
319.19999999999982
 21
-13.367948635501691
 31
0.0
  0
LINE
  5
46
  8
1
 62
     7
 10
315.0
 20
-10.829527310345391
 30
0.0
 11
315.0
 21
-11.167948635501681
 31
0.0
  0
LINE
  5
47
  8
1
  6
DASHDOT
 62
     3
 10
282.0
 20
0.0000000000000016
 30
0.0
 11
287.99999999999989
 21
0.0000000000000016
 31
0.0
  0
LINE
  5
48
  8
1
 62
     7
 10
-3.0
 20
49.669972906560972
 30
0.0
 11
-3.0
 21
48.874685927665503
 31
0.0
  0
LINE
  5
49
  8
1
 62
     7
 10
3.0
 20
49.669972906560972
 30
0.0
 11
3.0
 21
48.874685927665503
 31
0.0
  0
LINE
  5
4A
  8
1
 62
     7
 10
-3.0
 20
49.669972906560972
 30
0.0
 11
3.0
 21
49.669972906560972
 31
0.0
  0
LINE
  5
4B
  8
1
 62
     3
 10
-0.5299999999999999
 20
90.0
 30
0.0
 11
-0.5299999999999999
 21
85.0
 31
0.0
  0
LINE
  5
4C
  8
1
 62
     7
 10
-1.8400000000000001
 20
85.0
 30
0.0
 11
1.8400000000000001
 21
85.0
 31
0.0
  0
LINE
  5
4D
  8
1
  6
DASHDOT
 62
     3
 10
0.0
 20
1.5
 30
0.0
 11
0.0
 21
-1.499999999999992
 31
0.0
  0
LINE
  5
4E
  8
1
  6
DASHDOT
 62
     3
 10
-1.5
 20
0.0
 30
0.0
 11
1.5
 21
0.0
 31
0.0
  0
LINE
  5
4F
  8
1
 62
     7
 10
0.0
 20
85.0
 30
0.0
 11
0.0
 21
49.669972906560972
 31
0.0
  0
LINE
  5
50
  8
1
 62
     7
 10
-1.8400000000000001
 20
85.0
 30
0.0
 11
-1.8400000000000001
 21
49.669972906560972
 31
0.0
  0
LINE
  5
51
  8
1
 62
     3
 10
-1.3100000000000041
 20
90.0
 30
0.0
 11
-1.3100000000000041
 21
85.0
 31
0.0
  0
LINE
  5
52
  8
1
 62
     3
 10
0.5299999999999999
 20
90.0
 30
0.0
 11
0.5299999999999999
 21
85.0
 31
0.0
  0
LINE
  5
53
  8
1
 62
     3
 10
1.3100000000000001
 20
85.0
 30
0.0
 11
1.3100000000000001
 21
90.0
 31
0.0
  0
LINE
  5
54
  8
1
 62
     7
 10
1.8400000000000001
 20
85.0
 30
0.0
 11
1.8400000000000001
 21
49.669972906560972
 31
0.0
  0
LINE
  5
55
  8
1
 62
     3
 10
157.61000000000001
 20
90.0
 30
0.0
 11
157.61000000000001
 21
85.0
 31
0.0
  0
LINE
  5
56
  8
1
 62
     3
 10
158.3899999999999
 20
90.0
 30
0.0
 11
158.3899999999999
 21
85.0
 31
0.0
  0
LINE
  5
57
  8
1
 62
     7
 10
158.9199999999999
 20
85.0
 30
0.0
 11
157.0799999999999
 21
85.0
 31
0.0
  0
LINE
  5
58
  8
1
 62
     3
 10
319.46999999999991
 20
90.0
 30
0.0
 11
319.46999999999991
 21
85.0
 31
0.0
  0
LINE
  5
59
  8
1
 62
     7
 10
318.16000000000003
 20
85.0
 30
0.0
 11
321.83999999999997
 21
85.0
 31
0.0
  0
LINE
  5
5A
  8
1
  6
DASHDOT
 62
     3
 10
206.49999999999989
 20
0.0
 30
0.0
 11
219.0
 21
0.0
 31
0.0
  0
LINE
  5
5B
  8
1
 62
     7
 10
195.5
 20
-40.0
 30
0.0
 11
195.5
 21
40.0
 31
0.0
  0
LINE
  5
5C
  8
1
 62
     7
 10
194.5
 20
49.0
 30
0.0
 11
194.5
 21
-49.000000000000007
 31
0.0
  0
LINE
  5
5D
  8
1
 62
     7
 10
157.08000000000001
 20
49.669972906560993
 30
0.0
 11
157.0799999999999
 21
85.0
 31
0.0
  0
LINE
  5
5E
  8
1
 62
     7
 10
158.9199999999999
 20
49.669972906560993
 30
0.0
 11
158.9199999999999
 21
85.0
 31
0.0
  0
LINE
  5
5F
  8
1
 62
     7
 10
320.0
 20
85.0
 30
0.0
 11
320.0
 21
64.0
 31
0.0
  0
LINE
  5
60
  8
1
 62
     7
 10
318.16000000000003
 20
85.0
 30
0.0
 11
318.16000000000003
 21
63.955426489502138
 31
0.0
  0
LINE
  5
61
  8
1
 62
     3
 10
318.69000000000011
 20
90.0
 30
0.0
 11
318.69000000000011
 21
85.0
 31
0.0
  0
LINE
  5
62
  8
1
  6
DASHDOT
 62
     3
 10
358.00000000000011
 20
0.0000000000000351
 30
0.0
 11
352.00000000000011
 21
0.0000000000000401
 31
0.0
  0
LINE
  5
63
  8
1
  6
DASHDOT
 62
     3
 10
320.0
 20
-37.999999999999957
 30
0.0
 11
319.99999999999977
 21
-32.00000000000005
 31
0.0
  0
LINE
  5
64
  8
1
  6
DASHDOT
 62
     3
 10
320.0
 20
38.0
 30
0.0
 11
320.0
 21
32.000000000000007
 31
0.0
  0
LINE
  5
65
  8
1
 62
     7
 10
201.5
 20
40.0
 30
0.0
 11
201.5
 21
-40.0
 31
0.0
  0
LINE
  5
66
  8
1
 62
     3
 10
320.52999999999992
 20
90.0
 30
0.0
 11
320.52999999999992
 21
85.0
 31
0.0
  0
LINE
  5
67
  8
1
 62
     3
 10
321.31
 20
85.0
 30
0.0
 11
321.31
 21
90.0
 31
0.0
  0
LINE
  5
68
  8
1
 62
     7
 10
128.0
 20
49.0
 30
0.0
 11
128.0
 21
-49.000000000000007
 31
0.0
  0
LINE
  5
69
  8
1
 62
     7
 10
126.0
 20
-32.432665953370361
 30
0.0
 11
128.0
 21
-32.432665953370361
 31
0.0
  0
LINE
  5
6A
  8
1
 62
     7
 10
126.0
 20
30.270343299348578
 30
0.0
 11
126.0
 21
-32.432665953370361
 31
0.0
  0
LINE
  5
6B
  8
1
 62
     7
 10
128.0
 20
30.2703432993486
 30
0.0
 11
126.0
 21
30.270343299348578
 31
0.0
  0
LINE
  5
6C
  8
1
 62
     7
 10
117.3
 20
-13.367948635501691
 30
0.0
 11
118.5
 21
-13.367948635501691
 31
0.0
  0
LINE
  5
6D
  8
1
 62
     7
 10
117.3
 20
12.000000000000011
 30
0.0
 11
117.3
 21
-13.367948635501691
 31
0.0
  0
LINE
  5
6E
  8
1
 62
     7
 10
118.5
 20
12.000000000000011
 30
0.0
 11
117.3
 21
12.000000000000011
 31
0.0
  0
LINE
  5
6F
  8
1
 62
     7
 10
202.69999999999999
 20
-13.367948635501691
 30
0.0
 11
201.50000000000011
 21
-13.367948635501691
 31
0.0
  0
LINE
  5
70
  8
1
 62
     7
 10
202.69999999999999
 20
12.000000000000011
 30
0.0
 11
202.69999999999999
 21
-13.367948635501691
 31
0.0
  0
LINE
  5
71
  8
1
 62
     7
 10
201.50000000000011
 20
12.000000000000011
 30
0.0
 11
202.69999999999999
 21
12.000000000000011
 31
0.0
  0
LINE
  5
72
  8
1
 62
     7
 10
201.5
 20
40.0
 30
0.0
 11
195.5
 21
40.0
 31
0.0
  0
LINE
  5
73
  8
1
 62
     7
 10
195.5
 20
31.5
 30
0.0
 11
194.5
 21
31.5
 31
0.0
  0
LINE
  5
74
  8
1
  6
DASHDOT
 62
     3
 10
101.0
 20
0.0
 30
0.0
 11
113.5
 21
0.0
 31
0.0
  0
LINE
  5
75
  8
1
 62
     7
 10
194.5
 20
-31.5
 30
0.0
 11
195.5
 21
-31.5
 31
0.0
  0
LINE
  5
76
  8
1
 62
     7
 10
195.5
 20
-40.0
 30
0.0
 11
201.5
 21
-40.0
 31
0.0
  0
LINE
  5
77
  8
1
 62
     7
 10
104.0
 20
-10.0
 30
0.0
 11
104.0
 21
10.0
 31
0.0
  0
LINE
  5
78
  8
1
 62
     7
 10
104.0
 20
10.0
 30
0.0
 11
117.3
 21
10.0
 31
0.0
  0
LINE
  5
79
  8
1
 62
     7
 10
117.3
 20
-10.0
 30
0.0
 11
104.0
 21
-10.0
 31
0.0
  0
LINE
  5
7A
  8
1
 62
     7
 10
202.69999999999999
 20
10.0
 30
0.0
 11
216.0
 21
10.0
 31
0.0
  0
LINE
  5
7B
  8
1
 62
     7
 10
216.0
 20
10.0
 30
0.0
 11
216.0
 21
-10.0
 31
0.0
  0
LINE
  5
7C
  8
1
 62
     7
 10
216.0
 20
-10.0
 30
0.0
 11
202.69999999999999
 21
-10.0
 31
0.0
  0
LINE
  5
7D
  8
1
 62
     7
 10
118.5
 20
27.5
 30
0.0
 11
126.0
 21
27.5
 31
0.0
  0
LINE
  5
7E
  8
1
 62
     7
 10
126.0
 20
-27.5
 30
0.0
 11
118.5
 21
-27.5
 31
0.0
  0
LINE
  5
7F
  8
1
 62
     7
 10
118.5
 20
-27.5
 30
0.0
 11
118.5
 21
27.5
 31
0.0
  0
LINE
  5
80
  8
1
 62
     7
 10
194.5
 20
-49.000000000000007
 30
0.0
 11
179.49999999999989
 21
-48.999999999999993
 31
0.0
  0
LINE
  5
81
  8
1
 62
     7
 10
179.49999999999989
 20
-64.0
 30
0.0
 11
173.5
 21
-64.0
 31
0.0
  0
LINE
  5
82
  8
1
 62
     7
 10
173.5
 20
-48.999999999999993
 30
0.0
 11
128.0
 21
-49.000000000000007
 31
0.0
  0
LINE
  5
83
  8
1
 62
     7
 10
128.0
 20
49.0
 30
0.0
 11
173.5
 21
49.0
 31
0.0
  0
LINE
  5
84
  8
1
 62
     7
 10
173.5
 20
64.0
 30
0.0
 11
173.5
 21
-64.0
 31
0.0
  0
LINE
  5
85
  8
1
 62
     7
 10
173.5
 20
64.0
 30
0.0
 11
179.49999999999989
 21
64.0
 31
0.0
  0
LINE
  5
86
  8
1
 62
     7
 10
179.49999999999989
 20
64.0
 30
0.0
 11
179.49999999999989
 21
-64.0
 31
0.0
  0
LINE
  5
87
  8
1
 62
     7
 10
179.49999999999989
 20
49.0
 30
0.0
 11
194.5
 21
49.0
 31
0.0
  0
LINE
  5
88
  8
1
 62
     7
 10
321.83999999999997
 20
85.0
 30
0.0
 11
321.83999999999997
 21
63.955426489502109
 31
0.0
  0
LINE
  5
89
  8
1
 62
     7
 10
155.0
 20
49.669972906560993
 30
0.0
 11
155.0
 21
49.0
 31
0.0
  0
LINE
  5
8A
  8
1
 62
     7
 10
155.0
 20
49.669972906560993
 30
0.0
 11
161.0
 21
49.669972906560993
 31
0.0
  0
LINE
  5
8B
  8
1
 62
     7
 10
161.0
 20
49.669972906560993
 30
0.0
 11
161.0
 21
49.0
 31
0.0
  0
LINE
  5
8C
  8
1
  6
DASHDOT
 62
     3
 10
276.37543997179642
 20
43.62456002820327
 30
0.0
 11
283.01438697293668
 21
36.985613027063209
 31
0.0
  0
LINE
  5
8D
  8
1
  6
DASHDOT
 62
     3
 10
320.0
 20
1.5
 30
0.0
 11
320.0
 21
-1.499999999999992
 31
0.0
  0
LINE
  5
8E
  8
1
  6
DASHDOT
 62
     3
 10
318.5
 20
0.0
 30
0.0
 11
321.49999999999989
 21
0.0
 31
0.0
  0
LINE
  5
8F
  8
1
  6
DASHDOT
 62
     3
 10
209.5
 20
2.9999999999999858
 30
0.0
 11
209.5
 21
-3.0000000000000129
 31
0.0
  0
LINE
  5
90
  8
1
  6
DASHDOT
 62
     3
 10
110.4999999999999
 20
2.9999999999999858
 30
0.0
 11
110.4999999999999
 21
-3.0000000000000129
 31
0.0
  0
LINE
  5
91
  8
1
 62
     7
 10
6.9232365145228334
 20
-29.267306231073992
 30
0.0
 11
6.9232365145228334
 21
-29.432665953370371
 31
0.0
  0
LINE
  5
92
  8
1
 62
     7
 10
1.9232365145228341
 20
-32.432665953370361
 30
0.0
 11
3.923236514522833
 21
-32.432665953370361
 31
0.0
  0
LINE
  5
93
  8
1
 62
     7
 10
1.9232365145228341
 20
-32.432665953370361
 30
0.0
 11
1.9232365145228341
 21
-27.432665953370371
 31
0.0
  0
LINE
  5
94
  8
1
 62
     7
 10
-1.828959328094008
 20
-27.432665953370371
 30
0.0
 11
-1.828959328094008
 21
-32.432665953370361
 31
0.0
  0
LINE
  5
95
  8
1
 62
     7
 10
-3.8289593280940082
 20
-32.432665953370361
 30
0.0
 11
-1.828959328094008
 21
-32.432665953370361
 31
0.0
  0
LINE
  5
96
  8
1
 62
     7
 10
-6.8289593280940082
 20
-29.432665953370371
 30
0.0
 11
-6.8289593280940082
 21
-29.267306231073992
 31
0.0
  0
LINE
  5
97
  8
1
 62
     3
 10
320.92000000000002
 20
85.0
 30
0.0
 11
320.92000000000002
 21
90.0
 31
0.0
  0
LINE
  5
98
  8
1
 62
     3
 10
319.07999999999981
 20
90.0
 30
0.0
 11
319.07999999999981
 21
85.0
 31
0.0
  0
LINE
  5
99
  8
1
 62
     3
 10
158.0
 20
90.0
 30
0.0
 11
158.0
 21
85.0
 31
0.0
  0
LINE
  5
9A
  8
1
 62
     3
 10
0.9200000000000002
 20
85.0
 30
0.0
 11
0.9200000000000002
 21
90.0
 31
0.0
  0
LINE
  5
9B
  8
1
 62
     3
 10
-0.9200000000000002
 20
90.0
 30
0.0
 11
-0.9200000000000002
 21
85.0
 31
0.0
  0
ARC
  5
9C
  8
1
  6
DASHDOT
 62
     3
 10
17.913371790057049
 20
-17.913371790056949
 30
0.0
 40
82.33333333333016
 50
131.73269269263531
 51
138.2673073073646
  0
ARC
  5
9D
  8
1
  6
DASHDOT
 62
     3
 10
17.913371790056889
 20
17.913371790057049
 30
0.0
 40
82.333333333330117
 50
221.7326926926354
 51
228.26730730736449
  0
ARC
  5
9E
  8
1
  6
DASHDOT
 62
     3
 10
-17.913371790057109
 20
17.913371790056889
 30
0.0
 40
82.33333333333016
 50
311.73269269263523
 51
318.2673073073646
  0
ARC
  5
9F
  8
1
  6
DASHDOT
 62
     3
 10
-17.913371790056939
 20
-17.913371790057109
 30
0.0
 40
82.333333333330117
 50
41.732692692635382
 51
48.267307307364639
  0
ARC
  5
A0
  8
1
  6
DASHDOT
 62
     3
 10
302.08662820994311
 20
-17.913371790057109
 30
0.0
 40
82.33333333333016
 50
41.732692692635382
 51
48.267307307364703
  0
ARC
  5
A1
  8
1
  6
DASHDOT
 62
     3
 10
302.08662820994277
 20
17.913371790056889
 30
0.0
 40
82.333333333330117
 50
311.73269269263523
 51
318.26730730736472
  0
ARC
  5
A2
  8
1
  6
DASHDOT
 62
     3
 10
337.91337179005677
 20
17.913371790057049
 30
0.0
 40
82.33333333333016
 50
221.7326926926354
 51
228.26730730736449
  0
ARC
  5
A3
  8
1
 62
     7
 10
2.7999999999999972
 20
-11.167948635501681
 30
0.0
 40
2.2000000000000011
 50
270.0
 51
0.0
  0
ARC
  5
A4
  8
1
 62
     7
 10
7.3999999999999977
 20
-10.829527310345391
 30
0.0
 40
2.3999999999999959
 50
122.69357725726969
 51
180.0
  0
ARC
  5
A5
  8
1
 62
     7
 10
-7.3999999999999977
 20
-10.829527310345391
 30
0.0
 40
2.399999999999999
 50
0.0
 51
57.306422742730341
  0
ARC
  5
A6
  8
1
 62
     7
 10
-2.7999999999999972
 20
-11.167948635501681
 30
0.0
 40
2.200000000000002
 50
180.0
 51
270.0
  0
ARC
  5
A7
  8
1
 62
     7
 10
322.79999999999978
 20
-11.167948635501681
 30
0.0
 40
2.2000000000000011
 50
270.0
 51
0.0
  0
ARC
  5
A8
  8
1
 62
     7
 10
327.39999999999998
 20
-10.829527310345391
 30
0.0
 40
2.3999999999999808
 50
122.6935772572692
 51
180.0
  0
ARC
  5
A9
  8
1
 62
     7
 10
312.59999999999991
 20
-10.829527310345391
 30
0.0
 40
2.4000000000000901
 50
0.0
 51
57.306422742728529
  0
ARC
  5
AA
  8
1
 62
     7
 10
317.19999999999982
 20
-11.167948635501681
 30
0.0
 40
2.1999999999998741
 50
180.0
 51
270.0
  0
ARC
  5
AB
  8
1
 62
     7
 10
10.12323651452283
 20
-29.267306231073992
 30
0.0
 40
3.2000000000000011
 50
108.3237648726312
 51
180.0
  0
ARC
  5
AC
  8
1
 62
     7
 10
3.923236514522833
 20
-29.432665953370371
 30
0.0
 40
2.999999999999996
 50
270.0
 51
0.0
  0
ARC
  5
AD
  8
1
 62
     7
 10
-3.8289593280940082
 20
-29.432665953370371
 30
0.0
 40
3.0
 50
180.0
 51
270.0
  0
ARC
  5
AE
  8
1
 62
     7
 10
-10.028959328094009
 20
-29.267306231073992
 30
0.0
 40
3.2000000000000011
 50
0.0
 51
71.676235127368571
  0
ARC
  5
AF
  8
1
 62
     7
 10
0.0
 20
0.0
 30
0.0
 40
64.000000000000071
 50
91.647480671799286
 51
88.352519328200671
  0
ARC
  5
B0
  8
1
  6
DASHDOT
 62
     3
 10
320.0
 20
0.0
 30
0.0
 40
35.00000000000005
 50
175.08742855283589
 51
184.91257144716411
  0
ARC
  5
B1
  8
1
  6
DASHDOT
 62
     3
 10
320.0
 20
0.0
 30
0.0
 40
34.999999999999993
 50
85.087428552836116
 51
94.91257144716387
  0
ARC
  5
B2
  8
1
  6
DASHDOT
 62
     3
 10
320.0
 20
0.0
 30
0.0
 40
34.999999999999993
 50
265.087428552836
 51
274.91257144716388
  0
ARC
  5
B3
  8
1
  6
DASHDOT
 62
     3
 10
320.0
 20
0.0
 30
0.0
 40
35.00000000000005
 50
355.08742855283577
 51
4.9125714471641304
  0
ARC
  5
B4
  8
1
  6
DASHDOT
 62
     3
 10
337.91337179005711
 20
-17.913371790056949
 30
0.0
 40
82.333333333330259
 50
131.73269269263531
 51
138.2673073073646
  0
ARC
  5
B5
  8
1
 62
     7
 10
0.0
 20
0.6999999999999887
 30
0.0
 40
11.300000000000001
 50
302.69357725726979
 51
237.30642274273021
  0
ARC
  5
B6
  8
1
 62
     7
 10
320.0
 20
0.6999999999999959
 30
0.0
 40
11.30000000000001
 50
302.69357725726979
 51
237.30642274273021
  0
ARC
  5
B7
  8
1
 62
     7
 10
0.0942771864288261
 20
1.2999979102962771
 30
0.0
 40
28.97049879012901
 50
288.1467640722538
 51
251.67623512736861
  0
CIRCLE
  5
B8
  8
1
 62
     7
 10
-40.305086527633193
 20
40.3050865276332
 30
0.0
 40
3.2499999999999432
  0
CIRCLE
  5
B9
  8
1
 62
     7
 10
-40.30508652763325
 20
-40.305086527633193
 30
0.0
 40
3.2499999999999432
  0
CIRCLE
  5
BA
  8
1
 62
     7
 10
40.305086527633136
 20
-40.30508652763325
 30
0.0
 40
3.2499999999999432
  0
CIRCLE
  5
BB
  8
1
 62
     7
 10
40.305086527633193
 20
40.305086527633136
 30
0.0
 40
3.2499999999999432
  0
CIRCLE
  5
BC
  8
1
 62
     7
 10
360.30508652763319
 20
40.305086527633136
 30
0.0
 40
3.2499999999998859
  0
CIRCLE
  5
BD
  8
1
 62
     7
 10
360.30508652763308
 20
-40.30508652763325
 30
0.0
 40
3.2499999999999432
  0
CIRCLE
  5
BE
  8
1
 62
     7
 10
279.69491347236669
 20
-40.305086527633193
 30
0.0
 40
3.2499999999998859
  0
CIRCLE
  5
BF
  8
1
 62
     7
 10
2.4692686693405639
 20
-11.70534423212456
 30
0.0
 40
1.0
  0
CIRCLE
  5
C0
  8
1
 62
     7
 10
-2.4692686693405639
 20
-11.70534423212456
 30
0.0
 40
1.0
  0
CIRCLE
  5
C1
  8
1
 62
     7
 10
0.0
 20
0.0
 30
0.0
 40
10.0
  0
CIRCLE
  5
C2
  8
1
 62
     7
 10
320.0
 20
0.0
 30
0.0
 40
45.0
  0
CIRCLE
  5
C3
  8
1
 62
     7
 10
322.46926866934029
 20
-11.70534423212456
 30
0.0
 40
1.0
  0
CIRCLE
  5
C4
  8
1
 62
     7
 10
317.53073133065931
 20
-11.70534423212456
 30
0.0
 40
1.0
  0
CIRCLE
  5
C5
  8
1
 62
     7
 10
0.0
 20
0.0
 30
0.0
 40
45.0
  0
CIRCLE
  5
C6
  8
1
 62
     7
 10
320.0
 20
0.0
 30
0.0
 40
40.0
  0
CIRCLE
  5
C7
  8
1
 62
     7
 10
285.0
 20
0.0000000000000014
 30
0.0
 40
1.62099999999998
  0
CIRCLE
  5
C8
  8
1
 62
     3
 10
285.0
 20
0.0000000000000014
 30
0.0
 40
2.0
  0
CIRCLE
  5
C9
  8
1
 62
     7
 10
355.0
 20
0.0
 30
0.0
 40
1.6209999999999241
  0
CIRCLE
  5
CA
  8
1
 62
     7
 10
320.0
 20
-35.0
 30
0.0
 40
1.621000000000095
  0
CIRCLE
  5
CB
  8
1
 62
     7
 10
320.0
 20
35.0
 30
0.0
 40
1.62099999999998
  0
CIRCLE
  5
CC
  8
1
 62
     7
 10
0.0
 20
0.0
 30
0.0
 40
21.0
  0
CIRCLE
  5
CD
  8
1
 62
     7
 10
0.0
 20
0.0
 30
0.0
 40
49.0
  0
CIRCLE
  5
CE
  8
1
 62
     7
 10
0.0
 20
0.0
 30
0.0
 40
27.5
  0
CIRCLE
  5
CF
  8
1
 62
     3
 10
355.0
 20
0.0
 30
0.0
 40
2.0
  0
CIRCLE
  5
D0
  8
1
 62
     3
 10
320.0
 20
-35.0
 30
0.0
 40
2.0
  0
CIRCLE
  5
D1
  8
1
 62
     3
 10
320.0
 20
35.0
 30
0.0
 40
2.0
  0
CIRCLE
  5
D2
  8
1
 62
     7
 10
320.0
 20
0.0
 30
0.0
 40
49.0
  0
CIRCLE
  5
D3
  8
1
 62
     7
 10
320.0
 20
0.0
 30
0.0
 40
21.0
  0
CIRCLE
  5
D4
  8
1
 62
     7
 10
0.0
 20
0.0
 30
0.0
 40
7.5
  0
CIRCLE
  5
D5
  8
1
 62
     7
 10
279.69491347236669
 20
40.3050865276332
 30
0.0
 40
3.2499999999998859
  0
CIRCLE
  5
D6
  8
1
 62
     7
 10
320.0
 20
0.0
 30
0.0
 40
7.5
  0
CIRCLE
  5
D7
  8
1
 62
     7
 10
320.0
 20
0.0
 30
0.0
 40
64.0
  0
CIRCLE
  5
D8
  8
1
 62
     7
 10
209.5
 20
-0.0000000000000142
 30
0.0
 40
1.621000000000008
  0
CIRCLE
  5
D9
  8
1
 62
     3
 10
209.5
 20
-0.0000000000000142
 30
0.0
 40
2.0
  0
CIRCLE
  5
DA
  8
1
 62
     7
 10
110.4999999999999
 20
-0.0000000000000142
 30
0.0
 40
1.6209999999999949
  0
CIRCLE
  5
DB
  8
1
 62
     3
 10
110.4999999999999
 20
-0.0000000000000142
 30
0.0
 40
2.0
  0
CIRCLE
  5
DC
  8
1
 62
     7
 10
320.0
 20
0.0
 30
0.0
 40
10.0
  0
CIRCLE
  5
DD
  8
1
 62
     7
 10
4.0815743521293024
 20
-30.11370648051707
 30
0.0
 40
1.2999999999999949
  0
CIRCLE
  5
DE
  8
1
 62
     7
 10
-3.987297165700475
 20
-30.11370648051707
 30
0.0
 40
1.299999999999998
  0
TEXT
  5
E0
  8
1
 62
     7
 10
-71.109052904713849
 20
100.76912209888989
 30
0.0
 40
6.0
  1
OPC 80
 41
0.9
  7
SIMPLEX
 72
     1
 11
-56.066195761856697
 21
100.76912209888989
 31
0.0
  0
ENDSEC
  0
EOF
